  0
SECTION
  2
HEADER
  9
$ACADVER
  1
AC1009
  9
$INSBASE
 10
0.0
 20
0.0
 30
0.0
  9
$EXTMIN
 10
0.0
 20
-1.4802182810368341
 30
0.0
  9
$EXTMAX
 10
108.00000034270001
 20
60.750000000000092
 30
0.0
  9
$LIMMIN
 10
0.0
 20
0.0
  9
$LIMMAX
 10
12.0
 20
9.0
  9
$ORTHOMODE
 70
     0
  9
$REGENMODE
 70
     1
  9
$FILLMODE
 70
     1
  9
$QTEXTMODE
 70
     0
  9
$MIRRTEXT
 70
     0
  9
$DRAGMODE
 70
     2
  9
$LTSCALE
 40
5.0
  9
$OSMODE
 70
    37
  9
$ATTMODE
 70
     1
  9
$TEXTSIZE
 40
0.2
  9
$TRACEWID
 40
0.05
  9
$TEXTSTYLE
  7
STANDARD
  9
$CLAYER
  8
0
  9
$CELTYPE
  6
BYLAYER
  9
$CECOLOR
 62
   256
  9
$DIMSCALE
 40
1.0
  9
$DIMASZ
 40
0.18
  9
$DIMEXO
 40
0.0625
  9
$DIMDLI
 40
0.38
  9
$DIMRND
 40
0.0
  9
$DIMDLE
 40
0.0
  9
$DIMEXE
 40
0.18
  9
$DIMTP
 40
0.0
  9
$DIMTM
 40
0.0
  9
$DIMTXT
 40
2.6000000000000001
  9
$DIMCEN
 40
0.09
  9
$DIMTSZ
 40
0.0
  9
$DIMTOL
 70
     0
  9
$DIMLIM
 70
     0
  9
$DIMTIH
 70
     0
  9
$DIMTOH
 70
     0
  9
$DIMSE1
 70
     0
  9
$DIMSE2
 70
     0
  9
$DIMTAD
 70
     1
  9
$DIMZIN
 70
     8
  9
$DIMBLK
  1

  9
$DIMASO
 70
     1
  9
$DIMSHO
 70
     1
  9
$DIMPOST
  1

  9
$DIMAPOST
  1

  9
$DIMALT
 70
     0
  9
$DIMALTD
 70
     2
  9
$DIMALTF
 40
25.399999999999999
  9
$DIMLFAC
 40
1.0
  9
$DIMTOFL
 70
     0
  9
$DIMTVP
 40
0.0
  9
$DIMTIX
 70
     0
  9
$DIMSOXD
 70
     0
  9
$DIMSAH
 70
     0
  9
$DIMBLK1
  1

  9
$DIMBLK2
  1

  9
$DIMSTYLE
  2
STANDARD
  9
$DIMCLRD
 70
     0
  9
$DIMCLRE
 70
     0
  9
$DIMCLRT
 70
     0
  9
$DIMTFAC
 40
1.0
  9
$DIMGAP
 40
0.09
  9
$LUNITS
 70
     2
  9
$LUPREC
 70
     4
  9
$SKETCHINC
 40
0.1
  9
$FILLETRAD
 40
0.0
  9
$AUNITS
 70
     0
  9
$AUPREC
 70
     0
  9
$MENU
  1
.
  9
$ELEVATION
 40
0.0
  9
$PELEVATION
 40
0.0
  9
$THICKNESS
 40
0.0
  9
$LIMCHECK
 70
     0
  9
$BLIPMODE
 70
     0
  9
$CHAMFERA
 40
0.0
  9
$CHAMFERB
 40
0.0
  9
$SKPOLY
 70
     0
  9
$TDCREATE
 40
2453083.4120647679
  9
$TDUPDATE
 40
2457298.6858360879
  9
$TDINDWG
 40
0.7053884375
  9
$TDUSRTIMER
 40
0.7053883218
  9
$USRTIMER
 70
     1
  9
$ANGBASE
 50
0.0
  9
$ANGDIR
 70
     0
  9
$PDMODE
 70
     0
  9
$PDSIZE
 40
0.0
  9
$PLINEWID
 40
0.0
  9
$COORDS
 70
     1
  9
$SPLFRAME
 70
     0
  9
$SPLINETYPE
 70
     6
  9
$SPLINESEGS
 70
     8
  9
$ATTDIA
 70
     0
  9
$ATTREQ
 70
     1
  9
$HANDLING
 70
     1
  9
$HANDSEED
  5
77E7
  9
$SURFTAB1
 70
     6
  9
$SURFTAB2
 70
     6
  9
$SURFTYPE
 70
     6
  9
$SURFU
 70
     6
  9
$SURFV
 70
     6
  9
$UCSNAME
  2

  9
$UCSORG
 10
0.0
 20
0.0
 30
0.0
  9
$UCSXDIR
 10
1.0
 20
0.0
 30
0.0
  9
$UCSYDIR
 10
0.0
 20
1.0
 30
0.0
  9
$PUCSNAME
  2

  9
$PUCSORG
 10
0.0
 20
0.0
 30
0.0
  9
$PUCSXDIR
 10
1.0
 20
0.0
 30
0.0
  9
$PUCSYDIR
 10
0.0
 20
1.0
 30
0.0
  9
$USERI1
 70
     0
  9
$USERI2
 70
     1
  9
$USERI3
 70
     0
  9
$USERI4
 70
     0
  9
$USERI5
 70
     0
  9
$USERR1
 40
0.0
  9
$USERR2
 40
0.0
  9
$USERR3
 40
0.0
  9
$USERR4
 40
0.0
  9
$USERR5
 40
0.0
  9
$WORLDVIEW
 70
     1
  9
$SHADEDGE
 70
     3
  9
$SHADEDIF
 70
    70
  9
$TILEMODE
 70
     1
  9
$MAXACTVP
 70
    64
  9
$PLIMCHECK
 70
     0
  9
$PEXTMIN
 10
0.0
 20
0.0
 30
0.0
  9
$PEXTMAX
 10
0.0
 20
0.0
 30
0.0
  9
$PLIMMIN
 10
0.0
 20
0.0
  9
$PLIMMAX
 10
12.0
 20
9.0
  9
$UNITMODE
 70
     0
  9
$VISRETAIN
 70
     1
  9
$PLINEGEN
 70
     0
  9
$PSLTSCALE
 70
     1
  0
ENDSEC
  0
SECTION
  2
TABLES
  0
TABLE
  2
VPORT
 70
     1
  0
VPORT
  2
*ACTIVE
 70
     0
 10
0.0
 20
0.0
 11
1.0
 21
1.0
 12
82.737781526302285
 22
29.635176230697731
 13
0.0
 23
0.0
 14
0.5
 24
0.5
 15
0.5
 25
0.5
 16
0.0
 26
0.0
 36
1.0
 17
0.0
 27
0.0
 37
0.0
 40
63.814431482651088
 41
2.6019575856443709
 42
50.0
 43
0.0
 44
0.0
 50
0.0
 51
0.0
 71
     0
 72
  1000
 73
     1
 74
     2
 75
     0
 76
     0
 77
     0
 78
     0
  0
ENDTAB
  0
TABLE
  2
LTYPE
 70
     3
  0
LTYPE
  2
CONTINUOUS
 70
     0
  3
Solid Line
 72
    65
 73
     0
 40
0.0
  0
LTYPE
  2
CENTER
 70
     0
  3
____ _ ____ _ ____ _ ____ _ ____ _ ____ _ ____
 72
    65
 73
     4
 40
2.0
 49
1.25
 49
-0.25
 49
0.25
 49
-0.25
  0
LTYPE
  2
PHANTOM2
 70
     0
  3
___ _ _ ___ _ _ ___ _ _ ___ _ _
 72
    65
 73
     6
 40
1.25
 49
0.625
 49
-0.125
 49
0.125
 49
-0.125
 49
0.125
 49
-0.125
  0
ENDTAB
  0
TABLE
  2
LAYER
 70
     4
  0
LAYER
  2
0
 70
     0
 62
     7
  6
CONTINUOUS
  0
LAYER
  2
1
 70
     0
 62
     1
  6
CENTER
  0
LAYER
  2
DEFPOINTS
 70
     0
 62
     7
  6
CONTINUOUS
  0
LAYER
  2
3
 70
     0
 62
     3
  6
CONTINUOUS
  0
ENDTAB
  0
TABLE
  2
STYLE
 70
     2
  0
STYLE
  2
STANDARD
 70
     0
 40
0.0
 41
1.0
 50
0.0
 71
     0
 42
0.2
  3
simplex.shx
  4
bigfont.shx
  0
STYLE
  2
STANDARD1
 70
     0
 40
0.0
 41
1.0
 50
0.0
 71
     0
 42
3.0
  3
txt
  4

  0
ENDTAB
  0
TABLE
  2
VIEW
 70
     0
  0
ENDTAB
  0
TABLE
  2
UCS
 70
     0
  0
ENDTAB
  0
TABLE
  2
APPID
 70
     5
  0
APPID
  2
ACAD
 70
     0
  0
APPID
  2
ACAD_MLEADERVER
 70
     0
  0
APPID
  2
ACAD_NAV_VCDISPLAY
 70
     0
  0
APPID
  2
ACAD_EXEMPT_FROM_CAD_STANDARDS
 70
     0
  0
APPID
  2
ACAD_DSTYLE_DIMRADIAL_EXTENSION
 70
     0
  0
ENDTAB
  0
TABLE
  2
DIMSTYLE
 70
     1
  0
DIMSTYLE
  2
STANDARD
 70
     0
  3

  4

  5

  6

  7

 40
1.0
 41
0.18
 42
0.0625
 43
0.38
 44
0.18
 45
0.0
 46
0.0
 47
0.0
 48
0.0
140
2.6000000000000001
141
0.09
142
0.0
143
25.399999999999999
144
1.0
145
0.0
146
1.0
147
0.09
 71
     0
 72
     0
 73
     0
 74
     0
 75
     0
 76
     0
 77
     1
 78
     8
170
     0
171
     2
172
     0
173
     0
174
     0
175
     0
176
     0
177
     0
178
     0
  0
ENDTAB
  0
ENDSEC
  0
SECTION
  2
BLOCKS
  0
BLOCK
  8
0
  2
$MODEL_SPACE
 70
     0
 10
0.0
 20
0.0
 30
0.0
  3
$MODEL_SPACE
  1

  0
ENDBLK
  5
21
  8
0
  0
BLOCK
 67
     1
  8
0
  2
$PAPER_SPACE
 70
     0
 10
0.0
 20
0.0
 30
0.0
  3
$PAPER_SPACE
  1

  0
ENDBLK
  5
5B
 67
     1
  8
0
  0
ENDSEC
  0
SECTION
  2
ENTITIES
  0
TEXT
  5
1F01
  8
0
 62
     3
 10
0.0
 20
0.0
 30
0.0
 40
5.0
  1
CP155-08061L
  7
STANDARD1
  0
LINE
  5
75F2
  8
0
 10
47.871854044000003
 20
42.250000126649986
 30
0.0
 11
50.913456540550001
 21
43.122165557000002
 31
0.0
  0
LINE
  5
75F3
  8
0
 10
50.913456540550001
 20
56.87783444299999
 30
0.0
 11
47.871854044000003
 21
57.749999873349999
 31
0.0
  0
LINE
  5
75F4
  8
0
 10
47.871854044000003
 20
57.749999873349999
 30
0.0
 11
47.20000042705
 21
57.749999873349999
 31
0.0
  0
LINE
  5
75F5
  8
0
 10
47.20000042705
 20
42.250000126649986
 30
0.0
 11
47.871854044000003
 21
42.250000126649986
 31
0.0
  0
LINE
  5
75F6
  8
0
 10
47.20000042705
 20
57.749999873349999
 30
0.0
 11
47.000000432100002
 21
57.550000213099999
 31
0.0
  0
LINE
  5
75F7
  8
0
 10
47.000000432100002
 20
42.449999786899987
 30
0.0
 11
47.20000042705
 21
42.250000126649986
 31
0.0
  0
ARC
  5
75F8
  8
0
 10
50.500000432100009
 20
55.435941996049991
 30
0.0
 40
1.5
 50
0.0
 51
74.000000000000114
  0
ARC
  5
75F9
  8
0
 10
50.500000432100009
 20
44.564058003949988
 30
0.0
 40
1.5
 50
285.99999999999989
 51
0.0
  0
POLYLINE
  5
75FA
  8
0
 66
     1
 10
0.0
 20
0.0
 30
0.0
 70
   128
  0
VERTEX
  5
77DF
  8
0
 10
47.000000432100002
 20
54.712701775100001
 30
0.0
  0
VERTEX
  5
77E0
  8
0
 10
46.978036560699991
 20
54.707685671749992
 30
0.0
  0
VERTEX
  5
77E1
  8
0
 10
46.900000434650003
 20
54.699999932200001
 30
0.0
  0
SEQEND
  5
77E2
  8
0
  0
POLYLINE
  5
75FB
  8
0
 66
     1
 10
0.0
 20
0.0
 30
0.0
 70
   128
  0
VERTEX
  5
77E3
  8
0
 10
46.900000434650003
 20
45.300000067799992
 30
0.0
  0
VERTEX
  5
77E4
  8
0
 10
46.978036560699991
 20
45.292314328250001
 30
0.0
  0
VERTEX
  5
77E5
  8
0
 10
47.000000432100002
 20
45.287298224849998
 30
0.0
  0
SEQEND
  5
77E6
  8
0
  0
LINE
  5
75FC
  8
0
 10
46.000000384600007
 20
45.000000111749991
 30
0.0
 11
46.300000457049997
 21
45.300000067799992
 31
0.0
  0
LINE
  5
75FD
  8
0
 10
46.300000457049997
 20
54.699999932200001
 30
0.0
 11
46.000000384600007
 21
54.999999888250002
 31
0.0
  0
LINE
  5
75FE
  8
0
 10
46.000000384600007
 20
54.999999888250002
 30
0.0
 11
43.0000002421
 21
54.999999888250002
 31
0.0
  0
LINE
  5
75FF
  8
0
 10
43.0000002421
 20
45.000000111749991
 30
0.0
 11
46.000000384600007
 21
45.000000111749991
 31
0.0
  0
LINE
  5
7600
  8
0
 10
43.0000002421
 20
54.999999888250002
 30
0.0
 11
42.00000054385
 21
54.422649741149989
 31
0.0
  0
LINE
  5
7601
  8
0
 10
42.00000054385
 20
45.577350258799989
 30
0.0
 11
43.0000002421
 21
45.000000111749991
 31
0.0
  0
LINE
  5
7602
  8
0
 10
46.900000434650003
 20
54.699999932200001
 30
0.0
 11
46.300000457049997
 21
54.699999932200001
 31
0.0
  0
LINE
  5
7603
  8
0
 10
46.300000457049997
 20
45.300000067799992
 30
0.0
 11
46.900000434650003
 21
45.300000067799992
 31
0.0
  0
ARC
  5
7604
  8
0
 10
53.21132529749999
 20
55.5
 30
0.0
 40
0.500000000000004
 50
30.000000000000028
 51
90.0
  0
ARC
  5
7605
  8
0
 10
53.21132529749999
 20
44.5
 30
0.0
 40
0.500000000000004
 50
270.0
 51
330.0
  0
LINE
  5
7606
  8
0
 10
53.211325492699999
 20
56.00000005215
 30
0.0
 11
52.200000446250002
 21
56.00000005215
 31
0.0
  0
LINE
  5
7607
  8
0
 10
52.200000446250002
 20
43.99999994785
 30
0.0
 11
53.211325492699999
 21
43.99999994785
 31
0.0
  0
LINE
  5
7608
  8
0
 10
52.200000446250002
 20
56.00000005215
 30
0.0
 11
52.00000032034999
 21
55.799999926249988
 31
0.0
  0
LINE
  5
7609
  8
0
 10
52.00000032034999
 20
44.20000007374999
 30
0.0
 11
52.200000446250002
 21
43.99999994785
 31
0.0
  0
LINE
  5
760A
  8
0
 10
53.644337870150011
 20
44.249999988799992
 30
0.0
 11
54.914508193700001
 21
46.449999976900003
 31
0.0
  0
LINE
  5
760B
  8
0
 10
54.914508193700001
 20
53.550000023100012
 30
0.0
 11
53.644337870150011
 21
55.750000011149993
 31
0.0
  0
ARC
  5
760C
  8
0
 10
62.492893650950009
 20
55.0
 30
0.0
 40
0.5
 50
45.000000000000497
 51
90.0
  0
ARC
  5
760D
  8
0
 10
62.492893650950009
 20
45.0
 30
0.0
 40
0.5
 50
270.0
 51
314.99999999999949
  0
LINE
  5
760E
  8
0
 10
60.587713673700009
 20
44.500000029799999
 30
0.0
 11
62.492893256249992
 21
44.500000029799999
 31
0.0
  0
LINE
  5
760F
  8
0
 10
62.492893256249992
 20
55.499999970200008
 30
0.0
 11
60.587713673700009
 21
55.499999970200008
 31
0.0
  0
ARC
  5
7610
  8
0
 10
60.5877136724
 20
55.0
 30
0.0
 40
0.5
 50
90.0
 51
150.0
  0
ARC
  5
7611
  8
0
 10
60.5877136724
 20
45.0
 30
0.0
 40
0.5
 50
210.0
 51
270.0
  0
LINE
  5
7612
  8
0
 10
62.846446588600003
 20
44.646446779350001
 30
0.0
 11
63.207106843549987
 21
45.007106568650002
 31
0.0
  0
LINE
  5
7613
  8
0
 10
63.207106843549987
 20
54.992893431299997
 30
0.0
 11
62.846446588600003
 21
55.353553220599998
 31
0.0
  0
LINE
  5
7614
  8
0
 10
60.154700830550013
 20
55.249999929200001
 30
0.0
 11
59.1732051149
 21
53.550000023100012
 31
0.0
  0
LINE
  5
7615
  8
0
 10
59.1732051149
 20
46.449999976900003
 30
0.0
 11
60.154700830550013
 21
44.750000070749998
 31
0.0
  0
ARC
  5
7616
  8
0
 10
62.500000432100002
 20
54.285786437600009
 30
0.0
 40
1.0000000000000171
 50
0.0
 51
45.000000000000497
  0
ARC
  5
7617
  8
0
 10
62.500000432100002
 20
45.71421356234999
 30
0.0
 40
1.0
 50
314.99999999999949
 51
0.0
  0
ARC
  5
7618
  8
0
 10
58.653590270600013
 20
46.149999999999991
 30
0.0
 40
0.6000000000000086
 50
30.000000000000028
 51
90.0
  0
ARC
  5
7619
  8
0
 10
58.653590270600013
 20
53.849999999999987
 30
0.0
 40
0.5999999999999945
 50
270.0
 51
330.0
  0
ARC
  5
761A
  8
0
 10
55.434123833900003
 20
46.149999999999991
 30
0.0
 40
0.6000000000000015
 50
90.0
 51
150.0
  0
ARC
  5
761B
  8
0
 10
55.434123833900003
 20
53.849999999999987
 30
0.0
 40
0.599999999999996
 50
210.0
 51
270.0
  0
LINE
  5
761C
  8
0
 10
55.434123791750011
 20
46.749999932949997
 30
0.0
 11
58.653590448199999
 21
46.749999932949997
 31
0.0
  0
LINE
  5
761D
  8
0
 10
58.653590448199999
 20
53.250000067050003
 30
0.0
 11
55.434123791750011
 21
53.250000067050003
 31
0.0
  0
LINE
  5
761E
  8
0
 10
42.00000054385
 20
53.000000026049989
 30
0.0
 11
34.000000163900012
 21
53.000000026049989
 31
0.0
  0
LINE
  5
761F
  8
0
 10
34.000000163900012
 20
46.999999973900003
 30
0.0
 11
42.00000054385
 21
46.999999973900003
 31
0.0
  0
LINE
  5
7620
  8
0
 10
34.000000163900012
 20
53.000000026049989
 30
0.0
 11
33.0
 21
52.000000094999997
 31
0.0
  0
LINE
  5
7621
  8
0
 10
33.0
 20
47.999999904999989
 30
0.0
 11
34.000000163900012
 21
46.999999973900003
 31
0.0
  0
LINE
  5
7622
  8
0
 10
47.871854044000003
 20
57.749999873349999
 30
0.0
 11
47.871854044000003
 21
42.250000126649986
 31
0.0
  0
LINE
  5
7623
  8
0
 10
47.20000042705
 20
57.749999873350021
 30
0.0
 11
47.20000042705
 21
42.250000126649986
 31
0.0
  0
LINE
  5
7626
  8
0
 10
47.000000432100002
 20
42.449999786899987
 30
0.0
 11
47.000000432100002
 21
57.550000213099999
 31
0.0
  0
LINE
  5
7627
  8
0
 10
46.000000384600007
 20
54.999999888250002
 30
0.0
 11
46.000000384600007
 21
45.000000111749991
 31
0.0
  0
LINE
  5
7628
  8
0
 10
46.300000457049997
 20
54.699999932200001
 30
0.0
 11
46.300000457049997
 21
45.300000067799992
 31
0.0
  0
LINE
  5
7629
  8
0
 10
43.0000002421
 20
54.999999888249988
 30
0.0
 11
43.0000002421
 21
45.000000111749991
 31
0.0
  0
LINE
  5
762C
  8
0
 10
42.00000054385
 20
45.577350258799989
 30
0.0
 11
42.00000054385
 21
54.422649741149989
 31
0.0
  0
LINE
  5
762D
  8
0
 10
52.200000446250002
 20
56.00000005215
 30
0.0
 11
52.200000446250002
 21
43.99999994785
 31
0.0
  0
LINE
  5
762E
  8
0
 10
52.00000032034999
 20
44.20000007374999
 30
0.0
 11
52.00000032034999
 21
55.799999926249988
 31
0.0
  0
LINE
  5
762F
  8
0
 10
63.500000342699991
 20
54.286209285141211
 30
0.0
 11
63.500000342699998
 21
45.7142136991
 31
0.0
  0
LINE
  5
7631
  8
0
 10
34.000000163900012
 20
53.000000026049989
 30
0.0
 11
34.000000163900012
 21
46.999999973900003
 31
0.0
  0
LINE
  5
7632
  8
0
 10
33.0
 20
47.999999904999989
 30
0.0
 11
33.0
 21
52.000000094999997
 31
0.0
  0
LINE
  5
7633
  8
0
 10
50.913456540550001
 20
43.122165557000002
 30
0.0
 11
50.913456540550001
 21
56.87783444299999
 31
0.0
  0
LINE
  5
7636
  8
0
 10
53.211325492699999
 20
43.99999994785
 30
0.0
 11
53.211325492699999
 21
55.999999999999972
 31
0.0
  0
LINE
  5
763B
  8
0
 10
62.492893256249992
 20
44.500000029799999
 30
0.0
 11
62.492893256249992
 21
55.499999999999837
 31
0.0
  0
LINE
  5
763E
  8
0
 10
60.587713673700009
 20
55.499999970200008
 30
0.0
 11
60.587713673700009
 21
44.500000029799999
 31
0.0
  0
LINE
  5
7645
  8
0
 10
58.653590448199999
 20
46.749999932949997
 30
0.0
 11
58.653590448199999
 21
53.250000067050003
 31
0.0
  0
LINE
  5
7646
  8
0
 10
55.434123791750011
 20
53.250000067050003
 30
0.0
 11
55.434123791750011
 21
46.749999932949997
 31
0.0
  0
CIRCLE
  5
7649
  8
0
 10
97.250000342700005
 20
50.000000000000078
 30
0.0
 40
7.7500000000000142
  0
LINE
  5
764A
  8
0
 10
98.750000355750018
 20
50.866025395200083
 30
0.0
 11
98.750000355750018
 21
49.133974604750087
 31
0.0
  0
LINE
  5
764D
  8
0
 10
95.750000329650007
 20
49.133974604750087
 30
0.0
 11
95.750000329650007
 21
50.866025395200083
 31
0.0
  0
CIRCLE
  5
7650
  8
0
 10
97.250000342700005
 20
50.000000000000078
 30
0.0
 40
2.0
  0
CIRCLE
  5
7651
  8
0
 10
97.250000342700005
 20
50.000000000000078
 30
0.0
 40
5.5
  0
CIRCLE
  5
7658
  8
0
 10
97.250000342700005
 20
50.000000000000078
 30
0.0
 40
6.0
  0
CIRCLE
  5
7659
  8
0
 10
97.250000342700005
 20
50.000000000000078
 30
0.0
 40
6.8778345399593093
  0
CIRCLE
  5
765B
  8
0
 10
97.250000342700005
 20
50.000000000000078
 30
0.0
 40
4.2857864376269097
  0
LINE
  5
7667
  8
3
 10
42.00000054385
 20
52.458499973900103
 30
0.0
 11
33.458499985661803
 21
52.458499973900068
 31
0.0
  0
LINE
  5
7668
  8
3
 10
42.00000054385
 20
47.54149997389991
 30
0.0
 11
33.45850003783886
 21
47.54149997389991
 31
0.0
  0
LINE
  5
766A
  8
0
 10
95.750000329650007
 20
50.866025395200083
 30
0.0
 11
97.250000342700005
 21
51.732050790450089
 31
0.0
  0
LINE
  5
766B
  8
0
 10
97.250000342700005
 20
51.732050790450089
 30
0.0
 11
98.750000355750018
 21
50.866025395200083
 31
0.0
  0
LINE
  5
766C
  8
0
 10
95.750000329650007
 20
49.133974604750087
 30
0.0
 11
97.250000342700005
 21
48.267949209550082
 31
0.0
  0
LINE
  5
766D
  8
0
 10
97.250000342700005
 20
48.267949209550082
 30
0.0
 11
98.750000355750018
 21
49.133974604750087
 31
0.0
  0
LINE
  5
766E
  8
1
 10
30.0
 20
50.0
 30
0.0
 11
66.500000342700005
 21
50.000000000000099
 31
0.0
  0
LINE
  5
766F
  8
1
 10
97.250000342700005
 20
39.250000000000071
 30
0.0
 11
97.250000342700005
 21
60.750000000000092
 31
0.0
  0
LINE
  5
7670
  8
1
 10
86.500000342700005
 20
50.000000000000099
 30
0.0
 11
108.00000034270001
 21
50.000000000000099
 31
0.0
  0
CIRCLE
  5
76BC
  8
0
 10
97.250000342700005
 20
50.000000000000099
 30
0.0
 40
1.5
  0
ENDSEC
  0
EOF
