  0
SECTION
  2
HEADER
  9
$ACADVER
  1
AC1009
  9
$INSBASE
 10
0.0
 20
0.0
 30
0.0
  9
$EXTMIN
 10
0.0
 20
-1.4802182810368341
 30
0.0
  9
$EXTMAX
 10
143.5000003948806
 20
67.249999917513549
 30
0.0
  9
$LIMMIN
 10
0.0
 20
0.0
  9
$LIMMAX
 10
12.0
 20
9.0
  9
$ORTHOMODE
 70
     1
  9
$REGENMODE
 70
     1
  9
$FILLMODE
 70
     1
  9
$QTEXTMODE
 70
     0
  9
$MIRRTEXT
 70
     0
  9
$DRAGMODE
 70
     2
  9
$LTSCALE
 40
5.0
  9
$OSMODE
 70
    37
  9
$ATTMODE
 70
     1
  9
$TEXTSIZE
 40
0.2
  9
$TRACEWID
 40
0.05
  9
$TEXTSTYLE
  7
STANDARD
  9
$CLAYER
  8
0
  9
$CELTYPE
  6
BYLAYER
  9
$CECOLOR
 62
   256
  9
$DIMSCALE
 40
1.0
  9
$DIMASZ
 40
0.18
  9
$DIMEXO
 40
0.0625
  9
$DIMDLI
 40
0.38
  9
$DIMRND
 40
0.0
  9
$DIMDLE
 40
0.0
  9
$DIMEXE
 40
0.18
  9
$DIMTP
 40
0.0
  9
$DIMTM
 40
0.0
  9
$DIMTXT
 40
2.6000000000000001
  9
$DIMCEN
 40
0.09
  9
$DIMTSZ
 40
0.0
  9
$DIMTOL
 70
     0
  9
$DIMLIM
 70
     0
  9
$DIMTIH
 70
     0
  9
$DIMTOH
 70
     0
  9
$DIMSE1
 70
     0
  9
$DIMSE2
 70
     0
  9
$DIMTAD
 70
     1
  9
$DIMZIN
 70
     8
  9
$DIMBLK
  1

  9
$DIMASO
 70
     1
  9
$DIMSHO
 70
     1
  9
$DIMPOST
  1

  9
$DIMAPOST
  1

  9
$DIMALT
 70
     0
  9
$DIMALTD
 70
     2
  9
$DIMALTF
 40
25.399999999999999
  9
$DIMLFAC
 40
1.0
  9
$DIMTOFL
 70
     0
  9
$DIMTVP
 40
0.0
  9
$DIMTIX
 70
     0
  9
$DIMSOXD
 70
     0
  9
$DIMSAH
 70
     0
  9
$DIMBLK1
  1

  9
$DIMBLK2
  1

  9
$DIMSTYLE
  2
STANDARD
  9
$DIMCLRD
 70
     0
  9
$DIMCLRE
 70
     0
  9
$DIMCLRT
 70
     0
  9
$DIMTFAC
 40
1.0
  9
$DIMGAP
 40
0.09
  9
$LUNITS
 70
     2
  9
$LUPREC
 70
     4
  9
$SKETCHINC
 40
0.1
  9
$FILLETRAD
 40
0.0
  9
$AUNITS
 70
     0
  9
$AUPREC
 70
     0
  9
$MENU
  1
.
  9
$ELEVATION
 40
0.0
  9
$PELEVATION
 40
0.0
  9
$THICKNESS
 40
0.0
  9
$LIMCHECK
 70
     0
  9
$BLIPMODE
 70
     0
  9
$CHAMFERA
 40
0.0
  9
$CHAMFERB
 40
0.0
  9
$SKPOLY
 70
     0
  9
$TDCREATE
 40
2453083.4120647679
  9
$TDUPDATE
 40
2456923.4969721758
  9
$TDINDWG
 40
0.7071731713
  9
$TDUSRTIMER
 40
0.7071730556
  9
$USRTIMER
 70
     1
  9
$ANGBASE
 50
0.0
  9
$ANGDIR
 70
     0
  9
$PDMODE
 70
     0
  9
$PDSIZE
 40
0.0
  9
$PLINEWID
 40
0.0
  9
$COORDS
 70
     1
  9
$SPLFRAME
 70
     0
  9
$SPLINETYPE
 70
     6
  9
$SPLINESEGS
 70
     8
  9
$ATTDIA
 70
     0
  9
$ATTREQ
 70
     1
  9
$HANDLING
 70
     1
  9
$HANDSEED
  5
7679
  9
$SURFTAB1
 70
     6
  9
$SURFTAB2
 70
     6
  9
$SURFTYPE
 70
     6
  9
$SURFU
 70
     6
  9
$SURFV
 70
     6
  9
$UCSNAME
  2

  9
$UCSORG
 10
0.0
 20
0.0
 30
0.0
  9
$UCSXDIR
 10
1.0
 20
0.0
 30
0.0
  9
$UCSYDIR
 10
0.0
 20
1.0
 30
0.0
  9
$PUCSNAME
  2

  9
$PUCSORG
 10
0.0
 20
0.0
 30
0.0
  9
$PUCSXDIR
 10
1.0
 20
0.0
 30
0.0
  9
$PUCSYDIR
 10
0.0
 20
1.0
 30
0.0
  9
$USERI1
 70
     0
  9
$USERI2
 70
     1
  9
$USERI3
 70
     0
  9
$USERI4
 70
     0
  9
$USERI5
 70
     0
  9
$USERR1
 40
0.0
  9
$USERR2
 40
0.0
  9
$USERR3
 40
0.0
  9
$USERR4
 40
0.0
  9
$USERR5
 40
0.0
  9
$WORLDVIEW
 70
     1
  9
$SHADEDGE
 70
     3
  9
$SHADEDIF
 70
    70
  9
$TILEMODE
 70
     1
  9
$MAXACTVP
 70
    64
  9
$PLIMCHECK
 70
     0
  9
$PEXTMIN
 10
0.0
 20
0.0
 30
0.0
  9
$PEXTMAX
 10
0.0
 20
0.0
 30
0.0
  9
$PLIMMIN
 10
0.0
 20
0.0
  9
$PLIMMAX
 10
12.0
 20
9.0
  9
$UNITMODE
 70
     0
  9
$VISRETAIN
 70
     1
  9
$PLINEGEN
 70
     0
  9
$PSLTSCALE
 70
     1
  0
ENDSEC
  0
SECTION
  2
TABLES
  0
TABLE
  2
VPORT
 70
     1
  0
VPORT
  2
*ACTIVE
 70
     0
 10
0.0
 20
0.0
 11
1.0
 21
1.0
 12
71.748828416325779
 22
37.357500848331682
 13
0.0
 23
0.0
 14
0.5
 24
0.5
 15
0.5
 25
0.5
 16
0.0
 26
0.0
 36
1.0
 17
0.0
 27
0.0
 37
0.0
 40
82.587934646413302
 41
1.7454798331015291
 42
50.0
 43
0.0
 44
0.0
 50
0.0
 51
0.0
 71
     0
 72
  1000
 73
     1
 74
     2
 75
     0
 76
     0
 77
     0
 78
     0
  0
ENDTAB
  0
TABLE
  2
LTYPE
 70
     3
  0
LTYPE
  2
CONTINUOUS
 70
     0
  3
Solid Line
 72
    65
 73
     0
 40
0.0
  0
LTYPE
  2
CENTER
 70
     0
  3
____ _ ____ _ ____ _ ____ _ ____ _ ____ _ ____
 72
    65
 73
     4
 40
2.0
 49
1.25
 49
-0.25
 49
0.25
 49
-0.25
  0
LTYPE
  2
PHANTOM2
 70
     0
  3
___ _ _ ___ _ _ ___ _ _ ___ _ _
 72
    65
 73
     6
 40
1.25
 49
0.625
 49
-0.125
 49
0.125
 49
-0.125
 49
0.125
 49
-0.125
  0
ENDTAB
  0
TABLE
  2
LAYER
 70
     4
  0
LAYER
  2
0
 70
     0
 62
     7
  6
CONTINUOUS
  0
LAYER
  2
1
 70
     0
 62
     1
  6
CENTER
  0
LAYER
  2
DEFPOINTS
 70
     0
 62
     7
  6
CONTINUOUS
  0
LAYER
  2
3
 70
     0
 62
     3
  6
CONTINUOUS
  0
ENDTAB
  0
TABLE
  2
STYLE
 70
     2
  0
STYLE
  2
STANDARD
 70
     0
 40
0.0
 41
1.0
 50
0.0
 71
     0
 42
0.2
  3
simplex.shx
  4
bigfont.shx
  0
STYLE
  2
STANDARD1
 70
     0
 40
0.0
 41
1.0
 50
0.0
 71
     0
 42
3.0
  3
txt
  4

  0
ENDTAB
  0
TABLE
  2
VIEW
 70
     0
  0
ENDTAB
  0
TABLE
  2
UCS
 70
     0
  0
ENDTAB
  0
TABLE
  2
APPID
 70
     5
  0
APPID
  2
ACAD
 70
     0
  0
APPID
  2
ACAD_MLEADERVER
 70
     0
  0
APPID
  2
ACAD_NAV_VCDISPLAY
 70
     0
  0
APPID
  2
ACAD_EXEMPT_FROM_CAD_STANDARDS
 70
     0
  0
APPID
  2
ACAD_DSTYLE_DIMRADIAL_EXTENSION
 70
     0
  0
ENDTAB
  0
TABLE
  2
DIMSTYLE
 70
     1
  0
DIMSTYLE
  2
STANDARD
 70
     0
  3

  4

  5

  6

  7

 40
1.0
 41
0.18
 42
0.0625
 43
0.38
 44
0.18
 45
0.0
 46
0.0
 47
0.0
 48
0.0
140
2.6000000000000001
141
0.09
142
0.0
143
25.399999999999999
144
1.0
145
0.0
146
1.0
147
0.09
 71
     0
 72
     0
 73
     0
 74
     0
 75
     0
 76
     0
 77
     1
 78
     8
170
     0
171
     2
172
     0
173
     0
174
     0
175
     0
176
     0
177
     0
178
     0
  0
ENDTAB
  0
ENDSEC
  0
SECTION
  2
BLOCKS
  0
BLOCK
  8
0
  2
$MODEL_SPACE
 70
     0
 10
0.0
 20
0.0
 30
0.0
  3
$MODEL_SPACE
  1

  0
ENDBLK
  5
21
  8
0
  0
BLOCK
 67
     1
  8
0
  2
$PAPER_SPACE
 70
     0
 10
0.0
 20
0.0
 30
0.0
  3
$PAPER_SPACE
  1

  0
ENDBLK
  5
5B
 67
     1
  8
0
  0
ENDSEC
  0
SECTION
  2
ENTITIES
  0
TEXT
  5
1F01
  8
0
 62
     3
 10
0.0
 20
0.0
 30
0.0
 40
5.0
  1
CP155-12001L
  7
STANDARD1
  0
LINE
  5
74FB
  8
0
 10
59.871853820513927
 20
37.75000031757893
 30
0.0
 11
65.551274772733436
 21
39.378548224454548
 31
0.0
  0
LINE
  5
74FC
  8
0
 10
65.551274772733393
 20
60.621451769953381
 30
0.0
 11
59.871853820513877
 21
62.249999676828963
 31
0.0
  0
LINE
  5
74FD
  8
0
 10
59.871853820513877
 20
62.249999676828963
 30
0.0
 11
59.200000203563768
 21
62.249999676828963
 31
0.0
  0
LINE
  5
74FE
  8
0
 10
59.200000203563832
 20
37.75000031757893
 30
0.0
 11
59.871853820513927
 21
37.75000031757893
 31
0.0
  0
LINE
  5
74FF
  8
0
 10
59.200000203563768
 20
62.249999676828963
 30
0.0
 11
59.0000002086162
 21
62.050000016575439
 31
0.0
  0
LINE
  5
7500
  8
0
 10
59.00000020861625
 20
37.949999977832448
 30
0.0
 11
59.200000203563832
 21
37.75000031757893
 31
0.0
  0
ARC
  5
7501
  8
0
 10
65.000000208616186
 20
58.698928810927981
 30
0.0
 40
2.0
 50
0.0
 51
73.999999999998451
  0
ARC
  5
7502
  8
0
 10
65.000000208616257
 20
41.301071183479969
 30
0.0
 40
2.0
 50
285.99999999999818
 51
0.0
  0
POLYLINE
  5
7503
  8
0
 66
     1
 10
0.0
 20
0.0
 30
0.0
 70
   128
  0
VERTEX
  5
7659
  8
0
 10
59.0000002086162
 20
58.712701496666057
 30
0.0
  0
VERTEX
  5
765A
  8
0
 10
58.978036337211897
 20
58.707686324601752
 30
0.0
  0
VERTEX
  5
765B
  8
0
 10
58.900000211142412
 20
58.700000119393451
 30
0.0
  0
SEQEND
  5
765C
  8
0
  0
POLYLINE
  5
7504
  8
0
 66
     1
 10
0.0
 20
0.0
 30
0.0
 70
   128
  0
VERTEX
  5
765D
  8
0
 10
58.900000211142462
 20
41.299999875014429
 30
0.0
  0
VERTEX
  5
765E
  8
0
 10
58.978036337211961
 20
41.292313669806127
 30
0.0
  0
VERTEX
  5
765F
  8
0
 10
59.00000020861625
 20
41.28729849774183
 30
0.0
  0
SEQEND
  5
7660
  8
0
  0
LINE
  5
7505
  8
0
 10
58.000000161118798
 20
41.000000384634127
 30
0.0
 11
58.300000233575702
 21
41.299999875014429
 31
0.0
  0
LINE
  5
7506
  8
0
 10
58.300000233575638
 20
58.700000119393451
 30
0.0
 11
58.000000161118749
 21
58.999999609773738
 31
0.0
  0
LINE
  5
7507
  8
0
 10
58.000000161118749
 20
58.999999609773738
 30
0.0
 11
54.500000402331288
 21
58.999999609773738
 31
0.0
  0
LINE
  5
7508
  8
0
 10
54.500000402331352
 20
41.000000384634127
 30
0.0
 11
58.000000161118798
 21
41.000000384634127
 31
0.0
  0
LINE
  5
7509
  8
0
 10
54.500000402331288
 20
58.999999609773738
 30
0.0
 11
53.000000156462129
 21
58.133974854832253
 31
0.0
  0
LINE
  5
750A
  8
0
 10
53.000000156462193
 20
41.866025139575576
 30
0.0
 11
54.500000402331352
 21
41.000000384634127
 31
0.0
  0
LINE
  5
750B
  8
0
 10
58.900000211142412
 20
58.700000119393451
 30
0.0
 11
58.300000233575638
 21
58.700000119393451
 31
0.0
  0
LINE
  5
750C
  8
0
 10
58.300000233575702
 20
41.299999875014429
 30
0.0
 11
58.900000211142462
 21
41.299999875014429
 31
0.0
  0
ARC
  5
750D
  8
0
 10
68.922649939426606
 20
57.999999997203979
 30
0.0
 40
1.0
 50
30.00000000000178
 51
90.0
  0
ARC
  5
750E
  8
0
 10
68.922649939426663
 20
41.999999997203979
 30
0.0
 40
1.0
 50
270.0
 51
330.00000000000011
  0
LINE
  5
750F
  8
0
 10
68.922649919986668
 20
58.999999609773788
 30
0.0
 11
67.500000670552197
 21
58.999999609773766
 31
0.0
  0
LINE
  5
7510
  8
0
 10
67.500000670552254
 20
41.00000038463417
 30
0.0
 11
68.922649919986725
 21
41.00000038463417
 31
0.0
  0
LINE
  5
7511
  8
0
 10
67.500000670552197
 20
58.999999609773766
 30
0.0
 11
67.00000058859581
 21
58.500000459139947
 31
0.0
  0
LINE
  5
7512
  8
0
 10
67.000000588595853
 20
41.499999535267989
 30
0.0
 11
67.500000670552254
 21
41.00000038463417
 31
0.0
  0
LINE
  5
7513
  8
0
 10
69.788675606250763
 20
41.499999535268003
 30
0.0
 11
71.665063351392746
 21
44.750000067984523
 31
0.0
  0
LINE
  5
7514
  8
0
 10
71.665063351392746
 20
55.24999992642347
 30
0.0
 11
69.788675606250706
 21
58.500000459139983
 31
0.0
  0
ARC
  5
7515
  8
0
 10
82.592893427429644
 20
57.499999997204043
 30
0.0
 40
0.5000000000000142
 50
44.999999999999559
 51
90.0
  0
ARC
  5
7516
  8
0
 10
82.592893427429715
 20
42.499999997204029
 30
0.0
 40
0.5
 50
270.0
 51
315.00000000000063
  0
LINE
  5
7517
  8
0
 10
79.953739270567894
 20
41.999999617224418
 30
0.0
 11
82.592893242835984
 21
41.999999617224432
 31
0.0
  0
LINE
  5
7518
  8
0
 10
82.592893242835942
 20
58.000000377183618
 30
0.0
 11
79.953739270567837
 21
58.000000377183618
 31
0.0
  0
ARC
  5
7519
  8
0
 10
79.953738852672132
 20
56.999999997204043
 30
0.0
 40
1.000000000000008
 50
90.0
 51
149.99999999999989
  0
ARC
  5
751A
  8
0
 10
79.953738852672188
 20
42.999999997204007
 30
0.0
 40
1.0
 50
210.00000000000179
 51
270.0
  0
LINE
  5
751B
  8
0
 10
82.946447506546974
 20
42.146446366792411
 30
0.0
 11
83.707107082009315
 21
42.907106873577327
 31
0.0
  0
LINE
  5
751C
  8
0
 10
83.707107082009259
 20
57.092893120830752
 30
0.0
 11
82.946447506546917
 21
57.853553627615632
 31
0.0
  0
LINE
  5
751D
  8
0
 10
79.087713584303799
 20
57.499999829565951
 30
0.0
 11
77.788675054907742
 21
55.249999926423492
 31
0.0
  0
LINE
  5
751E
  8
0
 10
77.788675054907785
 20
44.750000067984537
 30
0.0
 11
79.087713584303856
 21
42.500000164842092
 31
0.0
  0
ARC
  5
751F
  8
0
 10
83.0000002086162
 20
56.385786434830969
 30
0.0
 40
1.0
 50
0.0
 51
44.999999999999559
  0
ARC
  5
7520
  8
0
 10
83.000000208616257
 20
43.614213559577117
 30
0.0
 40
1.0
 50
315.00000000000051
 51
0.0
  0
LINE
  5
7521
  8
0
 10
53.000000156462193
 20
56.000000049357993
 30
0.0
 11
37.000000327825553
 21
56.000000049357929
 31
0.0
  0
LINE
  5
7522
  8
0
 10
37.000000327825553
 20
43.999999945049801
 30
0.0
 11
53.000000156462193
 21
43.999999945049872
 31
0.0
  0
LINE
  5
7523
  8
0
 10
37.000000327825553
 20
56.000000049357929
 30
0.0
 11
35.0
 21
54.000000187193663
 31
0.0
  0
LINE
  5
7524
  8
0
 10
35.0
 20
45.999999807214053
 30
0.0
 11
37.000000327825553
 21
43.999999945049801
 31
0.0
  0
ARC
  5
7525
  8
0
 10
76.922649939426606
 20
44.249999997204007
 30
0.0
 40
1.000000000000014
 50
30.000000000000082
 51
90.0
  0
ARC
  5
7526
  8
0
 10
76.922649939426606
 20
55.749999997204043
 30
0.0
 40
1.000000000000014
 50
270.0
 51
330.00000000000011
  0
ARC
  5
7527
  8
0
 10
72.531089121861783
 20
44.249999997204
 30
0.0
 40
1.0
 50
90.0
 51
149.99999999999821
  0
ARC
  5
7528
  8
0
 10
72.531089121861783
 20
55.749999997204007
 30
0.0
 40
1.000000000000014
 50
210.00000000000179
 51
270.0
  0
LINE
  5
7529
  8
0
 10
72.531089037656784
 20
45.250000149940902
 30
0.0
 11
76.922649368643761
 21
45.250000149940931
 31
0.0
  0
LINE
  5
752A
  8
0
 10
76.922649368643704
 20
54.749999844467119
 30
0.0
 11
72.531089037656784
 21
54.749999844467098
 31
0.0
  0
LINE
  5
752B
  8
0
 10
59.871853820513877
 20
62.249999676828963
 30
0.0
 11
59.871853820513927
 21
37.75000031757893
 31
0.0
  0
LINE
  5
752C
  8
0
 10
59.200000203563718
 20
62.249999676828963
 30
0.0
 11
59.200000203563832
 21
37.75000031757893
 31
0.0
  0
LINE
  5
752E
  8
0
 10
59.0000002086162
 20
37.949999977832491
 30
0.0
 11
59.0000002086162
 21
62.050000016575439
 31
0.0
  0
LINE
  5
7530
  8
0
 10
67.00000058859581
 20
58.698929098432671
 30
0.0
 11
67.000000588595853
 21
41.301070895975272
 31
0.0
  0
LINE
  5
7531
  8
0
 10
58.000000161118749
 20
58.999999609773738
 30
0.0
 11
58.000000161118798
 21
41.000000384634127
 31
0.0
  0
LINE
  5
7532
  8
0
 10
58.300000233575638
 20
58.700000119393451
 30
0.0
 11
58.300000233575702
 21
41.299999875014429
 31
0.0
  0
LINE
  5
7533
  8
0
 10
54.50000040233121
 20
58.999999609773752
 30
0.0
 11
54.500000402331352
 21
41.000000384634127
 31
0.0
  0
LINE
  5
7536
  8
0
 10
53.000000156462193
 20
41.866025139575576
 30
0.0
 11
53.00000015646205
 21
58.133974854832189
 31
0.0
  0
LINE
  5
7537
  8
0
 10
67.500000670552197
 20
58.999999609773766
 30
0.0
 11
67.500000670552254
 21
41.00000038463417
 31
0.0
  0
LINE
  5
7539
  8
0
 10
84.00000058114523
 20
56.38578645605395
 30
0.0
 11
84.000000208616257
 21
43.614213559577117
 31
0.0
  0
LINE
  5
753A
  8
0
 10
37.000000327825553
 20
56.000000049357929
 30
0.0
 11
37.000000327825553
 21
43.999999945049801
 31
0.0
  0
LINE
  5
753B
  8
0
 10
35.0
 20
45.999999807214053
 30
0.0
 11
35.0
 21
54.000000187193663
 31
0.0
  0
LINE
  5
753C
  8
0
 10
65.551274772733436
 20
39.378548224454548
 30
0.0
 11
65.551274772733393
 21
60.621451769953381
 31
0.0
  0
LINE
  5
753F
  8
0
 10
68.922649919986725
 20
41.00000038463417
 30
0.0
 11
68.922649919986611
 21
58.999999997203993
 31
0.0
  0
LINE
  5
7544
  8
0
 10
82.592893242835984
 20
41.999999617224432
 30
0.0
 11
82.592893242835885
 21
57.999999997204029
 31
0.0
  0
LINE
  5
7547
  8
0
 10
79.953739270567752
 20
58.000000377183639
 30
0.0
 11
79.953739270567894
 21
41.999999617224418
 31
0.0
  0
LINE
  5
754E
  8
0
 10
76.922649368643761
 20
45.250000149940931
 30
0.0
 11
76.922649368643704
 21
54.749999844467119
 31
0.0
  0
LINE
  5
754F
  8
0
 10
72.531089037656784
 20
54.749999844467098
 30
0.0
 11
72.531089037656784
 21
45.250000149940902
 31
0.0
  0
CIRCLE
  5
7552
  8
0
 10
126.2500003948807
 20
49.999999917513577
 30
0.0
 40
12.24999999999997
  0
LINE
  5
7553
  8
0
 10
128.75000033900119
 20
51.443375634430893
 30
0.0
 11
128.75000033900119
 21
48.55662420059646
 31
0.0
  0
POLYLINE
  5
7554
  8
0
 66
     1
 10
0.0
 20
0.0
 30
0.0
 70
   128
  0
VERTEX
  5
7661
  8
0
 10
126.2500003948805
 20
52.88675135134811
 30
0.0
  0
VERTEX
  5
7662
  8
0
 10
126.9047171380368
 20
52.508750335714758
 30
0.0
  0
VERTEX
  5
7663
  8
0
 10
127.5887779928741
 20
52.113807631126591
 30
0.0
  0
VERTEX
  5
7664
  8
0
 10
128.17030407395191
 20
51.778063398255952
 30
0.0
  0
VERTEX
  5
7665
  8
0
 10
128.75000033900119
 20
51.443375634430893
 30
0.0
  0
SEQEND
  5
7666
  8
0
  0
POLYLINE
  5
7555
  8
0
 66
     1
 10
0.0
 20
0.0
 30
0.0
 70
   128
  0
VERTEX
  5
7667
  8
0
 10
123.7500004507599
 20
51.443375634430872
 30
0.0
  0
VERTEX
  5
7668
  8
0
 10
124.4047171939162
 20
51.821376533648902
 30
0.0
  0
VERTEX
  5
7669
  8
0
 10
125.0887780487535
 20
52.216319238237062
 30
0.0
  0
VERTEX
  5
766A
  8
0
 10
125.6703040716236
 20
52.552063354692379
 30
0.0
  0
VERTEX
  5
766B
  8
0
 10
126.2500003948805
 20
52.88675135134811
 30
0.0
  0
SEQEND
  5
766C
  8
0
  0
LINE
  5
7556
  8
0
 10
123.7500004507599
 20
48.556624200596438
 30
0.0
 11
123.7500004507599
 21
51.443375634430872
 31
0.0
  0
POLYLINE
  5
7557
  8
0
 66
     1
 10
0.0
 20
0.0
 30
0.0
 70
   128
  0
VERTEX
  5
766D
  8
0
 10
126.2500003948805
 20
47.113248483679222
 30
0.0
  0
VERTEX
  5
766E
  8
0
 10
125.5952836517242
 20
47.491249499312573
 30
0.0
  0
VERTEX
  5
766F
  8
0
 10
124.9112227968869
 20
47.886192203900741
 30
0.0
  0
VERTEX
  5
7670
  8
0
 10
124.32969671580921
 20
48.221936436771379
 30
0.0
  0
VERTEX
  5
7671
  8
0
 10
123.7500004507599
 20
48.556624200596438
 30
0.0
  0
SEQEND
  5
7672
  8
0
  0
POLYLINE
  5
7558
  8
0
 66
     1
 10
0.0
 20
0.0
 30
0.0
 70
   128
  0
VERTEX
  5
7673
  8
0
 10
128.75000033900119
 20
48.55662420059646
 30
0.0
  0
VERTEX
  5
7674
  8
0
 10
128.0952835958449
 20
48.178623301378437
 30
0.0
  0
VERTEX
  5
7675
  8
0
 10
127.41122274100761
 20
47.783680596790262
 30
0.0
  0
VERTEX
  5
7676
  8
0
 10
126.8296967181375
 20
47.447936480334931
 30
0.0
  0
VERTEX
  5
7677
  8
0
 10
126.2500003948805
 20
47.113248483679222
 30
0.0
  0
SEQEND
  5
7678
  8
0
  0
CIRCLE
  5
7559
  8
0
 10
126.2500003948805
 20
49.999999917513662
 30
0.0
 40
3.1999999999999882
  0
CIRCLE
  5
755A
  8
0
 10
126.2500003948805
 20
49.999999917513662
 30
0.0
 40
8.0
  0
ARC
  5
755B
  8
0
 10
126.2500003948805
 20
49.999999917513648
 30
0.0
 40
2.5000000000000102
 50
300.00000000000381
 51
0.0000000000008142
  0
ARC
  5
755C
  8
0
 10
126.2500003948805
 20
49.999999917513648
 30
0.0
 40
2.5000000000000102
 50
240.0
 51
300.00000000000381
  0
ARC
  5
755D
  8
0
 10
126.2500003948805
 20
49.999999917513648
 30
0.0
 40
2.5000000000000071
 50
0.0000000000008142
 51
60.0
  0
ARC
  5
755E
  8
0
 10
126.2500003948805
 20
49.999999917513648
 30
0.0
 40
2.5000000000000071
 50
60.0
 51
120.0
  0
ARC
  5
755F
  8
0
 10
126.2500003948805
 20
49.999999917513648
 30
0.0
 40
2.5
 50
179.9999999999992
 51
240.0
  0
ARC
  5
7560
  8
0
 10
126.2500003948805
 20
49.999999917513648
 30
0.0
 40
2.5000000000000071
 50
120.0
 51
179.9999999999992
  0
CIRCLE
  5
7561
  8
0
 10
126.2500003948806
 20
49.999999917513598
 30
0.0
 40
9.0
  0
CIRCLE
  5
7564
  8
0
 10
126.2500003948805
 20
49.999999917513662
 30
0.0
 40
6.3857864376269333
  0
LINE
  5
7568
  8
1
 10
143.5000003948806
 20
49.999999917513577
 30
0.0
 11
109.0000003948808
 21
49.999999917513577
 31
0.0
  0
LINE
  5
7569
  8
1
 10
126.2500003948807
 20
67.249999917513549
 30
0.0
 11
126.2500003948807
 21
32.749999917513613
 31
0.0
  0
LINE
  5
7579
  8
1
 10
30.0
 20
50.0
 30
0.0
 11
89.000000394880743
 21
49.999999917513577
 31
0.0
  0
LINE
  5
7591
  8
3
 10
36.05300000302686
 20
55.052999945049841
 30
0.0
 11
53.000000156462079
 21
55.052999945049841
 31
0.0
  0
LINE
  5
7592
  8
3
 10
36.05300010733496
 20
44.946999945049761
 30
0.0
 11
53.000000156462129
 21
44.946999945049782
 31
0.0
  0
CIRCLE
  5
75E5
  8
0
 10
126.2500003948805
 20
49.999999917513662
 30
0.0
 40
10.621452285290941
  0
ENDSEC
  0
EOF
