  0
SECTION
  2
HEADER
  9
$ACADVER
  1
AC1009
  9
$INSBASE
 10
0.0
 20
0.0
 30
0.0
  9
$EXTMIN
 10
0.0
 20
-1.4802182810368341
 30
0.0
  9
$EXTMAX
 10
218.00000056630009
 20
97.499999999950035
 30
0.0
  9
$LIMMIN
 10
0.0
 20
0.0
  9
$LIMMAX
 10
12.0
 20
9.0
  9
$ORTHOMODE
 70
     1
  9
$REGENMODE
 70
     1
  9
$FILLMODE
 70
     1
  9
$QTEXTMODE
 70
     0
  9
$MIRRTEXT
 70
     0
  9
$DRAGMODE
 70
     2
  9
$LTSCALE
 40
5.0
  9
$OSMODE
 70
    37
  9
$ATTMODE
 70
     1
  9
$TEXTSIZE
 40
0.2
  9
$TRACEWID
 40
0.05
  9
$TEXTSTYLE
  7
STANDARD
  9
$CLAYER
  8
0
  9
$CELTYPE
  6
BYLAYER
  9
$CECOLOR
 62
   256
  9
$DIMSCALE
 40
1.0
  9
$DIMASZ
 40
0.18
  9
$DIMEXO
 40
0.0625
  9
$DIMDLI
 40
0.38
  9
$DIMRND
 40
0.0
  9
$DIMDLE
 40
0.0
  9
$DIMEXE
 40
0.18
  9
$DIMTP
 40
0.0
  9
$DIMTM
 40
0.0
  9
$DIMTXT
 40
2.6000000000000001
  9
$DIMCEN
 40
0.09
  9
$DIMTSZ
 40
0.0
  9
$DIMTOL
 70
     0
  9
$DIMLIM
 70
     0
  9
$DIMTIH
 70
     0
  9
$DIMTOH
 70
     0
  9
$DIMSE1
 70
     0
  9
$DIMSE2
 70
     0
  9
$DIMTAD
 70
     1
  9
$DIMZIN
 70
     8
  9
$DIMBLK
  1

  9
$DIMASO
 70
     1
  9
$DIMSHO
 70
     1
  9
$DIMPOST
  1

  9
$DIMAPOST
  1

  9
$DIMALT
 70
     0
  9
$DIMALTD
 70
     2
  9
$DIMALTF
 40
25.399999999999999
  9
$DIMLFAC
 40
1.0
  9
$DIMTOFL
 70
     0
  9
$DIMTVP
 40
0.0
  9
$DIMTIX
 70
     0
  9
$DIMSOXD
 70
     0
  9
$DIMSAH
 70
     0
  9
$DIMBLK1
  1

  9
$DIMBLK2
  1

  9
$DIMSTYLE
  2
STANDARD
  9
$DIMCLRD
 70
     0
  9
$DIMCLRE
 70
     0
  9
$DIMCLRT
 70
     0
  9
$DIMTFAC
 40
1.0
  9
$DIMGAP
 40
0.09
  9
$LUNITS
 70
     2
  9
$LUPREC
 70
     4
  9
$SKETCHINC
 40
0.1
  9
$FILLETRAD
 40
0.0
  9
$AUNITS
 70
     0
  9
$AUPREC
 70
     0
  9
$MENU
  1
.
  9
$ELEVATION
 40
0.0
  9
$PELEVATION
 40
0.0
  9
$THICKNESS
 40
0.0
  9
$LIMCHECK
 70
     0
  9
$BLIPMODE
 70
     0
  9
$CHAMFERA
 40
0.0
  9
$CHAMFERB
 40
0.0
  9
$SKPOLY
 70
     0
  9
$TDCREATE
 40
2453083.4120647679
  9
$TDUPDATE
 40
2459604.659587963
  9
$TDINDWG
 40
0.7210623727
  9
$TDUSRTIMER
 40
0.7210622569
  9
$USRTIMER
 70
     1
  9
$ANGBASE
 50
0.0
  9
$ANGDIR
 70
     0
  9
$PDMODE
 70
     0
  9
$PDSIZE
 40
0.0
  9
$PLINEWID
 40
0.0
  9
$COORDS
 70
     1
  9
$SPLFRAME
 70
     0
  9
$SPLINETYPE
 70
     6
  9
$SPLINESEGS
 70
     8
  9
$ATTDIA
 70
     0
  9
$ATTREQ
 70
     1
  9
$HANDLING
 70
     1
  9
$HANDSEED
  5
7B1C
  9
$SURFTAB1
 70
     6
  9
$SURFTAB2
 70
     6
  9
$SURFTYPE
 70
     6
  9
$SURFU
 70
     6
  9
$SURFV
 70
     6
  9
$UCSNAME
  2

  9
$UCSORG
 10
0.0
 20
0.0
 30
0.0
  9
$UCSXDIR
 10
1.0
 20
0.0
 30
0.0
  9
$UCSYDIR
 10
0.0
 20
1.0
 30
0.0
  9
$PUCSNAME
  2

  9
$PUCSORG
 10
0.0
 20
0.0
 30
0.0
  9
$PUCSXDIR
 10
1.0
 20
0.0
 30
0.0
  9
$PUCSYDIR
 10
0.0
 20
1.0
 30
0.0
  9
$USERI1
 70
     0
  9
$USERI2
 70
     1
  9
$USERI3
 70
     0
  9
$USERI4
 70
     0
  9
$USERI5
 70
     0
  9
$USERR1
 40
0.0
  9
$USERR2
 40
0.0
  9
$USERR3
 40
0.0
  9
$USERR4
 40
0.0
  9
$USERR5
 40
0.0
  9
$WORLDVIEW
 70
     1
  9
$SHADEDGE
 70
     3
  9
$SHADEDIF
 70
    70
  9
$TILEMODE
 70
     1
  9
$MAXACTVP
 70
    64
  9
$PLIMCHECK
 70
     0
  9
$PEXTMIN
 10
0.0
 20
0.0
 30
0.0
  9
$PEXTMAX
 10
0.0
 20
0.0
 30
0.0
  9
$PLIMMIN
 10
0.0
 20
0.0
  9
$PLIMMAX
 10
12.0
 20
9.0
  9
$UNITMODE
 70
     0
  9
$VISRETAIN
 70
     1
  9
$PLINEGEN
 70
     0
  9
$PSLTSCALE
 70
     1
  0
ENDSEC
  0
SECTION
  2
TABLES
  0
TABLE
  2
VPORT
 70
     1
  0
VPORT
  2
*ACTIVE
 70
     0
 10
0.0
 20
0.0
 11
1.0
 21
1.0
 12
188.10340961196169
 22
48.009625881943009
 13
0.0
 23
0.0
 14
0.5
 24
0.5
 15
0.5
 25
0.5
 16
0.0
 26
0.0
 36
1.0
 17
0.0
 27
0.0
 37
0.0
 40
158.63511074492041
 41
2.3805970149253728
 42
50.0
 43
0.0
 44
0.0
 50
0.0
 51
0.0
 71
     0
 72
  1000
 73
     1
 74
     2
 75
     0
 76
     0
 77
     0
 78
     0
  0
ENDTAB
  0
TABLE
  2
LTYPE
 70
     3
  0
LTYPE
  2
CONTINUOUS
 70
     0
  3
Solid Line
 72
    65
 73
     0
 40
0.0
  0
LTYPE
  2
CENTER
 70
     0
  3
____ _ ____ _ ____ _ ____ _ ____ _ ____ _ ____
 72
    65
 73
     4
 40
2.0
 49
1.25
 49
-0.25
 49
0.25
 49
-0.25
  0
LTYPE
  2
PHANTOM2
 70
     0
  3
___ _ _ ___ _ _ ___ _ _ ___ _ _
 72
    65
 73
     6
 40
1.25
 49
0.625
 49
-0.125
 49
0.125
 49
-0.125
 49
0.125
 49
-0.125
  0
ENDTAB
  0
TABLE
  2
LAYER
 70
     4
  0
LAYER
  2
0
 70
     0
 62
     7
  6
CONTINUOUS
  0
LAYER
  2
1
 70
     0
 62
     1
  6
CENTER
  0
LAYER
  2
DEFPOINTS
 70
     0
 62
     7
  6
CONTINUOUS
  0
LAYER
  2
3
 70
     0
 62
     3
  6
CONTINUOUS
  0
ENDTAB
  0
TABLE
  2
STYLE
 70
     2
  0
STYLE
  2
STANDARD
 70
     0
 40
0.0
 41
1.0
 50
0.0
 71
     0
 42
0.2
  3
simplex.shx
  4
bigfont.shx
  0
STYLE
  2
STANDARD1
 70
     0
 40
0.0
 41
1.0
 50
0.0
 71
     0
 42
3.0
  3
txt
  4

  0
ENDTAB
  0
TABLE
  2
VIEW
 70
     0
  0
ENDTAB
  0
TABLE
  2
UCS
 70
     0
  0
ENDTAB
  0
TABLE
  2
APPID
 70
     5
  0
APPID
  2
ACAD
 70
     0
  0
APPID
  2
ACAD_MLEADERVER
 70
     0
  0
APPID
  2
ACAD_NAV_VCDISPLAY
 70
     0
  0
APPID
  2
ACAD_EXEMPT_FROM_CAD_STANDARDS
 70
     0
  0
APPID
  2
ACAD_DSTYLE_DIMRADIAL_EXTENSION
 70
     0
  0
ENDTAB
  0
TABLE
  2
DIMSTYLE
 70
     1
  0
DIMSTYLE
  2
STANDARD
 70
     0
  3

  4

  5

  6

  7

 40
1.0
 41
0.18
 42
0.0625
 43
0.38
 44
0.18
 45
0.0
 46
0.0
 47
0.0
 48
0.0
140
2.6000000000000001
141
0.09
142
0.0
143
25.399999999999999
144
1.0
145
0.0
146
1.0
147
0.09
 71
     0
 72
     0
 73
     0
 74
     0
 75
     0
 76
     0
 77
     1
 78
     8
170
     0
171
     2
172
     0
173
     0
174
     0
175
     0
176
     0
177
     0
178
     0
  0
ENDTAB
  0
ENDSEC
  0
SECTION
  2
BLOCKS
  0
BLOCK
  8
0
  2
$MODEL_SPACE
 70
     0
 10
0.0
 20
0.0
 30
0.0
  3
$MODEL_SPACE
  1

  0
ENDBLK
  5
21
  8
0
  0
BLOCK
 67
     1
  8
0
  2
$PAPER_SPACE
 70
     0
 10
0.0
 20
0.0
 30
0.0
  3
$PAPER_SPACE
  1

  0
ENDBLK
  5
5B
 67
     1
  8
0
  0
ENDSEC
  0
SECTION
  2
ENTITIES
  0
TEXT
  5
1F01
  8
0
 62
     3
 10
0.0
 20
0.0
 30
0.0
 40
5.0
  1
CP155-16001LS
  7
STANDARD1
  0
LINE
  5
7995
  8
0
 10
84.000000697600015
 20
92.500000894049975
 30
0.0
 11
66.000001356000013
 21
92.500000894049975
 31
0.0
  0
LINE
  5
7996
  8
0
 10
66.000001356000013
 20
47.499999105949961
 30
0.0
 11
84.000000697600015
 21
47.499999105949961
 31
0.0
  0
LINE
  5
7997
  8
0
 10
66.000001356000013
 20
92.500000894049975
 30
0.0
 11
65.000001192100015
 21
91.500000730149964
 31
0.0
  0
LINE
  5
7998
  8
0
 10
65.000001192100015
 20
48.49999926984998
 30
0.0
 11
66.000001356000013
 21
47.499999105949961
 31
0.0
  0
LINE
  5
7999
  8
0
 10
84.000000697600015
 20
47.499999105949961
 30
0.0
 11
85.00000074510001
 21
48.49999926984998
 31
0.0
  0
LINE
  5
799A
  8
0
 10
85.00000074510001
 20
91.500000730149964
 30
0.0
 11
84.000000697600015
 21
92.500000894049975
 31
0.0
  0
LINE
  5
799B
  8
0
 10
85.200000739999993
 20
85.750000253349995
 30
0.0
 11
85.00000074510001
 21
85.549999661749979
 31
0.0
  0
LINE
  5
799C
  8
0
 10
85.00000074510001
 20
54.450000338249957
 30
0.0
 11
85.200000739999993
 21
54.249999746649962
 31
0.0
  0
LINE
  5
799D
  8
0
 10
85.871854357000018
 20
85.750000253349995
 30
0.0
 11
85.200000739999993
 21
85.750000253349995
 31
0.0
  0
LINE
  5
799E
  8
0
 10
85.200000739999993
 20
54.249999746649962
 30
0.0
 11
85.871854357000018
 21
54.249999746649962
 31
0.0
  0
LINE
  5
799F
  8
0
 10
85.871854357000018
 20
54.249999746649962
 30
0.0
 11
92.826912961900007
 21
56.244331113949983
 31
0.0
  0
LINE
  5
79A0
  8
0
 10
92.826912961900007
 20
83.755668885949973
 30
0.0
 11
85.871854357000018
 21
85.750000253349995
 31
0.0
  0
ARC
  5
79A1
  8
0
 10
92.00000074510001
 20
80.871883992049987
 30
0.0
 40
3.0
 50
0.0
 51
74.000000000000327
  0
ARC
  5
79A2
  8
0
 10
92.00000074510001
 20
59.128116007849997
 30
0.0
 40
3.000000000000008
 50
285.9999999999996
 51
0.0
  0
LINE
  5
79A3
  8
0
 10
59.000000208600021
 20
80.999999940349966
 30
0.0
 11
57.500000894100012
 21
80.133974254149962
 31
0.0
  0
LINE
  5
79A4
  8
0
 10
57.500000894100012
 20
59.866025745849981
 30
0.0
 11
59.000000208600021
 21
59.000000059549961
 31
0.0
  0
LINE
  5
79A5
  8
0
 10
65.000001192100015
 20
80.999999940349966
 30
0.0
 11
59.000000208600021
 21
80.999999940349966
 31
0.0
  0
LINE
  5
79A6
  8
0
 10
59.000000208600021
 20
59.000000059549961
 30
0.0
 11
65.000001192100015
 21
59.000000059549961
 31
0.0
  0
LINE
  5
79A7
  8
0
 10
95.500000603500013
 20
82.000000104249978
 30
0.0
 11
95.000000521600001
 21
81.50000002234998
 31
0.0
  0
LINE
  5
79A8
  8
0
 10
95.000000521600001
 20
58.499999977649964
 30
0.0
 11
95.500000603500013
 21
57.999999895649978
 31
0.0
  0
LINE
  5
79A9
  8
0
 10
98.422650098800005
 20
82.000000104249978
 30
0.0
 11
95.500000603500013
 21
82.000000104249978
 31
0.0
  0
LINE
  5
79AA
  8
0
 10
95.500000603500013
 20
57.999999895649978
 30
0.0
 11
98.422650098800005
 21
57.999999895649978
 31
0.0
  0
ARC
  5
79AB
  8
0
 10
98.422650475900014
 20
80.999999999949964
 30
0.0
 40
1.0
 50
29.999999999999901
 51
90.0
  0
ARC
  5
79AC
  8
0
 10
98.422650475900014
 20
58.999999999949978
 30
0.0
 40
1.0
 50
270.0
 51
330.00000000000011
  0
LINE
  5
79AD
  8
0
 10
99.288675785100011
 20
58.499999977649964
 30
0.0
 11
101.8867528439
 21
62.999999783949988
 31
0.0
  0
LINE
  5
79AE
  8
0
 10
101.8867528439
 20
77.000000216049955
 30
0.0
 11
99.288675785100011
 21
81.50000002234998
 31
0.0
  0
ARC
  5
79AF
  8
0
 10
112.38675209100001
 20
79.499999999949964
 30
0.0
 40
1.0
 50
90.0
 51
150.0
  0
ARC
  5
79B0
  8
0
 10
112.38675209100001
 20
60.499999999949978
 30
0.0
 40
1.0
 50
209.99999999999989
 51
270.0
  0
LINE
  5
79B1
  8
0
 10
112.38675177099999
 20
59.50000014154994
 30
0.0
 11
116.2928937376
 21
59.50000014154994
 31
0.0
  0
LINE
  5
79B2
  8
0
 10
116.2928937376
 20
80.499999858449954
 30
0.0
 11
112.38675177099999
 21
80.499999858449954
 31
0.0
  0
ARC
  5
79B3
  8
0
 10
116.2928939639
 20
79.999999999949964
 30
0.0
 40
0.5
 50
45.000000000000199
 51
90.0
  0
ARC
  5
79B4
  8
0
 10
116.2928939639
 20
59.999999999949971
 30
0.0
 40
0.5
 50
270.0
 51
314.99999999999972
  0
LINE
  5
79B5
  8
0
 10
116.6464461386
 20
59.646446891149992
 30
0.0
 11
117.7071070671
 21
60.707106888249967
 31
0.0
  0
LINE
  5
79B6
  8
0
 10
117.7071070671
 20
79.29289311164996
 30
0.0
 11
116.6464461386
 21
80.353553108849979
 31
0.0
  0
LINE
  5
79B7
  8
0
 10
111.5207260847
 20
79.999999776449982
 30
0.0
 11
109.78867657489999
 21
77.000000216049955
 31
0.0
  0
LINE
  5
79B8
  8
0
 10
109.78867657489999
 20
62.999999783949988
 30
0.0
 11
111.5207260847
 21
60.000000223549989
 31
0.0
  0
ARC
  5
79B9
  8
0
 10
117.0000007451
 20
78.585786437649972
 30
0.0
 40
1.0000000000000071
 50
0.0
 51
45.000000000000199
  0
ARC
  5
79BA
  8
0
 10
117.0000007451
 20
61.414213562349971
 30
0.0
 40
1.0000000000000171
 50
314.99999999999972
 51
0.0
  0
LINE
  5
79BB
  8
0
 10
37.000000327900011
 20
78.000000379949967
 30
0.0
 11
35.0
 21
76.000000052149971
 31
0.0
  0
LINE
  5
79BC
  8
0
 10
35.0
 20
63.999999947849972
 30
0.0
 11
37.000000327900011
 21
61.999999620049941
 31
0.0
  0
LINE
  5
79BD
  8
0
 10
57.500000894100012
 20
78.000000379949967
 30
0.0
 11
37.000000327900011
 21
78.000000379949967
 31
0.0
  0
LINE
  5
79BE
  8
0
 10
37.000000327900011
 20
61.999999620049941
 30
0.0
 11
57.500000894100012
 21
61.999999620049941
 31
0.0
  0
ARC
  5
79BF
  8
0
 10
102.7527774948
 20
62.499999999949971
 30
0.0
 40
1.0000000000000071
 50
90.0
 51
150.0
  0
ARC
  5
79C0
  8
0
 10
102.7527774948
 20
77.499999999949964
 30
0.0
 40
1.0000000000000151
 50
209.99999999999989
 51
270.0
  0
ARC
  5
79C1
  8
0
 10
108.9226504759
 20
62.499999999949971
 30
0.0
 40
1.0000000000000071
 50
29.999999999999901
 51
90.0
  0
ARC
  5
79C2
  8
0
 10
108.9226504759
 20
77.499999999949964
 30
0.0
 40
1.0000000000000151
 50
270.0
 51
330.00000000000011
  0
LINE
  5
79C3
  8
0
 10
102.7527766675
 20
63.499999865849979
 30
0.0
 11
108.9226508886
 21
63.499999865849979
 31
0.0
  0
LINE
  5
79C4
  8
0
 10
108.9226508886
 20
76.500000134049969
 30
0.0
 11
102.7527766675
 21
76.500000134049969
 31
0.0
  0
LINE
  5
79C5
  8
0
 10
84.000000697600001
 20
47.499999105949961
 30
0.0
 11
84.000000697600015
 21
92.500000894049975
 31
0.0
  0
LINE
  5
79C7
  8
0
 10
66.000001356000013
 20
92.500000894049975
 30
0.0
 11
66.000001356000013
 21
47.499999105949961
 31
0.0
  0
LINE
  5
79C8
  8
0
 10
65.000001192100015
 20
48.49999926984998
 30
0.0
 11
65.000001192100015
 21
91.500000730149964
 31
0.0
  0
LINE
  5
79CA
  8
0
 10
85.00000074510001
 20
91.500000730149964
 30
0.0
 11
85.00000074510001
 21
48.49999926984998
 31
0.0
  0
LINE
  5
79CB
  8
0
 10
85.200000739999993
 20
85.750000253349995
 30
0.0
 11
85.200000739999993
 21
54.249999746649962
 31
0.0
  0
LINE
  5
79CC
  8
0
 10
85.871854357000018
 20
85.750000253349995
 30
0.0
 11
85.871854357000018
 21
54.249999746649962
 31
0.0
  0
LINE
  5
79CD
  8
0
 10
59.000000208600021
 20
80.999999940349966
 30
0.0
 11
59.000000208600021
 21
59.000000059549961
 31
0.0
  0
LINE
  5
79CE
  8
0
 10
57.500000894100012
 20
59.866025745849981
 30
0.0
 11
57.500000894100012
 21
80.133974254149962
 31
0.0
  0
LINE
  5
79CF
  8
0
 10
95.500000603500013
 20
82.000000104249978
 30
0.0
 11
95.500000603500013
 21
57.999999895649978
 31
0.0
  0
LINE
  5
79D0
  8
0
 10
95.000000521600001
 20
58.499999977649964
 30
0.0
 11
95.000000521600001
 21
81.50000002234998
 31
0.0
  0
LINE
  5
79D1
  8
0
 10
118.0000005663
 20
61.414213553049983
 30
0.0
 11
118.0000005663
 21
78.58578644695001
 31
0.0
  0
LINE
  5
79D2
  8
0
 10
37.000000327900011
 20
78.000000379949967
 30
0.0
 11
37.000000327900011
 21
61.999999620049941
 31
0.0
  0
LINE
  5
79D3
  8
0
 10
35.0
 20
63.999999947849972
 30
0.0
 11
35.0
 21
76.000000052149971
 31
0.0
  0
LINE
  5
79D4
  8
0
 10
92.826912961900007
 20
56.244331113949983
 30
0.0
 11
92.826912961900007
 21
83.755668885949973
 31
0.0
  0
LINE
  5
79D5
  8
0
 10
98.422650098800005
 20
57.999999895649978
 30
0.0
 11
98.422650098800005
 21
82.000000104249978
 31
0.0
  0
LINE
  5
79D6
  8
0
 10
112.38675177099999
 20
80.499999858449954
 30
0.0
 11
112.38675177099999
 21
59.50000014154994
 31
0.0
  0
LINE
  5
79D7
  8
0
 10
116.2928937376
 20
59.50000014154994
 30
0.0
 11
116.2928937376
 21
80.499999858449954
 31
0.0
  0
LINE
  5
79D8
  8
0
 10
102.7527766675
 20
76.500000134049969
 30
0.0
 11
102.7527766675
 21
63.499999865849979
 31
0.0
  0
LINE
  5
79D9
  8
0
 10
108.9226508886
 20
63.499999865849979
 30
0.0
 11
108.9226508886
 21
76.500000134049969
 31
0.0
  0
LINE
  5
79DA
  8
3
 10
57.500000894100012
 20
77.000000216049955
 30
0.0
 11
36.000002026600022
 21
77.000000216049955
 31
0.0
  0
LINE
  5
79DB
  8
3
 10
36.000002026600022
 20
62.999999783949988
 30
0.0
 11
57.500000894100012
 21
62.999999783949988
 31
0.0
  0
CIRCLE
  5
79DC
  8
0
 10
190.50000056630009
 20
69.999999999949964
 30
0.0
 40
21.500000000000028
  0
CIRCLE
  5
79DD
  8
0
 10
190.50000056630009
 20
69.999999999949964
 30
0.0
 40
22.50000000000006
  0
CIRCLE
  5
79DE
  8
0
 10
190.50000056630009
 20
69.999999999949964
 30
0.0
 40
13.755669079918549
  0
CIRCLE
  5
79DF
  8
0
 10
190.50000056630009
 20
69.999999999949964
 30
0.0
 40
15.749999999999989
  0
LINE
  5
79E0
  8
0
 10
187.50000056811879
 20
71.732050838706556
 30
0.0
 11
190.50000053846799
 21
73.464101629156545
 31
0.0
  0
LINE
  5
79E3
  8
0
 10
193.50000056451799
 20
68.267949161329966
 30
0.0
 11
190.5000005941688
 21
66.535898370879977
 31
0.0
  0
CIRCLE
  5
79E6
  8
0
 10
190.50000056630009
 20
69.999999999949964
 30
0.0
 40
3.75
  0
CIRCLE
  5
79E7
  8
0
 10
190.50000056630009
 20
69.999999999949964
 30
0.0
 40
8.5857864376269042
  0
CIRCLE
  5
79E8
  8
0
 10
190.50000056630009
 20
69.999999999949964
 30
0.0
 40
10.500000000000011
  0
CIRCLE
  5
79EF
  8
0
 10
190.50000056630009
 20
69.999999999949964
 30
0.0
 40
12.000000000000011
  0
LINE
  5
7A37
  8
1
 10
190.50000056630009
 20
97.499999999950035
 30
0.0
 11
190.50000056630009
 21
42.499999999949921
 31
0.0
  0
LINE
  5
7A3A
  8
1
 10
123.0000005663
 20
70.0
 30
0.0
 11
30.0
 21
70.0
 31
0.0
  0
LINE
  5
7A3F
  8
1
 10
163.0000005663
 20
69.999999999949964
 30
0.0
 11
218.00000056630009
 21
69.999999999949964
 31
0.0
  0
LINE
  5
7A8B
  8
0
 10
193.50000056448141
 20
71.732050838706556
 30
0.0
 11
190.5000005941321
 21
73.464101629156545
 31
0.0
  0
LINE
  5
7A8C
  8
0
 10
187.50000056811879
 20
71.732050838706556
 30
0.0
 11
187.50000059595081
 21
68.26794920949996
 31
0.0
  0
LINE
  5
7A8D
  8
0
 10
193.50000056448141
 20
71.732050838706556
 30
0.0
 11
193.50000056451799
 21
68.267949161329966
 31
0.0
  0
LINE
  5
7A8E
  8
0
 10
187.50000059595081
 20
68.26794920949996
 30
0.0
 11
190.50000056630009
 21
66.535898354789964
 31
0.0
  0
ENDSEC
  0
EOF
