  0
SECTION
  2
HEADER
  9
$ACADVER
  1
AC1009
  9
$INSBASE
 10
0.0
 20
0.0
 30
0.0
  9
$EXTMIN
 10
0.0
 20
-1.4802182810368341
 30
0.0
  9
$EXTMAX
 10
144.50000074505809
 20
67.250000000000028
 30
0.0
  9
$LIMMIN
 10
0.0
 20
0.0
  9
$LIMMAX
 10
12.0
 20
9.0
  9
$ORTHOMODE
 70
     1
  9
$REGENMODE
 70
     1
  9
$FILLMODE
 70
     1
  9
$QTEXTMODE
 70
     0
  9
$MIRRTEXT
 70
     0
  9
$DRAGMODE
 70
     2
  9
$LTSCALE
 40
5.0
  9
$OSMODE
 70
    37
  9
$ATTMODE
 70
     1
  9
$TEXTSIZE
 40
0.2
  9
$TRACEWID
 40
0.05
  9
$TEXTSTYLE
  7
STANDARD
  9
$CLAYER
  8
0
  9
$CELTYPE
  6
BYLAYER
  9
$CECOLOR
 62
   256
  9
$DIMSCALE
 40
1.0
  9
$DIMASZ
 40
0.18
  9
$DIMEXO
 40
0.0625
  9
$DIMDLI
 40
0.38
  9
$DIMRND
 40
0.0
  9
$DIMDLE
 40
0.0
  9
$DIMEXE
 40
0.18
  9
$DIMTP
 40
0.0
  9
$DIMTM
 40
0.0
  9
$DIMTXT
 40
2.6000000000000001
  9
$DIMCEN
 40
0.09
  9
$DIMTSZ
 40
0.0
  9
$DIMTOL
 70
     0
  9
$DIMLIM
 70
     0
  9
$DIMTIH
 70
     0
  9
$DIMTOH
 70
     0
  9
$DIMSE1
 70
     0
  9
$DIMSE2
 70
     0
  9
$DIMTAD
 70
     1
  9
$DIMZIN
 70
     8
  9
$DIMBLK
  1

  9
$DIMASO
 70
     1
  9
$DIMSHO
 70
     1
  9
$DIMPOST
  1

  9
$DIMAPOST
  1

  9
$DIMALT
 70
     0
  9
$DIMALTD
 70
     2
  9
$DIMALTF
 40
25.399999999999999
  9
$DIMLFAC
 40
1.0
  9
$DIMTOFL
 70
     0
  9
$DIMTVP
 40
0.0
  9
$DIMTIX
 70
     0
  9
$DIMSOXD
 70
     0
  9
$DIMSAH
 70
     0
  9
$DIMBLK1
  1

  9
$DIMBLK2
  1

  9
$DIMSTYLE
  2
STANDARD
  9
$DIMCLRD
 70
     0
  9
$DIMCLRE
 70
     0
  9
$DIMCLRT
 70
     0
  9
$DIMTFAC
 40
1.0
  9
$DIMGAP
 40
0.09
  9
$LUNITS
 70
     2
  9
$LUPREC
 70
     4
  9
$SKETCHINC
 40
0.1
  9
$FILLETRAD
 40
0.0
  9
$AUNITS
 70
     0
  9
$AUPREC
 70
     0
  9
$MENU
  1
.
  9
$ELEVATION
 40
0.0
  9
$PELEVATION
 40
0.0
  9
$THICKNESS
 40
0.0
  9
$LIMCHECK
 70
     0
  9
$BLIPMODE
 70
     0
  9
$CHAMFERA
 40
0.0
  9
$CHAMFERB
 40
0.0
  9
$SKPOLY
 70
     0
  9
$TDCREATE
 40
2453083.4120647679
  9
$TDUPDATE
 40
2456923.4970712969
  9
$TDINDWG
 40
0.6908918866
  9
$TDUSRTIMER
 40
0.6908917708
  9
$USRTIMER
 70
     1
  9
$ANGBASE
 50
0.0
  9
$ANGDIR
 70
     0
  9
$PDMODE
 70
     0
  9
$PDSIZE
 40
0.0
  9
$PLINEWID
 40
0.0
  9
$COORDS
 70
     1
  9
$SPLFRAME
 70
     0
  9
$SPLINETYPE
 70
     6
  9
$SPLINESEGS
 70
     8
  9
$ATTDIA
 70
     0
  9
$ATTREQ
 70
     1
  9
$HANDLING
 70
     1
  9
$HANDSEED
  5
79AE
  9
$SURFTAB1
 70
     6
  9
$SURFTAB2
 70
     6
  9
$SURFTYPE
 70
     6
  9
$SURFU
 70
     6
  9
$SURFV
 70
     6
  9
$UCSNAME
  2

  9
$UCSORG
 10
0.0
 20
0.0
 30
0.0
  9
$UCSXDIR
 10
1.0
 20
0.0
 30
0.0
  9
$UCSYDIR
 10
0.0
 20
1.0
 30
0.0
  9
$PUCSNAME
  2

  9
$PUCSORG
 10
0.0
 20
0.0
 30
0.0
  9
$PUCSXDIR
 10
1.0
 20
0.0
 30
0.0
  9
$PUCSYDIR
 10
0.0
 20
1.0
 30
0.0
  9
$USERI1
 70
     0
  9
$USERI2
 70
     1
  9
$USERI3
 70
     0
  9
$USERI4
 70
     0
  9
$USERI5
 70
     0
  9
$USERR1
 40
0.0
  9
$USERR2
 40
0.0
  9
$USERR3
 40
0.0
  9
$USERR4
 40
0.0
  9
$USERR5
 40
0.0
  9
$WORLDVIEW
 70
     1
  9
$SHADEDGE
 70
     3
  9
$SHADEDIF
 70
    70
  9
$TILEMODE
 70
     1
  9
$MAXACTVP
 70
    64
  9
$PLIMCHECK
 70
     0
  9
$PEXTMIN
 10
0.0
 20
0.0
 30
0.0
  9
$PEXTMAX
 10
0.0
 20
0.0
 30
0.0
  9
$PLIMMIN
 10
0.0
 20
0.0
  9
$PLIMMAX
 10
12.0
 20
9.0
  9
$UNITMODE
 70
     0
  9
$VISRETAIN
 70
     1
  9
$PLINEGEN
 70
     0
  9
$PSLTSCALE
 70
     1
  0
ENDSEC
  0
SECTION
  2
TABLES
  0
TABLE
  2
VPORT
 70
     1
  0
VPORT
  2
*ACTIVE
 70
     0
 10
0.0
 20
0.0
 11
1.0
 21
1.0
 12
72.252107244791475
 22
37.391267422947017
 13
0.0
 23
0.0
 14
0.5
 24
0.5
 15
0.5
 25
0.5
 16
0.0
 26
0.0
 36
1.0
 17
0.0
 27
0.0
 37
0.0
 40
83.160018014509774
 41
1.7454798331015291
 42
50.0
 43
0.0
 44
0.0
 50
0.0
 51
0.0
 71
     0
 72
  1000
 73
     1
 74
     2
 75
     0
 76
     0
 77
     0
 78
     0
  0
ENDTAB
  0
TABLE
  2
LTYPE
 70
     3
  0
LTYPE
  2
CONTINUOUS
 70
     0
  3
Solid Line
 72
    65
 73
     0
 40
0.0
  0
LTYPE
  2
CENTER
 70
     0
  3
____ _ ____ _ ____ _ ____ _ ____ _ ____ _ ____
 72
    65
 73
     4
 40
2.0
 49
1.25
 49
-0.25
 49
0.25
 49
-0.25
  0
LTYPE
  2
PHANTOM2
 70
     0
  3
___ _ _ ___ _ _ ___ _ _ ___ _ _
 72
    65
 73
     6
 40
1.25
 49
0.625
 49
-0.125
 49
0.125
 49
-0.125
 49
0.125
 49
-0.125
  0
ENDTAB
  0
TABLE
  2
LAYER
 70
     3
  0
LAYER
  2
0
 70
     0
 62
     7
  6
CONTINUOUS
  0
LAYER
  2
1
 70
     0
 62
     1
  6
CENTER
  0
LAYER
  2
DEFPOINTS
 70
     0
 62
     7
  6
CONTINUOUS
  0
ENDTAB
  0
TABLE
  2
STYLE
 70
     2
  0
STYLE
  2
STANDARD
 70
     0
 40
0.0
 41
1.0
 50
0.0
 71
     0
 42
0.2
  3
simplex.shx
  4
bigfont.shx
  0
STYLE
  2
STANDARD1
 70
     0
 40
0.0
 41
1.0
 50
0.0
 71
     0
 42
3.0
  3
txt
  4

  0
ENDTAB
  0
TABLE
  2
VIEW
 70
     0
  0
ENDTAB
  0
TABLE
  2
UCS
 70
     0
  0
ENDTAB
  0
TABLE
  2
APPID
 70
     5
  0
APPID
  2
ACAD
 70
     0
  0
APPID
  2
ACAD_MLEADERVER
 70
     0
  0
APPID
  2
ACAD_NAV_VCDISPLAY
 70
     0
  0
APPID
  2
ACAD_EXEMPT_FROM_CAD_STANDARDS
 70
     0
  0
APPID
  2
ACAD_DSTYLE_DIMRADIAL_EXTENSION
 70
     0
  0
ENDTAB
  0
TABLE
  2
DIMSTYLE
 70
     1
  0
DIMSTYLE
  2
STANDARD
 70
     0
  3

  4

  5

  6

  7

 40
1.0
 41
0.18
 42
0.0625
 43
0.38
 44
0.18
 45
0.0
 46
0.0
 47
0.0
 48
0.0
140
2.6000000000000001
141
0.09
142
0.0
143
25.399999999999999
144
1.0
145
0.0
146
1.0
147
0.09
 71
     0
 72
     0
 73
     0
 74
     0
 75
     0
 76
     0
 77
     1
 78
     8
170
     0
171
     2
172
     0
173
     0
174
     0
175
     0
176
     0
177
     0
178
     0
  0
ENDTAB
  0
ENDSEC
  0
SECTION
  2
BLOCKS
  0
BLOCK
  8
0
  2
$MODEL_SPACE
 70
     0
 10
0.0
 20
0.0
 30
0.0
  3
$MODEL_SPACE
  1

  0
ENDBLK
  5
21
  8
0
  0
BLOCK
 67
     1
  8
0
  2
$PAPER_SPACE
 70
     0
 10
0.0
 20
0.0
 30
0.0
  3
$PAPER_SPACE
  1

  0
ENDBLK
  5
5B
 67
     1
  8
0
  0
ENDSEC
  0
SECTION
  2
ENTITIES
  0
TEXT
  5
1F01
  8
0
 62
     3
 10
0.0
 20
0.0
 30
0.0
 40
5.0
  1
CP158-12001
  7
STANDARD1
  0
LINE
  5
78C1
  8
0
 10
60.000000372529058
 20
37.750000320375008
 30
0.0
 11
60.871853984426743
 21
37.750000320375008
 31
0.0
  0
LINE
  5
78C2
  8
0
 10
60.87185398442665
 20
62.24999967962507
 30
0.0
 11
60.000000372528973
 21
62.24999967962507
 31
0.0
  0
LINE
  5
78C3
  8
0
 10
60.871853984426743
 20
37.750000320375008
 30
0.0
 11
67.275637611746816
 21
39.58625551313169
 31
0.0
  0
LINE
  5
78C4
  8
0
 10
67.275637611746731
 20
60.413744486868453
 30
0.0
 11
60.87185398442665
 21
62.24999967962507
 31
0.0
  0
LINE
  5
78C5
  8
0
 10
59.126403033733311
 20
62.249499559402508
 30
0.0
 11
52.724363133311229
 21
60.413744486868417
 31
0.0
  0
LINE
  5
78C6
  8
0
 10
52.7243631333113
 20
39.586255513131661
 30
0.0
 11
59.126403033733411
 21
37.750500440597577
 31
0.0
  0
LINE
  5
78C7
  8
0
 10
60.000000372528973
 20
62.249499559402508
 30
0.0
 11
59.126403033733311
 21
62.249499559402508
 31
0.0
  0
LINE
  5
78C8
  8
0
 10
59.126403033733411
 20
37.750500440597577
 30
0.0
 11
60.000000372529058
 21
37.750500440597577
 31
0.0
  0
ARC
  5
78C9
  8
0
 10
53.000000372528973
 20
59.452482863826773
 30
0.0
 40
0.9999999999999857
 50
105.9999999999998
 51
180.0
  0
ARC
  5
78CA
  8
0
 10
53.000000372529037
 20
40.547517136173283
 30
0.0
 40
1.0000000000000131
 50
180.0
 51
254.00000000000179
  0
ARC
  5
78CB
  8
0
 10
67.000000372529044
 20
40.54751713617334
 30
0.0
 40
1.00000000000002
 50
286.00000000000148
 51
0.0
  0
ARC
  5
78CC
  8
0
 10
67.000000372528973
 20
59.452482863826802
 30
0.0
 40
1.00000000000002
 50
0.0000000000016284
 51
73.999999999998266
  0
ARC
  5
78CD
  8
0
 10
51.600000372528989
 20
58.40000000000002
 30
0.0
 40
0.4000000000000057
 50
270.0
 51
0.0
  0
ARC
  5
78CE
  8
0
 10
51.600000372529053
 20
41.600000000000009
 30
0.0
 40
0.4000000000000057
 50
0.0
 51
90.0
  0
ARC
  5
78CF
  8
0
 10
68.400000372529036
 20
41.600000000000087
 30
0.0
 40
0.3999999999999772
 50
90.0
 51
180.0
  0
ARC
  5
78D0
  8
0
 10
68.400000372528979
 20
58.40000000000007
 30
0.0
 40
0.4000000000000057
 50
180.0
 51
270.0
  0
ARC
  5
78D1
  8
0
 10
36.407107153715543
 20
57.499999999999957
 30
0.0
 40
0.500000000000004
 50
90.000000000001606
 51
135.0
  0
ARC
  5
78D2
  8
0
 10
36.4071071537156
 20
42.49999999999995
 30
0.0
 40
0.500000000000004
 50
225.00000000000111
 51
270.0
  0
LINE
  5
78D3
  8
0
 10
39.046261310577371
 20
58.000000379979603
 30
0.0
 11
36.40710733830926
 21
58.000000379979603
 31
0.0
  0
LINE
  5
78D4
  8
0
 10
36.407107338309324
 20
41.999999620020382
 30
0.0
 11
39.046261310577421
 21
41.999999620020382
 31
0.0
  0
ARC
  5
78D5
  8
0
 10
39.046261728473077
 20
56.999999999999993
 30
0.0
 40
1.0
 50
29.999999999999758
 51
90.0
  0
ARC
  5
78D6
  8
0
 10
39.046261728473141
 20
42.999999999999957
 30
0.0
 40
1.0
 50
270.0
 51
330.00000000000051
  0
ARC
  5
78D7
  8
0
 10
49.577350641718617
 20
57.000000000000007
 30
0.0
 40
1.000000000000008
 50
90.0
 51
150.0000000000002
  0
ARC
  5
78D8
  8
0
 10
49.577350641718681
 20
43.000000000000007
 30
0.0
 40
1.000000000000022
 50
210.00000000000179
 51
270.0
  0
LINE
  5
78D9
  8
0
 10
51.600000672042327
 20
58.000000379979653
 30
0.0
 11
49.577350579202133
 21
58.000000379979618
 31
0.0
  0
LINE
  5
78DA
  8
0
 10
49.577350579202211
 20
41.999999620020397
 30
0.0
 11
51.600000672042398
 21
41.999999620020432
 31
0.0
  0
LINE
  5
78DB
  8
0
 10
68.400000073015718
 20
41.999999620020461
 30
0.0
 11
70.422650165855913
 21
41.999999620020461
 31
0.0
  0
LINE
  5
78DC
  8
0
 10
70.422650165855856
 20
58.000000379979681
 30
0.0
 11
68.400000073015661
 21
58.000000379979681
 31
0.0
  0
ARC
  5
78DD
  8
0
 10
70.42265010333935
 20
57.000000000000092
 30
0.0
 40
1.000000000000008
 50
29.999999999999758
 51
90.0
  0
ARC
  5
78DE
  8
0
 10
70.422650103339407
 20
43.000000000000057
 30
0.0
 40
1.0
 50
270.0
 51
330.00000000000182
  0
ARC
  5
78DF
  8
0
 10
80.953739016584933
 20
57.000000000000128
 30
0.0
 40
1.000000000000008
 50
90.000000000001606
 51
150.0000000000002
  0
ARC
  5
78E0
  8
0
 10
80.953739016584933
 20
43.000000000000128
 30
0.0
 40
1.0
 50
210.00000000000179
 51
270.00000000000171
  0
LINE
  5
78E1
  8
0
 10
80.953739434480696
 20
41.999999620020482
 30
0.0
 11
83.5928934067488
 21
41.999999620020517
 31
0.0
  0
LINE
  5
78E2
  8
0
 10
83.592893406748743
 20
58.000000379979738
 30
0.0
 11
80.953739434480639
 21
58.00000037997971
 31
0.0
  0
ARC
  5
78E3
  8
0
 10
83.592893591342417
 20
57.500000000000149
 30
0.0
 40
0.500000000000004
 50
44.999999999995389
 51
90.0
  0
ARC
  5
78E4
  8
0
 10
83.592893591342488
 20
42.500000000000128
 30
0.0
 40
0.500000000000004
 50
270.0
 51
315.0000000000058
  0
LINE
  5
78E5
  8
0
 10
36.053553074598291
 20
57.853553630411582
 30
0.0
 11
35.292893499135943
 21
57.092893123626673
 31
0.0
  0
LINE
  5
78E6
  8
0
 10
35.292893499135999
 20
42.907106876373241
 30
0.0
 11
36.053553074598341
 21
42.146446369588332
 31
0.0
  0
LINE
  5
78E7
  8
0
 10
83.946447670459776
 20
42.146446369588503
 30
0.0
 11
84.707107245922117
 21
42.907106876373419
 31
0.0
  0
LINE
  5
78E8
  8
0
 10
84.707107245922074
 20
57.092893123626837
 30
0.0
 11
83.946447670459719
 21
57.853553630411753
 31
0.0
  0
LINE
  5
78E9
  8
0
 10
39.912286996841459
 20
42.500000167638049
 30
0.0
 11
41.211325526237502
 21
44.750000070780501
 31
0.0
  0
LINE
  5
78EA
  8
0
 10
41.211325526237459
 20
55.24999992921947
 30
0.0
 11
39.912286996841402
 21
57.499999832361922
 31
0.0
  0
LINE
  5
78EB
  8
0
 10
48.711324892938109
 20
57.499999832361951
 30
0.0
 11
47.412287294864619
 21
55.249999929219499
 31
0.0
  0
LINE
  5
78EC
  8
0
 10
47.412287294864669
 20
44.75000007078053
 30
0.0
 11
48.711324892938173
 21
42.500000167638078
 31
0.0
  0
LINE
  5
78ED
  8
0
 10
71.288675852119951
 20
42.500000167638127
 30
0.0
 11
72.587713450193405
 21
44.75000007078058
 31
0.0
  0
LINE
  5
78EE
  8
0
 10
72.587713450193377
 20
55.249999929219548
 30
0.0
 11
71.288675852119894
 21
57.499999832362001
 31
0.0
  0
LINE
  5
78EF
  8
0
 10
80.087713748216615
 20
57.499999832362043
 30
0.0
 11
78.788675218820543
 21
55.249999929219591
 31
0.0
  0
LINE
  5
78F0
  8
0
 10
78.788675218820572
 20
44.750000070780608
 30
0.0
 11
80.087713748216657
 21
42.500000167638163
 31
0.0
  0
ARC
  5
78F1
  8
0
 10
36.000000372529037
 20
43.614213562373017
 30
0.0
 40
1.0
 50
180.0
 51
225.00000000000111
  0
ARC
  5
78F2
  8
0
 10
36.000000372529001
 20
56.385786437626891
 30
0.0
 40
1.0
 50
135.0
 51
180.0
  0
ARC
  5
78F3
  8
0
 10
84.000000372528987
 20
56.385786437627061
 30
0.0
 40
1.0
 50
0.0
 51
45.0
  0
ARC
  5
78F4
  8
0
 10
84.000000372529058
 20
43.614213562373223
 30
0.0
 40
1.0
 50
315.0
 51
0.0
  0
ARC
  5
78F5
  8
0
 10
42.07735064171866
 20
44.249999999999957
 30
0.0
 40
1.0
 50
90.0
 51
150.0000000000002
  0
ARC
  5
78F6
  8
0
 10
42.077350641718617
 20
55.749999999999993
 30
0.0
 40
1.0
 50
210.00000000000091
 51
270.0
  0
ARC
  5
78F7
  8
0
 10
46.546261728473141
 20
44.249999999999979
 30
0.0
 40
1.0
 50
29.999999999999758
 51
90.0
  0
ARC
  5
78F8
  8
0
 10
46.546261728473098
 20
55.750000000000007
 30
0.0
 40
1.000000000000008
 50
270.0
 51
330.00000000000182
  0
ARC
  5
78F9
  8
0
 10
73.453739016584933
 20
44.250000000000099
 30
0.0
 40
1.000000000000008
 50
90.0
 51
150.0000000000002
  0
ARC
  5
78FA
  8
0
 10
73.453739016584905
 20
55.750000000000092
 30
0.0
 40
1.000000000000008
 50
209.9999999999996
 51
270.0
  0
ARC
  5
78FB
  8
0
 10
77.922650103339436
 20
44.250000000000099
 30
0.0
 40
1.0
 50
30.000000000001851
 51
90.000000000001606
  0
ARC
  5
78FC
  8
0
 10
77.922650103339379
 20
55.750000000000128
 30
0.0
 40
1.0
 50
270.0
 51
330.00000000000051
  0
LINE
  5
78FD
  8
0
 10
46.546261608600581
 20
54.749999847263112
 30
0.0
 11
42.07735121250149
 21
54.749999847263084
 31
0.0
  0
LINE
  5
78FE
  8
0
 10
42.07735121250154
 20
45.250000152736888
 30
0.0
 11
46.546261608600631
 21
45.250000152736916
 31
0.0
  0
LINE
  5
78FF
  8
0
 10
73.453739136457443
 20
45.250000152736973
 30
0.0
 11
77.922649532556534
 21
45.250000152736988
 31
0.0
  0
LINE
  5
7900
  8
0
 10
77.922649532556505
 20
54.749999847263197
 30
0.0
 11
73.453739136457415
 21
54.749999847263162
 31
0.0
  0
LINE
  5
7901
  8
0
 10
60.871853984426743
 20
37.750000320375008
 30
0.0
 11
60.87185398442665
 21
62.24999967962507
 31
0.0
  0
LINE
  5
7902
  8
0
 10
60.000000372528973
 20
62.24999967962507
 30
0.0
 11
60.000000372529058
 21
37.750000320375008
 31
0.0
  0
LINE
  5
7903
  8
0
 10
59.126403033733411
 20
37.750500440597577
 30
0.0
 11
59.126403033733311
 21
62.249499559402508
 31
0.0
  0
LINE
  5
7904
  8
0
 10
51.999999992549448
 20
40.547517314553303
 30
0.0
 11
51.999999992549377
 21
59.452482685446782
 31
0.0
  0
LINE
  5
7905
  8
0
 10
68.000000752508583
 20
59.45248268544681
 30
0.0
 11
68.000000752508669
 21
40.547517314553332
 31
0.0
  0
LINE
  5
7906
  8
0
 10
34.999999999999972
 20
56.385786458849871
 30
0.0
 11
35.000000000000028
 21
43.614213541150043
 31
0.0
  0
LINE
  5
7907
  8
0
 10
85.000000745058088
 20
43.614213541150221
 30
0.0
 11
85.000000745058045
 21
56.385786458850042
 31
0.0
  0
LINE
  5
790D
  8
0
 10
36.40710733830926
 20
58.000000379979603
 30
0.0
 11
36.407107338309324
 21
41.999999620020382
 31
0.0
  0
LINE
  5
790E
  8
0
 10
39.046261310577421
 20
41.999999620020382
 30
0.0
 11
39.046261310577371
 21
58.000000379979603
 31
0.0
  0
LINE
  5
7911
  8
0
 10
49.577350579202133
 20
58.000000379979618
 30
0.0
 11
49.577350579202211
 21
41.999999620020397
 31
0.0
  0
LINE
  5
7912
  8
0
 10
70.422650165855913
 20
41.999999620020461
 30
0.0
 11
70.422650165855856
 21
58.000000379979681
 31
0.0
  0
LINE
  5
7915
  8
0
 10
80.953739434480639
 20
58.00000037997971
 30
0.0
 11
80.953739434480696
 21
41.999999620020482
 31
0.0
  0
LINE
  5
7916
  8
0
 10
83.5928934067488
 20
41.999999620020517
 30
0.0
 11
83.592893406748743
 21
58.000000379979738
 31
0.0
  0
LINE
  5
791E
  8
0
 10
42.07735121250149
 20
54.749999847263084
 30
0.0
 11
42.07735121250154
 21
45.250000152736888
 31
0.0
  0
LINE
  5
791F
  8
0
 10
46.546261608600631
 20
45.250000152736916
 30
0.0
 11
46.546261608600581
 21
54.749999847263112
 31
0.0
  0
LINE
  5
7920
  8
0
 10
73.453739136457415
 20
54.749999847263162
 30
0.0
 11
73.453739136457443
 21
45.250000152736973
 31
0.0
  0
LINE
  5
7921
  8
0
 10
77.922649532556534
 20
45.250000152736988
 30
0.0
 11
77.922649532556505
 21
54.749999847263197
 31
0.0
  0
LINE
  5
7922
  8
1
 10
30.0
 20
50.0
 30
0.0
 11
90.000000745058045
 21
50.0
 31
0.0
  0
CIRCLE
  5
7923
  8
0
 10
127.2500007450581
 20
50.000000000000078
 30
0.0
 40
8.0
  0
CIRCLE
  5
7924
  8
0
 10
127.2500007450581
 20
50.0
 30
0.0
 40
12.25000000000003
  0
CIRCLE
  5
7926
  8
0
 10
127.2500007450581
 20
50.000000000000078
 30
0.0
 40
6.385786437626904
  0
CIRCLE
  5
792A
  8
0
 10
127.2500007450581
 20
50.000000000000028
 30
0.0
 40
9.4524828638267593
  0
LINE
  5
7942
  8
1
 10
110.000000745058
 20
50.0
 30
0.0
 11
144.50000074505809
 21
50.0
 31
0.0
  0
LINE
  5
7943
  8
1
 10
127.2500007450581
 20
67.250000000000028
 30
0.0
 11
127.2500007450581
 21
32.749999999999972
 31
0.0
  0
ENDSEC
  0
EOF
