  0
SECTION
  2
HEADER
  9
$ACADVER
  1
AC1009
  9
$INSBASE
 10
0.0
 20
0.0
 30
0.0
  9
$EXTMIN
 10
0.0
 20
-1.4802182810368341
 30
0.0
  9
$EXTMAX
 10
167.4999996423721
 20
70.749999999999901
 30
0.0
  9
$LIMMIN
 10
0.0
 20
0.0
  9
$LIMMAX
 10
12.0
 20
9.0
  9
$ORTHOMODE
 70
     1
  9
$REGENMODE
 70
     1
  9
$FILLMODE
 70
     1
  9
$QTEXTMODE
 70
     0
  9
$MIRRTEXT
 70
     0
  9
$DRAGMODE
 70
     2
  9
$LTSCALE
 40
5.0
  9
$OSMODE
 70
    37
  9
$ATTMODE
 70
     1
  9
$TEXTSIZE
 40
0.2
  9
$TRACEWID
 40
0.05
  9
$TEXTSTYLE
  7
STANDARD
  9
$CLAYER
  8
0
  9
$CELTYPE
  6
BYLAYER
  9
$CECOLOR
 62
   256
  9
$DIMSCALE
 40
1.0
  9
$DIMASZ
 40
0.18
  9
$DIMEXO
 40
0.0625
  9
$DIMDLI
 40
0.38
  9
$DIMRND
 40
0.0
  9
$DIMDLE
 40
0.0
  9
$DIMEXE
 40
0.18
  9
$DIMTP
 40
0.0
  9
$DIMTM
 40
0.0
  9
$DIMTXT
 40
2.6000000000000001
  9
$DIMCEN
 40
0.09
  9
$DIMTSZ
 40
0.0
  9
$DIMTOL
 70
     0
  9
$DIMLIM
 70
     0
  9
$DIMTIH
 70
     0
  9
$DIMTOH
 70
     0
  9
$DIMSE1
 70
     0
  9
$DIMSE2
 70
     0
  9
$DIMTAD
 70
     1
  9
$DIMZIN
 70
     8
  9
$DIMBLK
  1

  9
$DIMASO
 70
     1
  9
$DIMSHO
 70
     1
  9
$DIMPOST
  1

  9
$DIMAPOST
  1

  9
$DIMALT
 70
     0
  9
$DIMALTD
 70
     2
  9
$DIMALTF
 40
25.399999999999999
  9
$DIMLFAC
 40
1.0
  9
$DIMTOFL
 70
     0
  9
$DIMTVP
 40
0.0
  9
$DIMTIX
 70
     0
  9
$DIMSOXD
 70
     0
  9
$DIMSAH
 70
     0
  9
$DIMBLK1
  1

  9
$DIMBLK2
  1

  9
$DIMSTYLE
  2
STANDARD
  9
$DIMCLRD
 70
     0
  9
$DIMCLRE
 70
     0
  9
$DIMCLRT
 70
     0
  9
$DIMTFAC
 40
1.0
  9
$DIMGAP
 40
0.09
  9
$LUNITS
 70
     2
  9
$LUPREC
 70
     4
  9
$SKETCHINC
 40
0.1
  9
$FILLETRAD
 40
0.0
  9
$AUNITS
 70
     0
  9
$AUPREC
 70
     0
  9
$MENU
  1
.
  9
$ELEVATION
 40
0.0
  9
$PELEVATION
 40
0.0
  9
$THICKNESS
 40
0.0
  9
$LIMCHECK
 70
     0
  9
$BLIPMODE
 70
     0
  9
$CHAMFERA
 40
0.0
  9
$CHAMFERB
 40
0.0
  9
$SKPOLY
 70
     0
  9
$TDCREATE
 40
2453083.4120647679
  9
$TDUPDATE
 40
2456923.4970790618
  9
$TDINDWG
 40
0.6957070023
  9
$TDUSRTIMER
 40
0.6957068866
  9
$USRTIMER
 70
     1
  9
$ANGBASE
 50
0.0
  9
$ANGDIR
 70
     0
  9
$PDMODE
 70
     0
  9
$PDSIZE
 40
0.0
  9
$PLINEWID
 40
0.0
  9
$COORDS
 70
     1
  9
$SPLFRAME
 70
     0
  9
$SPLINETYPE
 70
     6
  9
$SPLINESEGS
 70
     8
  9
$ATTDIA
 70
     0
  9
$ATTREQ
 70
     1
  9
$HANDLING
 70
     1
  9
$HANDSEED
  5
7AA7
  9
$SURFTAB1
 70
     6
  9
$SURFTAB2
 70
     6
  9
$SURFTYPE
 70
     6
  9
$SURFU
 70
     6
  9
$SURFV
 70
     6
  9
$UCSNAME
  2

  9
$UCSORG
 10
0.0
 20
0.0
 30
0.0
  9
$UCSXDIR
 10
1.0
 20
0.0
 30
0.0
  9
$UCSYDIR
 10
0.0
 20
1.0
 30
0.0
  9
$PUCSNAME
  2

  9
$PUCSORG
 10
0.0
 20
0.0
 30
0.0
  9
$PUCSXDIR
 10
1.0
 20
0.0
 30
0.0
  9
$PUCSYDIR
 10
0.0
 20
1.0
 30
0.0
  9
$USERI1
 70
     0
  9
$USERI2
 70
     1
  9
$USERI3
 70
     0
  9
$USERI4
 70
     0
  9
$USERI5
 70
     0
  9
$USERR1
 40
0.0
  9
$USERR2
 40
0.0
  9
$USERR3
 40
0.0
  9
$USERR4
 40
0.0
  9
$USERR5
 40
0.0
  9
$WORLDVIEW
 70
     1
  9
$SHADEDGE
 70
     3
  9
$SHADEDIF
 70
    70
  9
$TILEMODE
 70
     1
  9
$MAXACTVP
 70
    64
  9
$PLIMCHECK
 70
     0
  9
$PEXTMIN
 10
0.0
 20
0.0
 30
0.0
  9
$PEXTMAX
 10
0.0
 20
0.0
 30
0.0
  9
$PLIMMIN
 10
0.0
 20
0.0
  9
$PLIMMAX
 10
12.0
 20
9.0
  9
$UNITMODE
 70
     0
  9
$VISRETAIN
 70
     1
  9
$PLINEGEN
 70
     0
  9
$PSLTSCALE
 70
     1
  0
ENDSEC
  0
SECTION
  2
TABLES
  0
TABLE
  2
VPORT
 70
     1
  0
VPORT
  2
*ACTIVE
 70
     0
 10
0.0
 20
0.0
 11
1.0
 21
1.0
 12
83.751334732300734
 22
39.857988917782819
 13
0.0
 23
0.0
 14
0.5
 24
0.5
 15
0.5
 25
0.5
 16
0.0
 26
0.0
 36
1.0
 17
0.0
 27
0.0
 37
0.0
 40
96.400951306480906
 41
1.7454798331015291
 42
50.0
 43
0.0
 44
0.0
 50
0.0
 51
0.0
 71
     0
 72
  1000
 73
     1
 74
     2
 75
     0
 76
     0
 77
     0
 78
     0
  0
ENDTAB
  0
TABLE
  2
LTYPE
 70
     3
  0
LTYPE
  2
CONTINUOUS
 70
     0
  3
Solid Line
 72
    65
 73
     0
 40
0.0
  0
LTYPE
  2
CENTER
 70
     0
  3
____ _ ____ _ ____ _ ____ _ ____ _ ____ _ ____
 72
    65
 73
     4
 40
2.0
 49
1.25
 49
-0.25
 49
0.25
 49
-0.25
  0
LTYPE
  2
PHANTOM2
 70
     0
  3
___ _ _ ___ _ _ ___ _ _ ___ _ _
 72
    65
 73
     6
 40
1.25
 49
0.625
 49
-0.125
 49
0.125
 49
-0.125
 49
0.125
 49
-0.125
  0
ENDTAB
  0
TABLE
  2
LAYER
 70
     3
  0
LAYER
  2
0
 70
     0
 62
     7
  6
CONTINUOUS
  0
LAYER
  2
1
 70
     0
 62
     1
  6
CENTER
  0
LAYER
  2
DEFPOINTS
 70
     0
 62
     7
  6
CONTINUOUS
  0
ENDTAB
  0
TABLE
  2
STYLE
 70
     2
  0
STYLE
  2
STANDARD
 70
     0
 40
0.0
 41
1.0
 50
0.0
 71
     0
 42
0.2
  3
simplex.shx
  4
bigfont.shx
  0
STYLE
  2
STANDARD1
 70
     0
 40
0.0
 41
1.0
 50
0.0
 71
     0
 42
3.0
  3
txt
  4

  0
ENDTAB
  0
TABLE
  2
VIEW
 70
     0
  0
ENDTAB
  0
TABLE
  2
UCS
 70
     0
  0
ENDTAB
  0
TABLE
  2
APPID
 70
     5
  0
APPID
  2
ACAD
 70
     0
  0
APPID
  2
ACAD_MLEADERVER
 70
     0
  0
APPID
  2
ACAD_NAV_VCDISPLAY
 70
     0
  0
APPID
  2
ACAD_EXEMPT_FROM_CAD_STANDARDS
 70
     0
  0
APPID
  2
ACAD_DSTYLE_DIMRADIAL_EXTENSION
 70
     0
  0
ENDTAB
  0
TABLE
  2
DIMSTYLE
 70
     1
  0
DIMSTYLE
  2
STANDARD
 70
     0
  3

  4

  5

  6

  7

 40
1.0
 41
0.18
 42
0.0625
 43
0.38
 44
0.18
 45
0.0
 46
0.0
 47
0.0
 48
0.0
140
2.6000000000000001
141
0.09
142
0.0
143
25.399999999999999
144
1.0
145
0.0
146
1.0
147
0.09
 71
     0
 72
     0
 73
     0
 74
     0
 75
     0
 76
     0
 77
     1
 78
     8
170
     0
171
     2
172
     0
173
     0
174
     0
175
     0
176
     0
177
     0
178
     0
  0
ENDTAB
  0
ENDSEC
  0
SECTION
  2
BLOCKS
  0
BLOCK
  8
0
  2
$MODEL_SPACE
 70
     0
 10
0.0
 20
0.0
 30
0.0
  3
$MODEL_SPACE
  1

  0
ENDBLK
  5
21
  8
0
  0
BLOCK
 67
     1
  8
0
  2
$PAPER_SPACE
 70
     0
 10
0.0
 20
0.0
 30
0.0
  3
$PAPER_SPACE
  1

  0
ENDBLK
  5
5B
 67
     1
  8
0
  0
ENDSEC
  0
SECTION
  2
ENTITIES
  0
TEXT
  5
1F01
  8
0
 62
     3
 10
0.0
 20
0.0
 30
0.0
 40
5.0
  1
CP158-16001
  7
STANDARD1
  0
LINE
  5
79C2
  8
0
 10
67.999999821186123
 20
34.249999746680302
 30
0.0
 11
68.8718534330838
 21
34.249999746680302
 31
0.0
  0
LINE
  5
79C3
  8
0
 10
68.871853433083686
 20
65.750000253319783
 30
0.0
 11
67.999999821186009
 21
65.750000253319783
 31
0.0
  0
LINE
  5
79C4
  8
0
 10
68.8718534330838
 20
34.249999746680302
 30
0.0
 11
76.91345628350976
 21
36.555892042815763
 31
0.0
  0
LINE
  5
79C5
  8
0
 10
76.913456283509674
 20
63.444107957184379
 30
0.0
 11
68.871853433083686
 21
65.750000253319783
 31
0.0
  0
LINE
  5
79C6
  8
0
 10
67.126402482390333
 20
65.74949920177464
 30
0.0
 11
59.086543358862343
 21
63.444107957184329
 31
0.0
  0
LINE
  5
79C7
  8
0
 10
59.086543358862443
 20
36.555892042815699
 30
0.0
 11
67.126402482390461
 21
34.250500798225453
 31
0.0
  0
LINE
  5
79C8
  8
0
 10
67.999999821186009
 20
65.74949920177464
 30
0.0
 11
67.126402482390333
 21
65.74949920177464
 31
0.0
  0
LINE
  5
79C9
  8
0
 10
67.126402482390461
 20
34.250500798225453
 30
0.0
 11
67.999999821186123
 21
34.250500798225453
 31
0.0
  0
ARC
  5
79CA
  8
0
 10
59.499999821186009
 20
62.002215067257751
 30
0.0
 40
1.5
 50
105.9999999999998
 51
180.0
  0
ARC
  5
79CB
  8
0
 10
59.499999821186087
 20
37.997784932742277
 30
0.0
 40
1.5
 50
180.0
 51
254.0000000000019
  0
ARC
  5
79CC
  8
0
 10
76.499999821186094
 20
37.997784932742341
 30
0.0
 40
1.5
 50
286.00000000000171
 51
0.0000000000016284
  0
ARC
  5
79CD
  8
0
 10
76.499999821185995
 20
62.002215067257808
 30
0.0
 40
1.5000000000000151
 50
0.0
 51
74.000000000000114
  0
ARC
  5
79CE
  8
0
 10
57.599999821186017
 20
60.90000000000002
 30
0.0
 40
0.4000000000000057
 50
270.0
 51
0.0
  0
ARC
  5
79CF
  8
0
 10
57.599999821186103
 20
39.100000000000009
 30
0.0
 40
0.4000000000000057
 50
0.0
 51
90.0
  0
ARC
  5
79D0
  8
0
 10
78.399999821186071
 20
39.100000000000087
 30
0.0
 40
0.3999999999999772
 50
90.0
 51
180.0
  0
ARC
  5
79D1
  8
0
 10
78.399999821186015
 20
60.90000000000007
 30
0.0
 40
0.4000000000000057
 50
180.0
 51
270.0
  0
LINE
  5
79D2
  8
0
 10
40.61324879527087
 20
60.499999858438933
 30
0.0
 11
36.707106828689533
 21
60.499999858438933
 31
0.0
  0
LINE
  5
79D3
  8
0
 10
36.707106828689618
 20
39.500000141560989
 30
0.0
 11
40.613248795270941
 21
39.500000141560989
 31
0.0
  0
ARC
  5
79D4
  8
0
 10
36.707106602372583
 20
59.999999999999922
 30
0.0
 40
0.500000000000004
 50
90.000000000001606
 51
135.00000000000011
  0
ARC
  5
79D5
  8
0
 10
36.70710660237264
 20
39.999999999999929
 30
0.0
 40
0.5
 50
225.0000000000023
 51
270.00000000000171
  0
ARC
  5
79D6
  8
0
 10
40.613248475237889
 20
59.49999999999995
 30
0.0
 40
1.0
 50
30.000000000000899
 51
90.0
  0
ARC
  5
79D7
  8
0
 10
40.613248475237953
 20
40.499999999999922
 30
0.0
 40
1.000000000000008
 50
270.0
 51
330.00000000000182
  0
ARC
  5
79D8
  8
0
 10
54.077350090375653
 20
59.500000000000007
 30
0.0
 40
1.000000000000008
 50
90.0
 51
150.0000000000004
  0
ARC
  5
79D9
  8
0
 10
54.077350090375717
 20
40.499999999999979
 30
0.0
 40
1.0
 50
210.00000000000091
 51
270.0
  0
LINE
  5
79DA
  8
0
 10
57.599999792873817
 20
60.499999858438983
 30
0.0
 11
54.077350385487037
 21
60.499999858438983
 31
0.0
  0
LINE
  5
79DB
  8
0
 10
54.077350385487108
 20
39.500000141561053
 30
0.0
 11
57.599999792873888
 21
39.500000141561053
 31
0.0
  0
LINE
  5
79DC
  8
0
 10
78.3999998494983
 20
39.500000141561102
 30
0.0
 11
81.92264925688508
 21
39.500000141561131
 31
0.0
  0
LINE
  5
79DD
  8
0
 10
81.922649256884995
 20
60.499999858439068
 30
0.0
 11
78.399999849498215
 21
60.499999858439033
 31
0.0
  0
ARC
  5
79DE
  8
0
 10
81.922649551996415
 20
59.500000000000092
 30
0.0
 40
1.0
 50
30.000000000001901
 51
90.0
  0
ARC
  5
79DF
  8
0
 10
81.922649551996443
 20
40.500000000000099
 30
0.0
 40
1.000000000000008
 50
270.0
 51
330.00000000000182
  0
ARC
  5
79E0
  8
0
 10
95.38675116713415
 20
59.500000000000163
 30
0.0
 40
1.000000000000008
 50
90.0
 51
150.0000000000004
  0
ARC
  5
79E1
  8
0
 10
95.386751167134236
 20
40.500000000000149
 30
0.0
 40
1.000000000000022
 50
210.0000000000019
 51
270.0
  0
LINE
  5
79E2
  8
0
 10
95.38675084710124
 20
39.500000141561159
 30
0.0
 11
99.292892813682585
 21
39.500000141561188
 31
0.0
  0
LINE
  5
79E3
  8
0
 10
99.292892813682499
 20
60.499999858439118
 30
0.0
 11
95.386750847101155
 21
60.499999858439097
 31
0.0
  0
ARC
  5
79E4
  8
0
 10
99.292893039999456
 20
60.000000000000178
 30
0.0
 40
0.5
 50
44.99999999999762
 51
90.0
  0
ARC
  5
79E5
  8
0
 10
99.292893039999541
 20
40.000000000000149
 30
0.0
 40
0.5000000000000241
 50
270.0
 51
315.00000000000352
  0
LINE
  5
79E6
  8
0
 10
36.353554427623713
 20
60.35355310887094
 30
0.0
 11
35.292893499135943
 21
59.292893111705702
 31
0.0
  0
LINE
  5
79E7
  8
0
 10
35.292893499135999
 20
40.707106888294142
 30
0.0
 11
36.353554427623791
 21
39.646446891128981
 31
0.0
  0
LINE
  5
79E8
  8
0
 10
99.646445214748411
 20
39.64644689112918
 30
0.0
 11
100.7071061432362
 21
40.707106888294369
 31
0.0
  0
LINE
  5
79E9
  8
0
 10
100.7071061432361
 20
59.292893111705929
 30
0.0
 11
99.646445214748326
 21
60.353553108871139
 31
0.0
  0
LINE
  5
79EA
  8
0
 10
41.479274481534979
 20
40.000000223517368
 30
0.0
 11
43.211323991417913
 21
42.999999783933113
 31
0.0
  0
LINE
  5
79EB
  8
0
 10
43.211323991417849
 20
57.000000216066802
 30
0.0
 11
41.479274481534908
 21
59.999999776482539
 31
0.0
  0
LINE
  5
79EC
  8
0
 10
53.211324699222999
 20
59.999999776482589
 30
0.0
 11
51.479274258017512
 21
57.000000216066852
 31
0.0
  0
LINE
  5
79ED
  8
0
 10
51.479274258017568
 20
42.999999783933177
 30
0.0
 11
53.21132469922307
 21
40.000000223517432
 31
0.0
  0
LINE
  5
79EE
  8
0
 10
82.788674943149118
 20
40.00000022351751
 30
0.0
 11
84.52072538435462
 21
42.999999783933262
 31
0.0
  0
LINE
  5
79EF
  8
0
 10
84.520725384354563
 20
57.000000216066937
 30
0.0
 11
82.788674943149033
 21
59.999999776482682
 31
0.0
  0
LINE
  5
79F0
  8
0
 10
94.520725160837117
 20
59.99999977648271
 30
0.0
 11
92.788675650954218
 21
57.000000216066972
 31
0.0
  0
LINE
  5
79F1
  8
0
 10
92.788675650954275
 20
42.999999783933291
 30
0.0
 11
94.520725160837202
 21
40.000000223517553
 31
0.0
  0
ARC
  5
79F2
  8
0
 10
35.999999821186087
 20
41.414213562373028
 30
0.0
 40
1.0000000000000071
 50
180.0
 51
225.00000000000111
  0
ARC
  5
79F3
  8
0
 10
35.999999821186037
 20
58.585786437626822
 30
0.0
 40
1.000000000000018
 50
135.00000000000011
 51
180.0
  0
ARC
  5
79F4
  8
0
 10
99.999999821186023
 20
58.585786437627078
 30
0.0
 40
1.000000000000028
 50
0.0
 51
44.999999999998778
  0
ARC
  5
79F5
  8
0
 10
99.999999821186094
 20
41.414213562373263
 30
0.0
 40
1.0000000000000071
 50
315.00000000000119
 51
0.0
  0
ARC
  5
79F6
  8
0
 10
44.077350090375717
 20
42.49999999999995
 30
0.0
 40
1.000000000000008
 50
90.0
 51
150.0000000000004
  0
ARC
  5
79F7
  8
0
 10
44.077350090375653
 20
57.499999999999957
 30
0.0
 40
1.000000000000008
 50
209.9999999999996
 51
270.0
  0
ARC
  5
79F8
  8
0
 10
50.613248475237917
 20
42.499999999999993
 30
0.0
 40
1.000000000000008
 50
29.999999999999581
 51
90.0
  0
ARC
  5
79F9
  8
0
 10
50.613248475237867
 20
57.499999999999993
 30
0.0
 40
1.000000000000008
 50
270.00000000000171
 51
330.00000000000182
  0
ARC
  5
79FA
  8
0
 10
85.386751167134236
 20
42.500000000000092
 30
0.0
 40
1.000000000000008
 50
90.0
 51
150.0000000000004
  0
ARC
  5
79FB
  8
0
 10
85.386751167134179
 20
57.500000000000128
 30
0.0
 40
1.0
 50
210.0000000000019
 51
270.0
  0
ARC
  5
79FC
  8
0
 10
91.922649551996471
 20
42.500000000000128
 30
0.0
 40
1.0
 50
30.000000000000899
 51
90.0
  0
ARC
  5
79FD
  8
0
 10
91.922649551996415
 20
57.500000000000149
 30
0.0
 40
1.000000000000008
 50
270.0
 51
330.00000000000182
  0
LINE
  5
79FE
  8
0
 10
50.613248571753473
 20
56.500000134110437
 30
0.0
 11
44.077349677681887
 21
56.500000134110408
 31
0.0
  0
LINE
  5
79FF
  8
0
 10
44.077349677681937
 20
43.4999998658895
 30
0.0
 11
50.61324857175353
 21
43.499999865889542
 31
0.0
  0
LINE
  5
7A00
  8
0
 10
85.386751070618658
 20
43.499999865889642
 30
0.0
 11
91.922649964690237
 21
43.499999865889677
 31
0.0
  0
LINE
  5
7A01
  8
0
 10
91.922649964690194
 20
56.500000134110579
 30
0.0
 11
85.386751070618615
 21
56.50000013411055
 31
0.0
  0
LINE
  5
7A02
  8
0
 10
68.8718534330838
 20
34.249999746680302
 30
0.0
 11
68.871853433083686
 21
65.750000253319783
 31
0.0
  0
LINE
  5
7A03
  8
0
 10
67.999999821186009
 20
65.750000253319783
 30
0.0
 11
67.999999821186123
 21
34.249999746680302
 31
0.0
  0
LINE
  5
7A04
  8
0
 10
67.126402482390461
 20
34.250500798225453
 30
0.0
 11
67.126402482390333
 21
65.74949920177464
 31
0.0
  0
LINE
  5
7A05
  8
0
 10
58.000000044703519
 20
37.99778521060945
 30
0.0
 11
58.000000044703427
 21
62.002214789390578
 31
0.0
  0
LINE
  5
7A06
  8
0
 10
77.999999597668591
 20
62.002214789390628
 30
0.0
 11
77.999999597668676
 21
37.997785210609507
 31
0.0
  0
LINE
  5
7A07
  8
0
 10
35.000000000000028
 20
41.414213553070951
 30
0.0
 11
34.999999999999972
 21
58.5857864469289
 31
0.0
  0
LINE
  5
7A08
  8
0
 10
100.999999642372
 20
58.585786446929127
 30
0.0
 11
100.9999996423721
 21
41.414213553071178
 31
0.0
  0
LINE
  5
7A0D
  8
0
 10
36.707106828689533
 20
60.499999858438933
 30
0.0
 11
36.707106828689618
 21
39.500000141560989
 31
0.0
  0
LINE
  5
7A0E
  8
0
 10
40.613248795270941
 20
39.500000141560989
 30
0.0
 11
40.61324879527087
 21
60.499999858438933
 31
0.0
  0
LINE
  5
7A12
  8
0
 10
54.077350385487037
 20
60.499999858438983
 30
0.0
 11
54.077350385487108
 21
39.500000141561053
 31
0.0
  0
LINE
  5
7A13
  8
0
 10
81.92264925688508
 20
39.500000141561131
 30
0.0
 11
81.922649256884995
 21
60.499999858439068
 31
0.0
  0
LINE
  5
7A16
  8
0
 10
95.386750847101155
 20
60.499999858439097
 30
0.0
 11
95.38675084710124
 21
39.500000141561159
 31
0.0
  0
LINE
  5
7A17
  8
0
 10
99.292892813682585
 20
39.500000141561188
 30
0.0
 11
99.292892813682499
 21
60.499999858439118
 31
0.0
  0
LINE
  5
7A1F
  8
0
 10
44.077349677681887
 20
56.500000134110408
 30
0.0
 11
44.077349677681937
 21
43.4999998658895
 31
0.0
  0
LINE
  5
7A20
  8
0
 10
50.61324857175353
 20
43.499999865889542
 30
0.0
 11
50.613248571753473
 21
56.500000134110437
 31
0.0
  0
LINE
  5
7A21
  8
0
 10
85.386751070618615
 20
56.50000013411055
 30
0.0
 11
85.386751070618658
 21
43.499999865889642
 31
0.0
  0
LINE
  5
7A22
  8
0
 10
91.922649964690237
 20
43.499999865889677
 30
0.0
 11
91.922649964690194
 21
56.500000134110579
 31
0.0
  0
LINE
  5
7A23
  8
1
 10
30.0
 20
50.0
 30
0.0
 11
105.9999996423721
 21
49.999999999999893
 31
0.0
  0
CIRCLE
  5
7A24
  8
0
 10
146.7499996423721
 20
50.0
 30
0.0
 40
10.5
  0
CIRCLE
  5
7A25
  8
0
 10
146.7499996423721
 20
49.999999999999893
 30
0.0
 40
15.75000000000003
  0
CIRCLE
  5
7A26
  8
0
 10
146.7499996423721
 20
50.0
 30
0.0
 40
8.5857864376268935
  0
CIRCLE
  5
7A2B
  8
0
 10
146.7499996423721
 20
49.999999999999922
 30
0.0
 40
12.00221506725773
  0
LINE
  5
7A38
  8
1
 10
125.9999996423721
 20
49.999999999999893
 30
0.0
 11
167.4999996423721
 21
49.999999999999893
 31
0.0
  0
LINE
  5
7A39
  8
1
 10
146.7499996423721
 20
70.749999999999901
 30
0.0
 11
146.7499996423721
 21
29.249999999999861
 31
0.0
  0
ENDSEC
  0
EOF
