  0
SECTION
  2
HEADER
  9
$ACADVER
  1
AC1009
  9
$INSBASE
 10
0.0
 20
0.0
 30
0.0
  9
$EXTMIN
 10
0.0
 20
-1.4802182810368341
 30
0.0
  9
$EXTMAX
 10
146.5
 20
63.0
 30
0.0
  9
$LIMMIN
 10
0.0
 20
0.0
  9
$LIMMAX
 10
12.0
 20
9.0
  9
$ORTHOMODE
 70
     1
  9
$REGENMODE
 70
     1
  9
$FILLMODE
 70
     1
  9
$QTEXTMODE
 70
     0
  9
$MIRRTEXT
 70
     0
  9
$DRAGMODE
 70
     2
  9
$LTSCALE
 40
5.0
  9
$OSMODE
 70
    37
  9
$ATTMODE
 70
     1
  9
$TEXTSIZE
 40
0.2
  9
$TRACEWID
 40
0.05
  9
$TEXTSTYLE
  7
STANDARD
  9
$CLAYER
  8
0
  9
$CELTYPE
  6
BYLAYER
  9
$CECOLOR
 62
   256
  9
$DIMSCALE
 40
1.0
  9
$DIMASZ
 40
3.0
  9
$DIMEXO
 40
2.0
  9
$DIMDLI
 40
0.38
  9
$DIMRND
 40
0.0
  9
$DIMDLE
 40
0.0
  9
$DIMEXE
 40
2.0
  9
$DIMTP
 40
0.0
  9
$DIMTM
 40
0.0
  9
$DIMTXT
 40
3.0
  9
$DIMCEN
 40
0.09
  9
$DIMTSZ
 40
0.0
  9
$DIMTOL
 70
     0
  9
$DIMLIM
 70
     0
  9
$DIMTIH
 70
     0
  9
$DIMTOH
 70
     0
  9
$DIMSE1
 70
     0
  9
$DIMSE2
 70
     0
  9
$DIMTAD
 70
     1
  9
$DIMZIN
 70
     8
  9
$DIMBLK
  1

  9
$DIMASO
 70
     1
  9
$DIMSHO
 70
     1
  9
$DIMPOST
  1

  9
$DIMAPOST
  1

  9
$DIMALT
 70
     0
  9
$DIMALTD
 70
     2
  9
$DIMALTF
 40
25.399999999999999
  9
$DIMLFAC
 40
1.0
  9
$DIMTOFL
 70
     1
  9
$DIMTVP
 40
0.0
  9
$DIMTIX
 70
     0
  9
$DIMSOXD
 70
     0
  9
$DIMSAH
 70
     0
  9
$DIMBLK1
  1

  9
$DIMBLK2
  1

  9
$DIMSTYLE
  2
STANDARD
  9
$DIMCLRD
 70
   256
  9
$DIMCLRE
 70
   256
  9
$DIMCLRT
 70
   256
  9
$DIMTFAC
 40
1.0
  9
$DIMGAP
 40
1.0
  9
$LUNITS
 70
     2
  9
$LUPREC
 70
     1
  9
$SKETCHINC
 40
0.1
  9
$FILLETRAD
 40
0.0
  9
$AUNITS
 70
     0
  9
$AUPREC
 70
     0
  9
$MENU
  1
.
  9
$ELEVATION
 40
0.0
  9
$PELEVATION
 40
0.0
  9
$THICKNESS
 40
0.0
  9
$LIMCHECK
 70
     0
  9
$BLIPMODE
 70
     0
  9
$CHAMFERA
 40
0.0
  9
$CHAMFERB
 40
0.0
  9
$SKPOLY
 70
     0
  9
$TDCREATE
 40
2453083.4120647679
  9
$TDUPDATE
 40
2458527.6700848378
  9
$TDINDWG
 40
0.8013521875
  9
$TDUSRTIMER
 40
0.8013520718
  9
$USRTIMER
 70
     1
  9
$ANGBASE
 50
0.0
  9
$ANGDIR
 70
     0
  9
$PDMODE
 70
     0
  9
$PDSIZE
 40
0.0
  9
$PLINEWID
 40
0.0
  9
$COORDS
 70
     1
  9
$SPLFRAME
 70
     0
  9
$SPLINETYPE
 70
     6
  9
$SPLINESEGS
 70
     8
  9
$ATTDIA
 70
     0
  9
$ATTREQ
 70
     1
  9
$HANDLING
 70
     1
  9
$HANDSEED
  5
A260
  9
$SURFTAB1
 70
     6
  9
$SURFTAB2
 70
     6
  9
$SURFTYPE
 70
     6
  9
$SURFU
 70
     6
  9
$SURFV
 70
     6
  9
$UCSNAME
  2

  9
$UCSORG
 10
0.0
 20
0.0
 30
0.0
  9
$UCSXDIR
 10
1.0
 20
0.0
 30
0.0
  9
$UCSYDIR
 10
0.0
 20
1.0
 30
0.0
  9
$PUCSNAME
  2

  9
$PUCSORG
 10
0.0
 20
0.0
 30
0.0
  9
$PUCSXDIR
 10
1.0
 20
0.0
 30
0.0
  9
$PUCSYDIR
 10
0.0
 20
1.0
 30
0.0
  9
$USERI1
 70
     0
  9
$USERI2
 70
     1
  9
$USERI3
 70
     0
  9
$USERI4
 70
     0
  9
$USERI5
 70
     0
  9
$USERR1
 40
0.0
  9
$USERR2
 40
0.0
  9
$USERR3
 40
0.0
  9
$USERR4
 40
0.0
  9
$USERR5
 40
0.0
  9
$WORLDVIEW
 70
     1
  9
$SHADEDGE
 70
     3
  9
$SHADEDIF
 70
    70
  9
$TILEMODE
 70
     1
  9
$MAXACTVP
 70
    64
  9
$PLIMCHECK
 70
     0
  9
$PEXTMIN
 10
0.0
 20
0.0
 30
0.0
  9
$PEXTMAX
 10
0.0
 20
0.0
 30
0.0
  9
$PLIMMIN
 10
0.0
 20
0.0
  9
$PLIMMAX
 10
12.0
 20
9.0
  9
$UNITMODE
 70
     0
  9
$VISRETAIN
 70
     1
  9
$PLINEGEN
 70
     0
  9
$PSLTSCALE
 70
     1
  0
ENDSEC
  0
SECTION
  2
TABLES
  0
TABLE
  2
VPORT
 70
     1
  0
VPORT
  2
*ACTIVE
 70
     0
 10
0.0
 20
0.0
 11
1.0
 21
1.0
 12
181.17331288343561
 22
75.0
 13
0.0
 23
0.0
 14
0.5
 24
0.5
 15
0.5
 25
0.5
 16
0.0
 26
0.0
 36
1.0
 17
0.0
 27
0.0
 37
0.0
 40
150.0
 41
2.415644171779141
 42
50.0
 43
0.0
 44
0.0
 50
0.0
 51
0.0
 71
     0
 72
  1000
 73
     1
 74
     2
 75
     0
 76
     0
 77
     0
 78
     0
  0
ENDTAB
  0
TABLE
  2
LTYPE
 70
     3
  0
LTYPE
  2
CONTINUOUS
 70
     0
  3
Solid Line
 72
    65
 73
     0
 40
0.0
  0
LTYPE
  2
CENTER
 70
     0
  3
____ _ ____ _ ____ _ ____ _ ____ _ ____ _ ____
 72
    65
 73
     4
 40
2.0
 49
1.25
 49
-0.25
 49
0.25
 49
-0.25
  0
LTYPE
  2
PHANTOM2
 70
     0
  3
___ _ _ ___ _ _ ___ _ _ ___ _ _
 72
    65
 73
     6
 40
1.25
 49
0.625
 49
-0.125
 49
0.125
 49
-0.125
 49
0.125
 49
-0.125
  0
ENDTAB
  0
TABLE
  2
LAYER
 70
     4
  0
LAYER
  2
0
 70
     0
 62
     7
  6
CONTINUOUS
  0
LAYER
  2
1
 70
     0
 62
     1
  6
CENTER
  0
LAYER
  2
DEFPOINTS
 70
     0
 62
     7
  6
CONTINUOUS
  0
LAYER
  2
3
 70
     0
 62
     3
  6
CONTINUOUS
  0
ENDTAB
  0
TABLE
  2
STYLE
 70
     2
  0
STYLE
  2
STANDARD
 70
     0
 40
0.0
 41
1.0
 50
0.0
 71
     0
 42
0.2
  3
simplex.shx
  4
bigfont.shx
  0
STYLE
  2
STANDARD1
 70
     0
 40
0.0
 41
1.0
 50
0.0
 71
     0
 42
3.0
  3
txt
  4

  0
ENDTAB
  0
TABLE
  2
VIEW
 70
     0
  0
ENDTAB
  0
TABLE
  2
UCS
 70
     0
  0
ENDTAB
  0
TABLE
  2
APPID
 70
    10
  0
APPID
  2
ACAD
 70
     0
  0
APPID
  2
ACAD_MLEADERVER
 70
     0
  0
APPID
  2
ACAD_NAV_VCDISPLAY
 70
     0
  0
APPID
  2
ACAD_EXEMPT_FROM_CAD_STANDARDS
 70
     0
  0
APPID
  2
ACAD_DSTYLE_DIMRADIAL_EXTENSION
 70
     0
  0
APPID
  2
ACAD_DSTYLE_DIMJAG
 70
     0
  0
APPID
  2
ACAD_DSTYLE_DIMTALN
 70
     0
  0
APPID
  2
ACAD_DSTYLE_DIM_LINETYPE
 70
     0
  0
APPID
  2
ACAD_DSTYLE_DIM_EXT1_LINETYPE
 70
     0
  0
APPID
  2
ACAD_DSTYLE_DIM_EXT2_LINETYPE
 70
     0
  0
ENDTAB
  0
TABLE
  2
DIMSTYLE
 70
     1
  0
DIMSTYLE
  2
STANDARD
 70
     0
  3

  4

  5

  6

  7

 40
1.0
 41
3.0
 42
2.0
 43
0.38
 44
2.0
 45
0.0
 46
0.0
 47
0.0
 48
0.0
140
3.0
141
0.09
142
0.0
143
25.399999999999999
144
1.0
145
0.0
146
1.0
147
1.0
 71
     0
 72
     0
 73
     0
 74
     0
 75
     0
 76
     0
 77
     1
 78
     8
170
     0
171
     2
172
     1
173
     0
174
     0
175
     0
176
   256
177
   256
178
   256
  0
ENDTAB
  0
ENDSEC
  0
SECTION
  2
BLOCKS
  0
BLOCK
  8
0
  2
$MODEL_SPACE
 70
     0
 10
0.0
 20
0.0
 30
0.0
  3
$MODEL_SPACE
  1

  0
ENDBLK
  5
21
  8
0
  0
BLOCK
 67
     1
  8
0
  2
$PAPER_SPACE
 70
     0
 10
0.0
 20
0.0
 30
0.0
  3
$PAPER_SPACE
  1

  0
ENDBLK
  5
5B
 67
     1
  8
0
  0
ENDSEC
  0
SECTION
  2
ENTITIES
  0
TEXT
  5
1F01
  8
0
 62
     3
 10
0.0
 20
0.0
 30
0.0
 40
5.0
  1
CP185-10001
  7
STANDARD1
  0
CIRCLE
  5
9C2B
  8
0
 10
133.5
 20
50.0
 30
0.0
 40
9.5
  0
LINE
  5
9C2F
  8
0
 10
136.500000026077
 20
51.73205079045146
 30
0.0
 11
136.500000026077
 21
48.267949209548533
 31
0.0
  0
LINE
  5
9C32
  8
0
 10
130.49999997392291
 20
48.267949209548533
 30
0.0
 11
130.49999997392291
 21
51.73205079045146
 31
0.0
  0
CIRCLE
  5
9C34
  8
0
 10
133.5
 20
50.0
 30
0.0
 40
10.0
  0
LINE
  5
9C40
  8
0
 10
70.800000000000011
 20
59.999999999999993
 30
0.0
 11
70.5
 21
59.699999999999982
 31
0.0
  0
LINE
  5
9C41
  8
0
 10
70.5
 20
40.299999999999997
 30
0.0
 11
70.800000000000011
 21
40.0
 31
0.0
  0
LINE
  5
9C42
  8
0
 10
75.0
 20
40.0
 30
0.0
 11
75.866025403784477
 21
40.499999999999993
 31
0.0
  0
LINE
  5
9C43
  8
0
 10
75.866025403784477
 20
59.499999999999993
 30
0.0
 11
75.0
 21
59.999999999999993
 31
0.0
  0
LINE
  5
9C44
  8
0
 10
70.800000000000011
 20
40.0
 30
0.0
 11
75.0
 21
40.0
 31
0.0
  0
LINE
  5
9C45
  8
0
 10
75.0
 20
59.999999999999993
 30
0.0
 11
70.800000000000011
 21
59.999999999999993
 31
0.0
  0
LINE
  5
9C46
  8
0
 10
90.707106781186553
 20
40.499999999999993
 30
0.0
 11
97.0
 21
40.499999999999993
 31
0.0
  0
LINE
  5
9C47
  8
0
 10
97.0
 20
59.499999999999993
 30
0.0
 11
90.707106781186553
 21
59.499999999999993
 31
0.0
  0
ARC
  5
9C48
  8
0
 10
78.292893218813447
 20
58.999999999999979
 30
0.0
 40
0.5000000000000142
 50
45.000000000000057
 51
90.0
  0
ARC
  5
9C49
  8
0
 10
78.292893218813447
 20
41.0
 30
0.0
 40
0.5
 50
270.0
 51
315.00000000000051
  0
ARC
  5
9C4A
  8
0
 10
97.0
 20
42.0
 30
0.0
 40
1.5
 50
270.0
 51
0.0
  0
ARC
  5
9C4B
  8
0
 10
97.0
 20
57.999999999999979
 30
0.0
 40
1.5
 50
0.0
 51
90.0
  0
ARC
  5
9C4C
  8
0
 10
90.707106781186553
 20
58.999999999999979
 30
0.0
 40
0.500000000000004
 50
90.0
 51
135.0000000000004
  0
ARC
  5
9C4D
  8
0
 10
90.707106781186553
 20
41.0
 30
0.0
 40
0.5
 50
224.9999999999996
 51
270.0
  0
LINE
  5
9C4E
  8
0
 10
75.866025403784477
 20
40.499999999999993
 30
0.0
 11
78.292893218813447
 21
40.499999999999993
 31
0.0
  0
LINE
  5
9C4F
  8
0
 10
78.292893218813447
 20
59.499999999999993
 30
0.0
 11
75.866025403784477
 21
59.499999999999993
 31
0.0
  0
LINE
  5
9C50
  8
0
 10
90.353553390593277
 20
59.35355339059327
 30
0.0
 11
86.939339828220227
 21
55.939339828220191
 31
0.0
  0
LINE
  5
9C51
  8
0
 10
86.939339828220227
 20
44.060660171779809
 30
0.0
 11
90.353553390593277
 21
40.646446609406723
 31
0.0
  0
LINE
  5
9C52
  8
0
 10
78.64644660940678
 20
40.646446609406723
 30
0.0
 11
82.06066017177983
 21
44.060660171779809
 31
0.0
  0
LINE
  5
9C53
  8
0
 10
82.06066017177983
 20
55.93933982822017
 30
0.0
 11
78.64644660940678
 21
59.35355339059327
 31
0.0
  0
LINE
  5
9C54
  8
0
 10
66.0
 20
57.999999999999979
 30
0.0
 11
65.0
 21
57.422649730810363
 31
0.0
  0
LINE
  5
9C55
  8
0
 10
65.0
 20
42.577350269189623
 30
0.0
 11
66.0
 21
42.0
 31
0.0
  0
LINE
  5
9C56
  8
0
 10
66.0
 20
42.0
 30
0.0
 11
70.5
 21
42.0
 31
0.0
  0
LINE
  5
9C57
  8
0
 10
70.5
 20
57.999999999999979
 30
0.0
 11
66.0
 21
57.999999999999979
 31
0.0
  0
ARC
  5
9C58
  8
0
 10
85.878679656440397
 20
43.0
 30
0.0
 40
1.5
 50
44.999999999999602
 51
90.0
  0
ARC
  5
9C59
  8
0
 10
85.878679656440397
 20
56.999999999999993
 30
0.0
 40
1.4999999999999849
 50
270.0
 51
315.0000000000004
  0
ARC
  5
9C5A
  8
0
 10
83.121320343559674
 20
43.0
 30
0.0
 40
1.5000000000000071
 50
90.0
 51
135.0000000000004
  0
ARC
  5
9C5B
  8
0
 10
83.121320343559674
 20
56.999999999999993
 30
0.0
 40
1.5000000000000011
 50
224.9999999999996
 51
270.0
  0
LINE
  5
9C5C
  8
0
 10
83.121320343559674
 20
44.5
 30
0.0
 11
85.878679656440397
 21
44.5
 31
0.0
  0
LINE
  5
9C5D
  8
0
 10
85.878679656440397
 20
55.5
 30
0.0
 11
83.121320343559674
 21
55.5
 31
0.0
  0
LINE
  5
9C5E
  8
0
 10
51.0
 20
55.0
 30
0.0
 11
50.0
 21
53.999999999999979
 31
0.0
  0
LINE
  5
9C5F
  8
0
 10
50.0
 20
46.0
 30
0.0
 11
51.0
 21
45.0
 31
0.0
  0
LINE
  5
9C60
  8
0
 10
60.0
 20
45.0
 30
0.0
 11
61.834263461109522
 21
45.934603914513012
 31
0.0
  0
LINE
  5
9C61
  8
0
 10
61.834263461109522
 20
54.065396085486967
 30
0.0
 11
60.0
 21
55.0
 31
0.0
  0
LINE
  5
9C62
  8
0
 10
51.0
 20
45.0
 30
0.0
 11
60.0
 21
45.0
 31
0.0
  0
LINE
  5
9C63
  8
0
 10
60.0
 20
55.0
 30
0.0
 11
51.0
 21
55.0
 31
0.0
  0
ARC
  5
9C64
  8
0
 10
64.400000000000034
 20
54.59999999999998
 30
0.0
 40
0.5999999999999944
 50
270.0
 51
0.0
  0
ARC
  5
9C65
  8
0
 10
64.400000000000034
 20
45.399999999999991
 30
0.0
 40
0.6000000000000086
 50
0.0
 51
90.0
  0
ARC
  5
9C66
  8
0
 10
62.106657760953219
 20
54.59999999999998
 30
0.0
 40
0.5999999999999922
 50
243.00000000000179
 51
270.0
  0
ARC
  5
9C67
  8
0
 10
62.106657760953219
 20
45.399999999999991
 30
0.0
 40
0.6000000000000086
 50
90.0
 51
116.9999999999981
  0
LINE
  5
9C68
  8
0
 10
64.400000000000034
 20
54.0
 30
0.0
 11
62.106657760953219
 21
54.0
 31
0.0
  0
LINE
  5
9C69
  8
0
 10
62.106657760953219
 20
46.0
 30
0.0
 11
64.400000000000034
 21
46.0
 31
0.0
  0
LINE
  5
9C6A
  8
0
 10
70.5
 20
40.299999999999997
 30
0.0
 11
70.5
 21
59.699999999999982
 31
0.0
  0
LINE
  5
9C6D
  8
0
 10
75.866025403784477
 20
40.499999999999993
 30
0.0
 11
75.866025403784477
 21
59.499999999999943
 31
0.0
  0
LINE
  5
9C6F
  8
0
 10
75.0
 20
40.0
 30
0.0
 11
75.0
 21
59.999999999999972
 31
0.0
  0
LINE
  5
9C70
  8
0
 10
98.500000000000014
 20
57.999999999999979
 30
0.0
 11
98.500000000000014
 21
42.0
 31
0.0
  0
LINE
  5
9C72
  8
0
 10
65.0
 20
42.577350269189623
 30
0.0
 11
65.0
 21
57.422649730810377
 31
0.0
  0
LINE
  5
9C73
  8
0
 10
66.0
 20
57.999999999999979
 30
0.0
 11
66.0
 21
42.0
 31
0.0
  0
LINE
  5
9C74
  8
0
 10
50.0
 20
46.0
 30
0.0
 11
50.0
 21
53.999999999999979
 31
0.0
  0
LINE
  5
9C75
  8
0
 10
51.0
 20
55.0
 30
0.0
 11
51.0
 21
45.0
 31
0.0
  0
LINE
  5
9C76
  8
0
 10
60.0
 20
55.0
 30
0.0
 11
60.0
 21
45.0
 31
0.0
  0
LINE
  5
9C7B
  8
0
 10
78.646446609406837
 20
59.353553390593241
 30
0.0
 11
78.64644660940678
 21
40.646446609406723
 31
0.0
  0
LINE
  5
9C7D
  8
0
 10
90.353553390593277
 20
40.646446609406723
 30
0.0
 11
90.353553390593277
 21
59.35355339059327
 31
0.0
  0
LINE
  5
9C7E
  8
0
 10
86.939339828220227
 20
55.93933982822017
 30
0.0
 11
86.939339828220227
 21
44.06066017177983
 31
0.0
  0
LINE
  5
9C7F
  8
0
 10
82.06066017177983
 20
44.060660171779851
 30
0.0
 11
82.06066017177983
 21
55.93933982822017
 31
0.0
  0
LINE
  5
9C87
  8
0
 10
64.400000000000034
 20
46.0
 30
0.0
 11
64.400000000000034
 21
54.0
 31
0.0
  0
LINE
  5
9C88
  8
0
 10
62.106657760953219
 20
54.0
 30
0.0
 11
62.106657760953219
 21
46.0
 31
0.0
  0
LINE
  5
9CB1
  8
3
 10
61.471958264708519
 20
54.250000230967991
 30
0.0
 11
50.249999940395362
 21
54.250000230967991
 31
0.0
  0
LINE
  5
9CB2
  8
3
 10
50.249999940395362
 20
45.749999769032001
 30
0.0
 11
61.471958264708519
 21
45.749999769032001
 31
0.0
  0
LINE
  5
A137
  8
0
 10
133.5
 20
46.535898419097059
 30
0.0
 11
130.49999997392291
 21
48.267949209548533
 31
0.0
  0
LINE
  5
A138
  8
0
 10
133.5
 20
53.464101580902927
 30
0.0
 11
136.500000026077
 21
51.73205079045146
 31
0.0
  0
LINE
  5
A139
  8
0
 10
133.5
 20
53.464101580902927
 30
0.0
 11
130.49999997392291
 21
51.73205079045146
 31
0.0
  0
LINE
  5
A13A
  8
0
 10
133.5
 20
46.535898419097059
 30
0.0
 11
136.500000026077
 21
48.267949209548533
 31
0.0
  0
LINE
  5
A13B
  8
1
 10
133.5
 20
63.0
 30
0.0
 11
133.5
 21
37.0
 31
0.0
  0
LINE
  5
A13C
  8
1
 10
120.5
 20
50.0
 30
0.0
 11
146.5
 21
50.0
 31
0.0
  0
LINE
  5
A140
  8
1
 10
101.5
 20
50.0
 30
0.0
 11
47.0
 21
50.0
 31
0.0
  0
ENDSEC
  0
EOF
