  0
SECTION
  2
HEADER
  9
$ACADVER
  1
AC1009
  9
$INSBASE
 10
0.0
 20
0.0
 30
0.0
  9
$EXTMIN
 10
0.0
 20
-1.4802182810368341
 30
0.0
  9
$EXTMAX
 10
54.686902854685741
 20
40.02202274144809
 30
0.0
  9
$LIMMIN
 10
0.0
 20
0.0
  9
$LIMMAX
 10
12.0
 20
9.0
  9
$ORTHOMODE
 70
     0
  9
$REGENMODE
 70
     1
  9
$FILLMODE
 70
     1
  9
$QTEXTMODE
 70
     0
  9
$MIRRTEXT
 70
     0
  9
$DRAGMODE
 70
     2
  9
$LTSCALE
 40
5.0
  9
$OSMODE
 70
  3071
  9
$ATTMODE
 70
     1
  9
$TEXTSIZE
 40
0.2
  9
$TRACEWID
 40
0.05
  9
$TEXTSTYLE
  7
STANDARD
  9
$CLAYER
  8
0
  9
$CELTYPE
  6
BYLAYER
  9
$CECOLOR
 62
   256
  9
$DIMSCALE
 40
1.0
  9
$DIMASZ
 40
0.18
  9
$DIMEXO
 40
0.0625
  9
$DIMDLI
 40
0.38
  9
$DIMRND
 40
0.0
  9
$DIMDLE
 40
0.0
  9
$DIMEXE
 40
0.18
  9
$DIMTP
 40
0.0
  9
$DIMTM
 40
0.0
  9
$DIMTXT
 40
0.18
  9
$DIMCEN
 40
0.09
  9
$DIMTSZ
 40
0.0
  9
$DIMTOL
 70
     0
  9
$DIMLIM
 70
     0
  9
$DIMTIH
 70
     1
  9
$DIMTOH
 70
     1
  9
$DIMSE1
 70
     0
  9
$DIMSE2
 70
     0
  9
$DIMTAD
 70
     0
  9
$DIMZIN
 70
     0
  9
$DIMBLK
  1

  9
$DIMASO
 70
     1
  9
$DIMSHO
 70
     1
  9
$DIMPOST
  1

  9
$DIMAPOST
  1

  9
$DIMALT
 70
     0
  9
$DIMALTD
 70
     2
  9
$DIMALTF
 40
25.399999999999999
  9
$DIMLFAC
 40
1.0
  9
$DIMTOFL
 70
     0
  9
$DIMTVP
 40
0.0
  9
$DIMTIX
 70
     0
  9
$DIMSOXD
 70
     0
  9
$DIMSAH
 70
     0
  9
$DIMBLK1
  1

  9
$DIMBLK2
  1

  9
$DIMSTYLE
  2
STANDARD
  9
$DIMCLRD
 70
     0
  9
$DIMCLRE
 70
     0
  9
$DIMCLRT
 70
     0
  9
$DIMTFAC
 40
1.0
  9
$DIMGAP
 40
0.09
  9
$LUNITS
 70
     2
  9
$LUPREC
 70
     4
  9
$SKETCHINC
 40
0.1
  9
$FILLETRAD
 40
2.5
  9
$AUNITS
 70
     0
  9
$AUPREC
 70
     0
  9
$MENU
  1
.
  9
$ELEVATION
 40
0.0
  9
$PELEVATION
 40
0.0
  9
$THICKNESS
 40
0.0
  9
$LIMCHECK
 70
     0
  9
$BLIPMODE
 70
     0
  9
$CHAMFERA
 40
0.25
  9
$CHAMFERB
 40
0.25
  9
$SKPOLY
 70
     0
  9
$TDCREATE
 40
2453083.4120647679
  9
$TDUPDATE
 40
2456598.5005742018
  9
$TDINDWG
 40
0.4076761806
  9
$TDUSRTIMER
 40
0.4076760648
  9
$USRTIMER
 70
     1
  9
$ANGBASE
 50
0.0
  9
$ANGDIR
 70
     0
  9
$PDMODE
 70
     0
  9
$PDSIZE
 40
0.0
  9
$PLINEWID
 40
0.0
  9
$COORDS
 70
     1
  9
$SPLFRAME
 70
     0
  9
$SPLINETYPE
 70
     6
  9
$SPLINESEGS
 70
     8
  9
$ATTDIA
 70
     0
  9
$ATTREQ
 70
     1
  9
$HANDLING
 70
     1
  9
$HANDSEED
  5
2803
  9
$SURFTAB1
 70
     6
  9
$SURFTAB2
 70
     6
  9
$SURFTYPE
 70
     6
  9
$SURFU
 70
     6
  9
$SURFV
 70
     6
  9
$UCSNAME
  2

  9
$UCSORG
 10
0.0
 20
0.0
 30
0.0
  9
$UCSXDIR
 10
1.0
 20
0.0
 30
0.0
  9
$UCSYDIR
 10
0.0
 20
1.0
 30
0.0
  9
$PUCSNAME
  2

  9
$PUCSORG
 10
0.0
 20
0.0
 30
0.0
  9
$PUCSXDIR
 10
1.0
 20
0.0
 30
0.0
  9
$PUCSYDIR
 10
0.0
 20
1.0
 30
0.0
  9
$USERI1
 70
     0
  9
$USERI2
 70
     1
  9
$USERI3
 70
     0
  9
$USERI4
 70
     0
  9
$USERI5
 70
     0
  9
$USERR1
 40
0.0
  9
$USERR2
 40
0.0
  9
$USERR3
 40
0.0
  9
$USERR4
 40
0.0
  9
$USERR5
 40
0.0
  9
$WORLDVIEW
 70
     1
  9
$SHADEDGE
 70
     3
  9
$SHADEDIF
 70
    70
  9
$TILEMODE
 70
     1
  9
$MAXACTVP
 70
    64
  9
$PLIMCHECK
 70
     0
  9
$PEXTMIN
 10
0.0
 20
0.0
 30
0.0
  9
$PEXTMAX
 10
0.0
 20
0.0
 30
0.0
  9
$PLIMMIN
 10
0.0
 20
0.0
  9
$PLIMMAX
 10
12.0
 20
9.0
  9
$UNITMODE
 70
     0
  9
$VISRETAIN
 70
     1
  9
$PLINEGEN
 70
     0
  9
$PSLTSCALE
 70
     1
  0
ENDSEC
  0
SECTION
  2
TABLES
  0
TABLE
  2
VPORT
 70
     1
  0
VPORT
  2
*ACTIVE
 70
     0
 10
0.0
 20
0.0
 11
1.0
 21
1.0
 12
28.493520895453681
 22
19.27055274457015
 13
0.0
 23
0.0
 14
0.5
 24
0.5
 15
0.5
 25
0.5
 16
0.0
 26
0.0
 36
1.0
 17
0.0
 27
0.0
 37
0.0
 40
41.877628517358261
 41
1.831871345029239
 42
50.0
 43
0.0
 44
0.0
 50
0.0
 51
0.0
 71
     0
 72
  1000
 73
     1
 74
     2
 75
     0
 76
     0
 77
     0
 78
     0
  0
ENDTAB
  0
TABLE
  2
LTYPE
 70
     3
  0
LTYPE
  2
CONTINUOUS
 70
     0
  3
Solid Line
 72
    65
 73
     0
 40
0.0
  0
LTYPE
  2
CENTER
 70
     0
  3
____ _ ____ _ ____ _ ____ _ ____ _ ____ _ ____
 72
    65
 73
     4
 40
2.0
 49
1.25
 49
-0.25
 49
0.25
 49
-0.25
  0
LTYPE
  2
PHANTOM2
 70
     0
  3
___ _ _ ___ _ _ ___ _ _ ___ _ _
 72
    65
 73
     6
 40
1.25
 49
0.625
 49
-0.125
 49
0.125
 49
-0.125
 49
0.125
 49
-0.125
  0
ENDTAB
  0
TABLE
  2
LAYER
 70
     3
  0
LAYER
  2
0
 70
     0
 62
     7
  6
CONTINUOUS
  0
LAYER
  2
1
 70
     0
 62
     1
  6
CENTER
  0
LAYER
  2
3
 70
     0
 62
     3
  6
CONTINUOUS
  0
ENDTAB
  0
TABLE
  2
STYLE
 70
     2
  0
STYLE
  2
STANDARD
 70
     0
 40
0.0
 41
1.0
 50
0.0
 71
     0
 42
0.2
  3
simplex.shx
  4
bigfont.shx
  0
STYLE
  2
STANDARD1
 70
     0
 40
0.0
 41
1.0
 50
0.0
 71
     0
 42
3.0
  3
txt
  4

  0
ENDTAB
  0
TABLE
  2
VIEW
 70
     0
  0
ENDTAB
  0
TABLE
  2
UCS
 70
     0
  0
ENDTAB
  0
TABLE
  2
APPID
 70
     4
  0
APPID
  2
ACAD
 70
     0
  0
APPID
  2
DCO15
 70
     0
  0
APPID
  2
ACAD_MLEADERVER
 70
     0
  0
APPID
  2
ACAD_NAV_VCDISPLAY
 70
     0
  0
ENDTAB
  0
TABLE
  2
DIMSTYLE
 70
     1
  0
DIMSTYLE
  2
STANDARD
 70
     0
  3

  4

  5

  6

  7

 40
1.0
 41
0.18
 42
0.0625
 43
0.38
 44
0.18
 45
0.0
 46
0.0
 47
0.0
 48
0.0
140
0.18
141
0.09
142
0.0
143
25.399999999999999
144
1.0
145
0.0
146
1.0
147
0.09
 71
     0
 72
     0
 73
     1
 74
     1
 75
     0
 76
     0
 77
     0
 78
     0
170
     0
171
     2
172
     0
173
     0
174
     0
175
     0
176
     0
177
     0
178
     0
  0
ENDTAB
  0
ENDSEC
  0
SECTION
  2
BLOCKS
  0
BLOCK
  8
0
  2
$MODEL_SPACE
 70
     0
 10
0.0
 20
0.0
 30
0.0
  3
$MODEL_SPACE
  1

  0
ENDBLK
  5
21
  8
0
  0
BLOCK
 67
     1
  8
0
  2
$PAPER_SPACE
 70
     0
 10
0.0
 20
0.0
 30
0.0
  3
$PAPER_SPACE
  1

  0
ENDBLK
  5
5B
 67
     1
  8
0
  0
BLOCK
  8
0
  2
STDGX5
 70
     0
 10
0.0
 20
0.0
 30
0.0
  3
STDGX5
  1

  0
ENDBLK
  5
16DA
  8
0
  0
ENDSEC
  0
SECTION
  2
ENTITIES
  0
INSERT
  5
1747
  8
0
  2
STDGX5
 10
142.93956481232809
 20
0.1619180124085346
 30
0.0
  0
LINE
  5
24F1
  8
1
 10
54.686902854685741
 20
31.172022741448071
 30
0.0
 11
46.511902854685722
 21
31.17202274144811
 31
0.0
  0
LINE
  5
24F2
  8
1
 10
27.661902854685682
 20
40.02202274144809
 30
0.0
 11
27.661902854685682
 21
22.322022741448109
 31
0.0
  0
LINE
  5
24F3
  8
1
 10
36.51190285468568
 20
31.17202274144811
 30
0.0
 11
18.81190285468568
 21
31.17202274144811
 31
0.0
  0
LINE
  5
24F4
  8
0
 10
49.011902854685722
 20
33.521522835243651
 30
0.0
 11
49.837402854685877
 21
34.347022763517771
 31
0.0
  0
LINE
  5
24F5
  8
0
 10
49.011902854685722
 20
33.521522835243651
 30
0.0
 11
49.011902854685722
 21
33.394522835243642
 31
0.0
  0
LINE
  5
24F6
  8
0
 10
49.837402854685841
 20
32.569022763517523
 30
0.0
 11
49.011902854685722
 21
33.394522835243642
 31
0.0
  0
LINE
  5
24F7
  8
0
 10
49.011902854685722
 20
26.663522835243612
 30
0.0
 11
49.837402854685877
 21
27.489022763517799
 31
0.0
  0
LINE
  5
24F8
  8
0
 10
49.011902854685722
 20
26.663522835243612
 30
0.0
 11
49.011902854685722
 21
26.536522835243659
 31
0.0
  0
LINE
  5
24F9
  8
0
 10
49.837402854685841
 20
25.711022763517519
 30
0.0
 11
49.011902854685722
 21
26.536522835243659
 31
0.0
  0
LINE
  5
24FA
  8
0
 10
49.011902854685722
 20
35.807522835243617
 30
0.0
 11
49.837402854685877
 21
36.633022763517772
 31
0.0
  0
LINE
  5
24FB
  8
0
 10
49.011902854685722
 20
35.807522835243617
 30
0.0
 11
49.011902854685722
 21
35.680522835243643
 31
0.0
  0
LINE
  5
24FC
  8
0
 10
49.837402854685841
 20
34.855022763517518
 30
0.0
 11
49.011902854685722
 21
35.680522835243643
 31
0.0
  0
LINE
  5
24FD
  8
0
 10
49.011902854685722
 20
28.949522835243609
 30
0.0
 11
49.837402854685877
 21
29.7750227635178
 31
0.0
  0
LINE
  5
24FE
  8
0
 10
49.011902854685722
 20
28.949522835243609
 30
0.0
 11
49.011902854685722
 21
28.822522835243628
 31
0.0
  0
LINE
  5
24FF
  8
0
 10
49.837402854685841
 20
27.997022763517521
 30
0.0
 11
49.011902854685722
 21
28.822522835243628
 31
0.0
  0
LINE
  5
2500
  8
0
 10
49.011902854685722
 20
31.235522835243639
 30
0.0
 11
49.837402854685877
 21
32.061022763517769
 31
0.0
  0
LINE
  5
2501
  8
0
 10
49.011902854685722
 20
31.235522835243639
 30
0.0
 11
49.011902854685722
 21
31.10852283524363
 31
0.0
  0
LINE
  5
2502
  8
0
 10
49.837402854685841
 20
30.283022763517518
 30
0.0
 11
49.011902854685722
 21
31.10852283524363
 31
0.0
  0
LINE
  5
2503
  8
0
 10
49.837402854685841
 20
37.141022741448097
 30
0.0
 11
50.091402854685747
 21
37.141022741448097
 31
0.0
  0
LINE
  5
2504
  8
0
 10
50.091402854685747
 20
36.887022741448114
 30
0.0
 11
49.837402854685841
 21
37.141022741448097
 31
0.0
  0
LINE
  5
2505
  8
0
 10
49.837402854685841
 20
34.855022763517518
 30
0.0
 11
49.837402854685841
 21
36.633022763517708
 31
0.0
  0
LINE
  5
2506
  8
0
 10
49.837402854685841
 20
36.633022763517708
 30
0.0
 11
50.091402854685747
 21
36.887022741448114
 31
0.0
  0
LINE
  5
2507
  8
0
 10
50.091402854685747
 20
34.601022741448112
 30
0.0
 11
49.837402854685841
 21
34.855022763517518
 31
0.0
  0
LINE
  5
2508
  8
0
 10
50.091402854685747
 20
32.315022741448111
 30
0.0
 11
49.837402854685841
 21
32.569022763517523
 31
0.0
  0
LINE
  5
2509
  8
0
 10
49.837402854685841
 20
32.569022763517523
 30
0.0
 11
49.837402854685841
 21
34.347022763517742
 31
0.0
  0
LINE
  5
250A
  8
0
 10
49.837402854685841
 20
34.347022763517742
 30
0.0
 11
50.091402854685747
 21
34.601022741448112
 31
0.0
  0
LINE
  5
250B
  8
0
 10
50.091402854685747
 20
30.029022741448109
 30
0.0
 11
49.837402854685841
 21
30.283022763517518
 31
0.0
  0
LINE
  5
250C
  8
0
 10
49.837402854685841
 20
32.061022763517741
 30
0.0
 11
50.091402854685747
 21
32.315022741448111
 31
0.0
  0
LINE
  5
250D
  8
0
 10
49.837402854685841
 20
30.283022763517518
 30
0.0
 11
49.837402854685841
 21
32.061022763517741
 31
0.0
  0
LINE
  5
250E
  8
0
 10
49.83740285468582
 20
25.203022741448081
 30
0.0
 11
50.091402854685747
 21
25.4570227414481
 31
0.0
  0
LINE
  5
250F
  8
0
 10
49.83740285468582
 20
25.203022741448081
 30
0.0
 11
50.091402854685747
 21
25.203022741448081
 31
0.0
  0
LINE
  5
2510
  8
0
 10
49.837402854685841
 20
27.489022763517742
 30
0.0
 11
50.091402854685747
 21
27.743022741448101
 31
0.0
  0
LINE
  5
2511
  8
0
 10
49.83740285468582
 20
25.711022763517519
 30
0.0
 11
49.837402854685841
 21
27.489022763517742
 31
0.0
  0
LINE
  5
2512
  8
0
 10
50.091402854685747
 20
25.4570227414481
 30
0.0
 11
49.83740285468582
 21
25.711022763517519
 31
0.0
  0
LINE
  5
2513
  8
0
 10
50.091402854685747
 20
27.743022741448101
 30
0.0
 11
49.837402854685841
 21
27.997022763517521
 31
0.0
  0
LINE
  5
2514
  8
0
 10
49.837402854685841
 20
29.775022763517772
 30
0.0
 11
50.091402854685747
 21
30.029022741448109
 31
0.0
  0
LINE
  5
2515
  8
0
 10
49.837402854685841
 20
27.997022763517521
 30
0.0
 11
49.837402854685841
 21
29.775022763517772
 31
0.0
  0
LINE
  5
2516
  8
0
 10
51.678902854685731
 20
25.076022741448071
 30
0.0
 11
52.186902854685741
 21
25.584022741448109
 31
0.0
  0
LINE
  5
2517
  8
0
 10
52.186902854685741
 20
36.760022741448097
 30
0.0
 11
52.186902854685741
 21
25.584022741448109
 31
0.0
  0
LINE
  5
2518
  8
0
 10
51.678902854685731
 20
37.268022741448078
 30
0.0
 11
52.186902854685741
 21
36.760022741448097
 31
0.0
  0
LINE
  5
2519
  8
0
 10
51.678902854685731
 20
37.522022741448097
 30
0.0
 11
51.678902854685731
 21
24.822022741448109
 31
0.0
  0
LINE
  5
251A
  8
0
 10
50.091402854685747
 20
37.522022741448097
 30
0.0
 11
51.678902854685731
 21
37.522022741448097
 31
0.0
  0
LINE
  5
251B
  8
0
 10
50.091402854685747
 20
24.822022741448109
 30
0.0
 11
50.091402854685747
 21
37.522022741448097
 31
0.0
  0
LINE
  5
251C
  8
0
 10
50.091402854685747
 20
24.822022741448109
 30
0.0
 11
51.678902854685731
 21
24.822022741448109
 31
0.0
  0
LINE
  5
251D
  8
0
 10
21.31190285468568
 20
37.522022741448097
 30
0.0
 11
21.31190285468568
 21
24.822022741448109
 31
0.0
  0
LINE
  5
251E
  8
0
 10
34.01190285468568
 20
24.822022741448109
 30
0.0
 11
34.01190285468568
 21
37.522022741448097
 31
0.0
  0
LINE
  5
251F
  8
0
 10
34.01190285468568
 20
37.522022741448097
 30
0.0
 11
21.31190285468568
 21
37.522022741448097
 31
0.0
  0
LINE
  5
2520
  8
0
 10
21.31190285468568
 20
24.822022741448109
 30
0.0
 11
34.01190285468568
 21
24.822022741448109
 31
0.0
  0
LINE
  5
2521
  8
3
 10
33.630902854685701
 20
36.887022741448114
 30
0.0
 11
33.630902854685701
 21
37.141022741448133
 31
0.0
  0
LINE
  5
2522
  8
3
 10
31.344902832616238
 20
37.141022741448133
 30
0.0
 11
31.090902854685801
 21
37.141022741448133
 31
0.0
  0
LINE
  5
2523
  8
3
 10
33.630902854685701
 20
37.141022741448133
 30
0.0
 11
33.376902854685802
 21
37.141022741448133
 31
0.0
  0
LINE
  5
2524
  8
3
 10
33.630902854685701
 20
37.141022741448133
 30
0.0
 11
33.376902854685682
 21
36.88702274144822
 31
0.0
  0
LINE
  5
2525
  8
3
 10
26.518902854685791
 20
37.141022741448133
 30
0.0
 11
26.264902876755119
 21
37.141022741448133
 31
0.0
  0
LINE
  5
2526
  8
3
 10
29.058902832616269
 20
37.141022741448133
 30
0.0
 11
28.804902854685789
 21
37.141022741448133
 31
0.0
  0
LINE
  5
2527
  8
3
 10
26.264902876755119
 20
37.141022741448133
 30
0.0
 11
26.518902854685791
 21
36.887022741448114
 31
0.0
  0
LINE
  5
2528
  8
3
 10
26.264902876755119
 20
37.141022741448133
 30
0.0
 11
24.486902832616241
 21
37.141022741448133
 31
0.0
  0
LINE
  5
2529
  8
3
 10
24.486902832616241
 20
37.141022741448133
 30
0.0
 11
24.232902854685559
 21
36.887022741448114
 31
0.0
  0
LINE
  5
252A
  8
3
 10
24.486902832616241
 20
37.141022741448133
 30
0.0
 11
24.23290285468579
 21
37.141022741448133
 31
0.0
  0
LINE
  5
252B
  8
3
 10
26.772902832616271
 20
37.141022741448133
 30
0.0
 11
26.518902854685791
 21
37.141022741448133
 31
0.0
  0
LINE
  5
252C
  8
3
 10
26.518902854685791
 20
36.887022741448114
 30
0.0
 11
26.518902854685791
 21
37.141022741448133
 31
0.0
  0
LINE
  5
252D
  8
3
 10
22.200902832616261
 20
37.141022741448133
 30
0.0
 11
21.94690285468582
 21
37.141022741448133
 31
0.0
  0
LINE
  5
252E
  8
3
 10
21.692902854685681
 20
37.141022741448133
 30
0.0
 11
21.692902854685681
 21
36.887022741448114
 31
0.0
  0
LINE
  5
252F
  8
3
 10
21.94690285468582
 20
37.141022741448133
 30
0.0
 11
21.692902854685681
 21
37.141022741448133
 31
0.0
  0
LINE
  5
2530
  8
3
 10
21.94690285468559
 20
36.887022741448114
 30
0.0
 11
21.94690285468582
 21
37.141022741448133
 31
0.0
  0
LINE
  5
2531
  8
3
 10
21.94690285468559
 20
36.887022741448114
 30
0.0
 11
21.692902854685681
 21
37.141022741448133
 31
0.0
  0
LINE
  5
2532
  8
3
 10
24.232902854685559
 20
36.887022741448114
 30
0.0
 11
24.23290285468579
 21
37.141022741448133
 31
0.0
  0
LINE
  5
2533
  8
3
 10
24.23290285468579
 20
37.141022741448133
 30
0.0
 11
23.978902876755122
 21
37.141022741448133
 31
0.0
  0
LINE
  5
2534
  8
3
 10
24.232902854685559
 20
36.887022741448114
 30
0.0
 11
23.978902876755122
 21
37.141022741448133
 31
0.0
  0
LINE
  5
2535
  8
3
 10
23.978902876755122
 20
37.141022741448133
 30
0.0
 11
22.200902832616261
 21
37.141022741448133
 31
0.0
  0
LINE
  5
2536
  8
3
 10
22.200902832616261
 20
37.141022741448133
 30
0.0
 11
21.94690285468559
 21
36.887022741448114
 31
0.0
  0
LINE
  5
2537
  8
3
 10
28.804902854685569
 20
36.887022741448114
 30
0.0
 11
28.804902854685789
 21
37.141022741448133
 31
0.0
  0
LINE
  5
2538
  8
3
 10
28.804902854685789
 20
37.141022741448133
 30
0.0
 11
28.550902876755121
 21
37.141022741448133
 31
0.0
  0
LINE
  5
2539
  8
3
 10
28.804902854685569
 20
36.887022741448114
 30
0.0
 11
28.550902876755121
 21
37.141022741448133
 31
0.0
  0
LINE
  5
253A
  8
3
 10
28.550902876755121
 20
37.141022741448133
 30
0.0
 11
26.772902832616271
 21
37.141022741448133
 31
0.0
  0
LINE
  5
253B
  8
3
 10
26.518902854685791
 20
36.887022741448114
 30
0.0
 11
26.772902832616271
 21
37.141022741448133
 31
0.0
  0
LINE
  5
253C
  8
3
 10
33.122902876755091
 20
37.141022741448133
 30
0.0
 11
31.344902832616238
 21
37.141022741448133
 31
0.0
  0
LINE
  5
253D
  8
3
 10
31.344902832616238
 20
37.141022741448133
 30
0.0
 11
31.09090285468568
 21
36.88702274144822
 31
0.0
  0
LINE
  5
253E
  8
3
 10
33.376902854685682
 20
36.88702274144822
 30
0.0
 11
33.376902854685802
 21
37.141022741448133
 31
0.0
  0
LINE
  5
253F
  8
3
 10
33.376902854685802
 20
37.141022741448133
 30
0.0
 11
33.122902876755091
 21
37.141022741448133
 31
0.0
  0
LINE
  5
2540
  8
3
 10
33.376902854685682
 20
36.88702274144822
 30
0.0
 11
33.122902876755091
 21
37.141022741448133
 31
0.0
  0
LINE
  5
2541
  8
3
 10
30.83690287675509
 20
37.141022741448133
 30
0.0
 11
29.058902832616269
 21
37.141022741448133
 31
0.0
  0
LINE
  5
2542
  8
3
 10
29.058902832616269
 20
37.141022741448133
 30
0.0
 11
28.804902854685569
 21
36.887022741448114
 31
0.0
  0
LINE
  5
2543
  8
3
 10
31.09090285468568
 20
36.88702274144822
 30
0.0
 11
31.090902854685801
 21
37.141022741448133
 31
0.0
  0
LINE
  5
2544
  8
3
 10
31.090902854685801
 20
37.141022741448133
 30
0.0
 11
30.83690287675509
 21
37.141022741448133
 31
0.0
  0
LINE
  5
2545
  8
3
 10
31.09090285468568
 20
36.88702274144822
 30
0.0
 11
30.83690287675509
 21
37.141022741448133
 31
0.0
  0
LINE
  5
2546
  8
3
 10
21.692902854685681
 20
32.569022763517523
 30
0.0
 11
21.692902854685681
 21
32.315022741448111
 31
0.0
  0
LINE
  5
2547
  8
3
 10
21.692902854685681
 20
27.743022741448101
 30
0.0
 11
21.692902854685681
 21
27.48902276351777
 31
0.0
  0
LINE
  5
2548
  8
3
 10
21.692902854685681
 20
30.029022741448109
 30
0.0
 11
21.692902854685681
 21
29.775022763517772
 31
0.0
  0
LINE
  5
2549
  8
3
 10
21.692902854685681
 20
27.48902276351777
 30
0.0
 11
21.692902854685681
 21
25.711022763517551
 31
0.0
  0
LINE
  5
254A
  8
3
 10
21.692902854685681
 20
27.48902276351777
 30
0.0
 11
21.94690285468571
 21
27.743022741447991
 31
0.0
  0
LINE
  5
254B
  8
3
 10
21.692902854685681
 20
25.711022763517551
 30
0.0
 11
21.692902854685681
 21
25.4570227414481
 31
0.0
  0
LINE
  5
254C
  8
3
 10
21.94690285468571
 20
25.457022741447989
 30
0.0
 11
21.692902854685681
 21
25.711022763517551
 31
0.0
  0
LINE
  5
254D
  8
3
 10
21.692902854685681
 20
27.997022763517521
 30
0.0
 11
21.692902854685681
 21
27.743022741448101
 31
0.0
  0
LINE
  5
254E
  8
3
 10
21.692902854685681
 20
27.743022741448101
 30
0.0
 11
21.94690285468571
 21
27.743022741447991
 31
0.0
  0
LINE
  5
254F
  8
3
 10
21.692902854685681
 20
34.855022763517518
 30
0.0
 11
21.692902854685681
 21
34.601022741448112
 31
0.0
  0
LINE
  5
2550
  8
3
 10
21.692902854685681
 20
30.283022763517518
 30
0.0
 11
21.692902854685681
 21
30.029022741448109
 31
0.0
  0
LINE
  5
2551
  8
3
 10
21.692902854685681
 20
30.029022741448109
 30
0.0
 11
21.94690285468571
 21
30.02902274144822
 31
0.0
  0
LINE
  5
2552
  8
3
 10
21.692902854685681
 20
29.775022763517772
 30
0.0
 11
21.94690285468571
 21
30.02902274144822
 31
0.0
  0
LINE
  5
2553
  8
3
 10
21.692902854685681
 20
29.775022763517772
 30
0.0
 11
21.692902854685681
 21
27.997022763517521
 31
0.0
  0
LINE
  5
2554
  8
3
 10
21.94690285468571
 20
27.743022741447991
 30
0.0
 11
21.692902854685681
 21
27.997022763517521
 31
0.0
  0
LINE
  5
2555
  8
3
 10
21.692902854685681
 20
32.061022763517769
 30
0.0
 11
21.692902854685681
 21
30.283022763517518
 31
0.0
  0
LINE
  5
2556
  8
3
 10
21.94690285468571
 20
30.02902274144822
 30
0.0
 11
21.692902854685681
 21
30.283022763517518
 31
0.0
  0
LINE
  5
2557
  8
3
 10
21.692902854685681
 20
32.315022741448111
 30
0.0
 11
21.94690285468571
 21
32.31502274144799
 31
0.0
  0
LINE
  5
2558
  8
3
 10
21.692902854685681
 20
32.315022741448111
 30
0.0
 11
21.692902854685681
 21
32.061022763517769
 31
0.0
  0
LINE
  5
2559
  8
3
 10
21.692902854685681
 20
32.061022763517769
 30
0.0
 11
21.94690285468571
 21
32.31502274144799
 31
0.0
  0
LINE
  5
255A
  8
3
 10
21.692902854685681
 20
36.633022763517772
 30
0.0
 11
21.692902854685681
 21
34.855022763517518
 31
0.0
  0
LINE
  5
255B
  8
3
 10
21.94690285468571
 20
34.601022741447991
 30
0.0
 11
21.692902854685681
 21
34.855022763517518
 31
0.0
  0
LINE
  5
255C
  8
3
 10
21.692902854685681
 20
36.887022741448114
 30
0.0
 11
21.94690285468559
 21
36.887022741448114
 31
0.0
  0
LINE
  5
255D
  8
3
 10
21.692902854685681
 20
36.887022741448114
 30
0.0
 11
21.692902854685681
 21
36.633022763517772
 31
0.0
  0
LINE
  5
255E
  8
3
 10
21.692902854685681
 20
36.633022763517772
 30
0.0
 11
21.94690285468559
 21
36.887022741448114
 31
0.0
  0
LINE
  5
255F
  8
3
 10
21.692902854685681
 20
34.347022763517771
 30
0.0
 11
21.692902854685681
 21
32.569022763517523
 31
0.0
  0
LINE
  5
2560
  8
3
 10
21.94690285468571
 20
32.31502274144799
 30
0.0
 11
21.692902854685681
 21
32.569022763517523
 31
0.0
  0
LINE
  5
2561
  8
3
 10
21.692902854685681
 20
34.601022741448112
 30
0.0
 11
21.94690285468571
 21
34.601022741447991
 31
0.0
  0
LINE
  5
2562
  8
3
 10
21.692902854685681
 20
34.601022741448112
 30
0.0
 11
21.692902854685681
 21
34.347022763517771
 31
0.0
  0
LINE
  5
2563
  8
3
 10
21.692902854685681
 20
34.347022763517771
 30
0.0
 11
21.94690285468571
 21
34.601022741447991
 31
0.0
  0
LINE
  5
2564
  8
3
 10
33.630902854685701
 20
34.347022763517771
 30
0.0
 11
33.630902854685701
 21
34.601022741448112
 31
0.0
  0
LINE
  5
2565
  8
3
 10
33.630902854685701
 20
32.061022763517769
 30
0.0
 11
33.630902854685701
 21
32.315022741448111
 31
0.0
  0
LINE
  5
2566
  8
3
 10
33.630902854685701
 20
36.633022763517751
 30
0.0
 11
33.630902854685701
 21
36.887022741448114
 31
0.0
  0
LINE
  5
2567
  8
3
 10
33.376902854685682
 20
36.88702274144822
 30
0.0
 11
33.630902854685701
 21
36.887022741448114
 31
0.0
  0
LINE
  5
2568
  8
3
 10
33.630902854685701
 20
32.569022763517523
 30
0.0
 11
33.630902854685701
 21
34.347022763517771
 31
0.0
  0
LINE
  5
2569
  8
3
 10
33.376902854685682
 20
34.601022741448219
 30
0.0
 11
33.630902854685701
 21
34.347022763517771
 31
0.0
  0
LINE
  5
256A
  8
3
 10
33.630902854685701
 20
32.315022741448111
 30
0.0
 11
33.630902854685701
 21
32.569022763517523
 31
0.0
  0
LINE
  5
256B
  8
3
 10
33.376902854685682
 20
32.31502274144799
 30
0.0
 11
33.630902854685701
 21
32.315022741448111
 31
0.0
  0
LINE
  5
256C
  8
3
 10
33.630902854685701
 20
32.569022763517523
 30
0.0
 11
33.376902854685682
 21
32.31502274144799
 31
0.0
  0
LINE
  5
256D
  8
3
 10
33.630902854685701
 20
34.855022763517518
 30
0.0
 11
33.630902854685701
 21
36.633022763517751
 31
0.0
  0
LINE
  5
256E
  8
3
 10
33.376902854685682
 20
36.88702274144822
 30
0.0
 11
33.630902854685701
 21
36.633022763517751
 31
0.0
  0
LINE
  5
256F
  8
3
 10
33.376902854685682
 20
34.601022741448219
 30
0.0
 11
33.630902854685701
 21
34.601022741448112
 31
0.0
  0
LINE
  5
2570
  8
3
 10
33.630902854685701
 20
34.601022741448112
 30
0.0
 11
33.630902854685701
 21
34.855022763517518
 31
0.0
  0
LINE
  5
2571
  8
3
 10
33.630902854685701
 20
34.855022763517518
 30
0.0
 11
33.376902854685682
 21
34.601022741448219
 31
0.0
  0
LINE
  5
2572
  8
3
 10
33.630902854685701
 20
29.775022763517772
 30
0.0
 11
33.630902854685701
 21
30.029022741448109
 31
0.0
  0
LINE
  5
2573
  8
3
 10
33.630902854685701
 20
30.283022763517518
 30
0.0
 11
33.630902854685701
 21
32.061022763517769
 31
0.0
  0
LINE
  5
2574
  8
3
 10
33.376902854685682
 20
32.31502274144799
 30
0.0
 11
33.630902854685701
 21
32.061022763517769
 31
0.0
  0
LINE
  5
2575
  8
3
 10
33.630902854685701
 20
27.48902276351777
 30
0.0
 11
33.630902854685701
 21
27.743022741448101
 31
0.0
  0
LINE
  5
2576
  8
3
 10
33.376902854685682
 20
30.029022741447989
 30
0.0
 11
33.630902854685701
 21
30.029022741448109
 31
0.0
  0
LINE
  5
2577
  8
3
 10
33.630902854685701
 20
30.029022741448109
 30
0.0
 11
33.630902854685701
 21
30.283022763517518
 31
0.0
  0
LINE
  5
2578
  8
3
 10
33.630902854685701
 20
30.283022763517518
 30
0.0
 11
33.376902854685682
 21
30.029022741447989
 31
0.0
  0
LINE
  5
2579
  8
3
 10
33.630902854685701
 20
25.203022741448109
 30
0.0
 11
33.630902854685701
 21
25.4570227414481
 31
0.0
  0
LINE
  5
257A
  8
3
 10
33.376902854685568
 20
25.203022741448109
 30
0.0
 11
33.630902854685701
 21
25.203022741448109
 31
0.0
  0
LINE
  5
257B
  8
3
 10
33.376902854685682
 20
25.45702274144821
 30
0.0
 11
33.630902854685701
 21
25.203022741448109
 31
0.0
  0
LINE
  5
257C
  8
3
 10
33.630902854685701
 20
27.743022741448101
 30
0.0
 11
33.630902854685701
 21
27.997022763517521
 31
0.0
  0
LINE
  5
257D
  8
3
 10
33.376902854685682
 20
27.743022741448218
 30
0.0
 11
33.630902854685701
 21
27.743022741448101
 31
0.0
  0
LINE
  5
257E
  8
3
 10
33.630902854685701
 20
27.997022763517521
 30
0.0
 11
33.376902854685682
 21
27.743022741448218
 31
0.0
  0
LINE
  5
257F
  8
3
 10
33.630902854685701
 20
27.997022763517521
 30
0.0
 11
33.630902854685701
 21
29.775022763517772
 31
0.0
  0
LINE
  5
2580
  8
3
 10
33.376902854685682
 20
30.029022741447989
 30
0.0
 11
33.630902854685701
 21
29.775022763517772
 31
0.0
  0
LINE
  5
2581
  8
3
 10
33.376902854685682
 20
25.45702274144821
 30
0.0
 11
33.630902854685701
 21
25.4570227414481
 31
0.0
  0
LINE
  5
2582
  8
3
 10
33.630902854685701
 20
25.4570227414481
 30
0.0
 11
33.630902854685701
 21
25.711022763517551
 31
0.0
  0
LINE
  5
2583
  8
3
 10
33.630902854685701
 20
25.711022763517551
 30
0.0
 11
33.376902854685682
 21
25.45702274144821
 31
0.0
  0
LINE
  5
2584
  8
3
 10
33.630902854685701
 20
25.711022763517551
 30
0.0
 11
33.630902854685701
 21
27.48902276351777
 31
0.0
  0
LINE
  5
2585
  8
3
 10
33.376902854685682
 20
27.743022741448218
 30
0.0
 11
33.630902854685701
 21
27.48902276351777
 31
0.0
  0
LINE
  5
2586
  8
3
 10
28.804902854685789
 20
25.203022741448109
 30
0.0
 11
29.058902876755361
 21
25.203022741448109
 31
0.0
  0
LINE
  5
2587
  8
3
 10
24.23290285468579
 20
25.203022741448109
 30
0.0
 11
24.48690287675532
 21
25.203022741448109
 31
0.0
  0
LINE
  5
2588
  8
3
 10
21.692902854685681
 20
25.203022741448109
 30
0.0
 11
21.94690285468582
 21
25.203022741448109
 31
0.0
  0
LINE
  5
2589
  8
3
 10
31.090902854685801
 20
25.203022741448109
 30
0.0
 11
31.344902876755331
 21
25.203022741448109
 31
0.0
  0
LINE
  5
258A
  8
3
 10
21.94690285468582
 20
25.203022741448109
 30
0.0
 11
22.200902876755318
 21
25.203022741448109
 31
0.0
  0
LINE
  5
258B
  8
3
 10
21.94690285468582
 20
25.203022741448109
 30
0.0
 11
21.94690285468571
 21
25.457022741447989
 31
0.0
  0
LINE
  5
258C
  8
3
 10
21.692902854685681
 20
25.4570227414481
 30
0.0
 11
21.94690285468571
 21
25.457022741447989
 31
0.0
  0
LINE
  5
258D
  8
3
 10
21.692902854685681
 20
25.4570227414481
 30
0.0
 11
21.692902854685681
 21
25.203022741448109
 31
0.0
  0
LINE
  5
258E
  8
3
 10
21.692902854685681
 20
25.203022741448109
 30
0.0
 11
21.94690285468571
 21
25.457022741447989
 31
0.0
  0
LINE
  5
258F
  8
3
 10
26.518902854685571
 20
25.203022741448109
 30
0.0
 11
26.772902876755321
 21
25.203022741448109
 31
0.0
  0
LINE
  5
2590
  8
3
 10
21.94690285468571
 20
25.457022741447989
 30
0.0
 11
22.200902876755318
 21
25.203022741448109
 31
0.0
  0
LINE
  5
2591
  8
3
 10
22.200902876755318
 20
25.203022741448109
 30
0.0
 11
23.978902832616061
 21
25.203022741448109
 31
0.0
  0
LINE
  5
2592
  8
3
 10
26.264902832616031
 20
25.203022741448109
 30
0.0
 11
26.518902854685571
 21
25.203022741448109
 31
0.0
  0
LINE
  5
2593
  8
3
 10
26.518902854685571
 20
25.203022741448109
 30
0.0
 11
26.518902854685571
 21
25.4570227414481
 31
0.0
  0
LINE
  5
2594
  8
3
 10
24.23290285468568
 20
25.457022741447989
 30
0.0
 11
24.48690287675532
 21
25.203022741448109
 31
0.0
  0
LINE
  5
2595
  8
3
 10
24.48690287675532
 20
25.203022741448109
 30
0.0
 11
26.264902832616031
 21
25.203022741448109
 31
0.0
  0
LINE
  5
2596
  8
3
 10
26.518902854685571
 20
25.4570227414481
 30
0.0
 11
26.264902832616031
 21
25.203022741448109
 31
0.0
  0
LINE
  5
2597
  8
3
 10
23.978902832616061
 20
25.203022741448109
 30
0.0
 11
24.23290285468568
 21
25.457022741447989
 31
0.0
  0
LINE
  5
2598
  8
3
 10
23.978902832616061
 20
25.203022741448109
 30
0.0
 11
24.23290285468579
 21
25.203022741448109
 31
0.0
  0
LINE
  5
2599
  8
3
 10
24.23290285468579
 20
25.203022741448109
 30
0.0
 11
24.23290285468568
 21
25.457022741447989
 31
0.0
  0
LINE
  5
259A
  8
3
 10
28.804902854685679
 20
25.45702274144821
 30
0.0
 11
29.058902876755361
 21
25.203022741448109
 31
0.0
  0
LINE
  5
259B
  8
3
 10
29.058902876755361
 20
25.203022741448109
 30
0.0
 11
30.836902832616008
 21
25.203022741448109
 31
0.0
  0
LINE
  5
259C
  8
3
 10
30.836902832616008
 20
25.203022741448109
 30
0.0
 11
31.09090285468568
 21
25.45702274144821
 31
0.0
  0
LINE
  5
259D
  8
3
 10
30.836902832616008
 20
25.203022741448109
 30
0.0
 11
31.090902854685801
 21
25.203022741448109
 31
0.0
  0
LINE
  5
259E
  8
3
 10
31.090902854685801
 20
25.203022741448109
 30
0.0
 11
31.09090285468568
 21
25.45702274144821
 31
0.0
  0
LINE
  5
259F
  8
3
 10
28.550902832616028
 20
25.203022741448109
 30
0.0
 11
28.804902854685789
 21
25.203022741448109
 31
0.0
  0
LINE
  5
25A0
  8
3
 10
28.804902854685789
 20
25.203022741448109
 30
0.0
 11
28.804902854685679
 21
25.45702274144821
 31
0.0
  0
LINE
  5
25A1
  8
3
 10
26.772902876755321
 20
25.203022741448109
 30
0.0
 11
26.518902854685571
 21
25.4570227414481
 31
0.0
  0
LINE
  5
25A2
  8
3
 10
26.772902876755321
 20
25.203022741448109
 30
0.0
 11
28.550902832616028
 21
25.203022741448109
 31
0.0
  0
LINE
  5
25A3
  8
3
 10
28.550902832616028
 20
25.203022741448109
 30
0.0
 11
28.804902854685679
 21
25.45702274144821
 31
0.0
  0
LINE
  5
25A4
  8
3
 10
33.122902832616028
 20
25.203022741448109
 30
0.0
 11
33.376902854685568
 21
25.203022741448109
 31
0.0
  0
LINE
  5
25A5
  8
3
 10
33.376902854685568
 20
25.203022741448109
 30
0.0
 11
33.376902854685682
 21
25.45702274144821
 31
0.0
  0
LINE
  5
25A6
  8
3
 10
31.09090285468568
 20
25.45702274144821
 30
0.0
 11
31.344902876755331
 21
25.203022741448109
 31
0.0
  0
LINE
  5
25A7
  8
3
 10
31.344902876755331
 20
25.203022741448109
 30
0.0
 11
33.122902832616028
 21
25.203022741448109
 31
0.0
  0
LINE
  5
25A8
  8
3
 10
33.122902832616028
 20
25.203022741448109
 30
0.0
 11
33.376902854685682
 21
25.45702274144821
 31
0.0
  0
LINE
  5
25A9
  8
3
 10
21.94690285468571
 20
30.02902274144822
 30
0.0
 11
21.94690285468571
 21
32.31502274144799
 31
0.0
  0
LINE
  5
25AA
  8
3
 10
28.804902854685679
 20
27.743022741448218
 30
0.0
 11
28.804902854685679
 21
30.029022741447989
 31
0.0
  0
LINE
  5
25AB
  8
3
 10
26.518902854685791
 20
36.887022741448114
 30
0.0
 11
28.804902854685569
 21
36.887022741448114
 31
0.0
  0
LINE
  5
25AC
  8
3
 10
26.518902854685791
 20
34.601022741448112
 30
0.0
 11
28.804902854685679
 21
34.601022741448219
 31
0.0
  0
LINE
  5
25AD
  8
3
 10
24.232902854685559
 20
36.887022741448114
 30
0.0
 11
26.518902854685791
 21
36.887022741448114
 31
0.0
  0
LINE
  5
25AE
  8
3
 10
31.09090285468568
 20
34.601022741448219
 30
0.0
 11
30.011402854685571
 21
35.680522835243657
 31
0.0
  0
LINE
  5
25AF
  8
3
 10
21.94690285468571
 20
27.743022741447991
 30
0.0
 11
21.94690285468571
 21
30.02902274144822
 31
0.0
  0
LINE
  5
25B0
  8
3
 10
29.884402854685788
 20
31.108522835243662
 30
0.0
 11
29.884402854685788
 21
31.235522835243671
 31
0.0
  0
LINE
  5
25B1
  8
3
 10
28.804902854685679
 20
30.029022741447989
 30
0.0
 11
28.804902854685679
 21
32.31502274144799
 31
0.0
  0
LINE
  5
25B2
  8
3
 10
28.804902854685679
 20
30.029022741447989
 30
0.0
 11
27.725402854685569
 21
31.108522835243662
 31
0.0
  0
LINE
  5
25B3
  8
3
 10
27.725402854685569
 20
28.949522835243641
 30
0.0
 11
28.804902854685679
 21
30.029022741447989
 31
0.0
  0
LINE
  5
25B4
  8
3
 10
26.518902854685681
 20
30.029022741447989
 30
0.0
 11
28.804902854685679
 21
30.029022741447989
 31
0.0
  0
LINE
  5
25B5
  8
3
 10
24.23290285468568
 20
27.743022741447991
 30
0.0
 11
24.23290285468568
 21
30.02902274144822
 31
0.0
  0
LINE
  5
25B6
  8
3
 10
26.518902854685681
 20
30.029022741447989
 30
0.0
 11
26.518902854685681
 21
32.31502274144799
 31
0.0
  0
LINE
  5
25B7
  8
3
 10
26.518902854685681
 20
30.029022741447989
 30
0.0
 11
27.598402854685819
 21
31.108522835243662
 31
0.0
  0
LINE
  5
25B8
  8
3
 10
27.725402854685569
 20
33.521522835243672
 30
0.0
 11
28.804902854685679
 21
34.601022741448219
 31
0.0
  0
LINE
  5
25B9
  8
3
 10
32.17040285468579
 20
31.235522835243671
 30
0.0
 11
32.297402854685551
 21
31.235522835243671
 31
0.0
  0
LINE
  5
25BA
  8
3
 10
24.232902854685559
 20
36.887022741448114
 30
0.0
 11
25.312402854685789
 21
35.807522835243653
 31
0.0
  0
LINE
  5
25BB
  8
3
 10
24.23290285468568
 20
34.601022741447991
 30
0.0
 11
24.232902854685559
 21
36.887022741448114
 31
0.0
  0
LINE
  5
25BC
  8
3
 10
25.312402854685789
 20
35.680522835243657
 30
0.0
 11
24.23290285468568
 21
34.601022741447991
 31
0.0
  0
LINE
  5
25BD
  8
3
 10
32.297402854685551
 20
31.108522835243662
 30
0.0
 11
32.17040285468579
 21
31.108522835243662
 31
0.0
  0
LINE
  5
25BE
  8
3
 10
27.598402854685759
 20
35.807522835243653
 30
0.0
 11
27.725402854685569
 21
35.807522835243653
 31
0.0
  0
LINE
  5
25BF
  8
3
 10
27.725402854685569
 20
35.680522835243643
 30
0.0
 11
27.598402854685759
 21
35.680522835243643
 31
0.0
  0
LINE
  5
25C0
  8
3
 10
27.725402854685569
 20
31.235522835243671
 30
0.0
 11
27.725402854685569
 21
31.108522835243662
 31
0.0
  0
LINE
  5
25C1
  8
3
 10
27.598402854685819
 20
31.108522835243662
 30
0.0
 11
27.598402854685759
 21
31.235522835243671
 31
0.0
  0
LINE
  5
25C2
  8
3
 10
27.725402854685569
 20
31.108522835243662
 30
0.0
 11
27.598402854685819
 21
31.108522835243662
 31
0.0
  0
LINE
  5
25C3
  8
3
 10
26.518902854685571
 20
27.743022741448101
 30
0.0
 11
26.518902854685681
 21
30.029022741447989
 31
0.0
  0
LINE
  5
25C4
  8
3
 10
27.598402854685819
 20
28.949522835243641
 30
0.0
 11
26.518902854685681
 21
30.029022741447989
 31
0.0
  0
LINE
  5
25C5
  8
3
 10
23.02640285468576
 20
28.82252283524366
 30
0.0
 11
23.02640285468576
 21
28.949522835243641
 31
0.0
  0
LINE
  5
25C6
  8
3
 10
23.15340285468557
 20
28.949522835243641
 30
0.0
 11
23.15340285468557
 21
28.82252283524366
 31
0.0
  0
LINE
  5
25C7
  8
3
 10
27.725402854685569
 20
28.949522835243641
 30
0.0
 11
27.725402854685569
 21
28.82252283524366
 31
0.0
  0
LINE
  5
25C8
  8
3
 10
27.598402854685819
 20
28.949522835243641
 30
0.0
 11
27.725402854685569
 21
28.949522835243641
 31
0.0
  0
LINE
  5
25C9
  8
3
 10
27.598402854685819
 20
28.82252283524366
 30
0.0
 11
27.598402854685819
 21
28.949522835243641
 31
0.0
  0
LINE
  5
25CA
  8
3
 10
26.518902854685571
 20
25.4570227414481
 30
0.0
 11
26.518902854685571
 21
27.743022741448101
 31
0.0
  0
LINE
  5
25CB
  8
3
 10
27.598402854685819
 20
26.66352283524364
 30
0.0
 11
26.518902854685571
 21
27.743022741448101
 31
0.0
  0
LINE
  5
25CC
  8
3
 10
23.15340285468557
 20
26.66352283524364
 30
0.0
 11
23.15340285468557
 21
26.536522835243659
 31
0.0
  0
LINE
  5
25CD
  8
3
 10
27.598402854685819
 20
26.66352283524364
 30
0.0
 11
27.725402854685569
 21
26.66352283524364
 31
0.0
  0
LINE
  5
25CE
  8
3
 10
27.598402854685819
 20
26.536522835243659
 30
0.0
 11
27.598402854685819
 21
26.66352283524364
 31
0.0
  0
LINE
  5
25CF
  8
3
 10
23.15340285468557
 20
35.807522835243653
 30
0.0
 11
23.15340285468557
 21
35.680522835243657
 31
0.0
  0
LINE
  5
25D0
  8
3
 10
27.725402854685569
 20
35.807522835243653
 30
0.0
 11
28.804902854685569
 21
36.887022741448114
 31
0.0
  0
LINE
  5
25D1
  8
3
 10
27.725402854685569
 20
35.807522835243653
 30
0.0
 11
27.725402854685569
 21
35.680522835243643
 31
0.0
  0
LINE
  5
25D2
  8
3
 10
28.804902854685679
 20
34.601022741448219
 30
0.0
 11
27.725402854685569
 21
35.680522835243643
 31
0.0
  0
LINE
  5
25D3
  8
3
 10
25.4394028546856
 20
33.521522835243672
 30
0.0
 11
25.439402854685571
 21
33.394522835243663
 31
0.0
  0
LINE
  5
25D4
  8
3
 10
23.02640285468576
 20
33.521522835243672
 30
0.0
 11
23.15340285468557
 21
33.521522835243672
 31
0.0
  0
LINE
  5
25D5
  8
3
 10
27.725402854685569
 20
33.521522835243672
 30
0.0
 11
27.725402854685569
 21
33.394522835243663
 31
0.0
  0
LINE
  5
25D6
  8
3
 10
27.598402854685759
 20
33.521522835243672
 30
0.0
 11
27.725402854685569
 21
33.521522835243672
 31
0.0
  0
LINE
  5
25D7
  8
3
 10
27.598402854685759
 20
35.680522835243643
 30
0.0
 11
27.598402854685759
 21
35.807522835243653
 31
0.0
  0
LINE
  5
25D8
  8
3
 10
27.598402854685759
 20
35.807522835243653
 30
0.0
 11
26.518902854685791
 21
36.887022741448114
 31
0.0
  0
LINE
  5
25D9
  8
3
 10
26.518902854685791
 20
34.601022741448112
 30
0.0
 11
27.598402854685759
 21
35.680522835243643
 31
0.0
  0
LINE
  5
25DA
  8
3
 10
26.518902854685791
 20
34.601022741448112
 30
0.0
 11
26.518902854685791
 21
36.887022741448114
 31
0.0
  0
LINE
  5
25DB
  8
3
 10
26.518902854685791
 20
36.887022741448114
 30
0.0
 11
25.4394028546856
 21
35.807522835243653
 31
0.0
  0
LINE
  5
25DC
  8
3
 10
25.439402854685571
 20
35.680522835243657
 30
0.0
 11
26.518902854685791
 21
34.601022741448112
 31
0.0
  0
LINE
  5
25DD
  8
3
 10
30.011402854685571
 20
35.807522835243653
 30
0.0
 11
31.09090285468568
 21
36.88702274144822
 31
0.0
  0
LINE
  5
25DE
  8
3
 10
28.804902854685569
 20
36.887022741448114
 30
0.0
 11
31.09090285468568
 21
36.88702274144822
 31
0.0
  0
LINE
  5
25DF
  8
3
 10
28.804902854685679
 20
25.45702274144821
 30
0.0
 11
28.804902854685679
 21
27.743022741448218
 31
0.0
  0
LINE
  5
25E0
  8
3
 10
27.725402854685569
 20
26.66352283524364
 30
0.0
 11
28.804902854685679
 21
27.743022741448218
 31
0.0
  0
LINE
  5
25E1
  8
3
 10
27.725402854685569
 20
26.66352283524364
 30
0.0
 11
27.725402854685569
 21
26.536522835243659
 31
0.0
  0
LINE
  5
25E2
  8
3
 10
28.804902854685679
 20
34.601022741448219
 30
0.0
 11
31.09090285468568
 21
34.601022741448219
 31
0.0
  0
LINE
  5
25E3
  8
3
 10
23.02640285468576
 20
26.536522835243659
 30
0.0
 11
23.02640285468576
 21
26.66352283524364
 31
0.0
  0
LINE
  5
25E4
  8
3
 10
21.94690285468571
 20
25.457022741447989
 30
0.0
 11
21.94690285468571
 21
27.743022741447991
 31
0.0
  0
LINE
  5
25E5
  8
3
 10
28.804902854685679
 20
25.45702274144821
 30
0.0
 11
31.09090285468568
 21
25.45702274144821
 31
0.0
  0
LINE
  5
25E6
  8
3
 10
29.884402854685788
 20
26.536522835243659
 30
0.0
 11
28.804902854685679
 21
25.45702274144821
 31
0.0
  0
LINE
  5
25E7
  8
3
 10
26.518902854685571
 20
25.4570227414481
 30
0.0
 11
28.804902854685679
 21
25.45702274144821
 31
0.0
  0
LINE
  5
25E8
  8
3
 10
28.804902854685679
 20
25.45702274144821
 30
0.0
 11
27.725402854685569
 21
26.536522835243659
 31
0.0
  0
LINE
  5
25E9
  8
3
 10
27.725402854685569
 20
26.536522835243659
 30
0.0
 11
27.598402854685819
 21
26.536522835243659
 31
0.0
  0
LINE
  5
25EA
  8
3
 10
26.518902854685571
 20
25.4570227414481
 30
0.0
 11
27.598402854685819
 21
26.536522835243659
 31
0.0
  0
LINE
  5
25EB
  8
3
 10
29.884402854685788
 20
28.82252283524366
 30
0.0
 11
28.804902854685679
 21
27.743022741448218
 31
0.0
  0
LINE
  5
25EC
  8
3
 10
27.598402854685759
 20
33.394522835243663
 30
0.0
 11
27.598402854685759
 21
33.521522835243672
 31
0.0
  0
LINE
  5
25ED
  8
3
 10
27.598402854685759
 20
33.521522835243672
 30
0.0
 11
26.518902854685791
 21
34.601022741448112
 31
0.0
  0
LINE
  5
25EE
  8
3
 10
26.518902854685681
 20
32.31502274144799
 30
0.0
 11
26.518902854685791
 21
34.601022741448112
 31
0.0
  0
LINE
  5
25EF
  8
3
 10
28.804902854685679
 20
30.029022741447989
 30
0.0
 11
29.884402854685788
 21
28.949522835243641
 31
0.0
  0
LINE
  5
25F0
  8
3
 10
23.02640285468576
 20
35.680522835243657
 30
0.0
 11
23.02640285468576
 21
35.807522835243653
 31
0.0
  0
LINE
  5
25F1
  8
3
 10
21.94690285468571
 20
34.601022741447991
 30
0.0
 11
21.94690285468559
 21
36.887022741448114
 31
0.0
  0
LINE
  5
25F2
  8
3
 10
29.884402854685788
 20
31.235522835243671
 30
0.0
 11
30.011402854685571
 21
31.235522835243671
 31
0.0
  0
LINE
  5
25F3
  8
3
 10
28.804902854685679
 20
32.31502274144799
 30
0.0
 11
29.884402854685788
 21
31.235522835243671
 31
0.0
  0
LINE
  5
25F4
  8
3
 10
30.011402854685571
 20
35.807522835243653
 30
0.0
 11
30.011402854685571
 21
35.680522835243657
 31
0.0
  0
LINE
  5
25F5
  8
3
 10
29.884402854685788
 20
35.807522835243653
 30
0.0
 11
30.011402854685571
 21
35.807522835243653
 31
0.0
  0
LINE
  5
25F6
  8
3
 10
30.011402854685571
 20
35.680522835243657
 30
0.0
 11
29.884402854685788
 21
35.680522835243643
 31
0.0
  0
LINE
  5
25F7
  8
3
 10
21.94690285468571
 20
30.02902274144822
 30
0.0
 11
23.02640285468576
 21
28.949522835243641
 31
0.0
  0
LINE
  5
25F8
  8
3
 10
23.02640285468576
 20
28.949522835243641
 30
0.0
 11
23.15340285468557
 21
28.949522835243641
 31
0.0
  0
LINE
  5
25F9
  8
3
 10
23.15340285468557
 20
28.949522835243641
 30
0.0
 11
24.23290285468568
 21
30.02902274144822
 31
0.0
  0
LINE
  5
25FA
  8
3
 10
29.884402854685788
 20
28.949522835243641
 30
0.0
 11
30.011402854685571
 21
28.949522835243641
 31
0.0
  0
LINE
  5
25FB
  8
3
 10
29.884402854685788
 20
28.82252283524366
 30
0.0
 11
29.884402854685788
 21
28.949522835243641
 31
0.0
  0
LINE
  5
25FC
  8
3
 10
30.011402854685571
 20
28.82252283524366
 30
0.0
 11
29.884402854685788
 21
28.82252283524366
 31
0.0
  0
LINE
  5
25FD
  8
3
 10
29.884402854685788
 20
26.536522835243659
 30
0.0
 11
29.884402854685788
 21
26.66352283524364
 31
0.0
  0
LINE
  5
25FE
  8
3
 10
30.011402854685571
 20
26.536522835243659
 30
0.0
 11
29.884402854685788
 21
26.536522835243659
 31
0.0
  0
LINE
  5
25FF
  8
3
 10
29.884402854685788
 20
33.521522835243672
 30
0.0
 11
30.011402854685571
 21
33.521522835243672
 31
0.0
  0
LINE
  5
2600
  8
3
 10
31.09090285468568
 20
36.88702274144822
 30
0.0
 11
33.376902854685682
 21
36.88702274144822
 31
0.0
  0
LINE
  5
2601
  8
3
 10
24.23290285468568
 20
25.457022741447989
 30
0.0
 11
24.23290285468568
 21
27.743022741447991
 31
0.0
  0
LINE
  5
2602
  8
3
 10
31.09090285468568
 20
34.601022741448219
 30
0.0
 11
33.376902854685682
 21
34.601022741448219
 31
0.0
  0
LINE
  5
2603
  8
3
 10
21.94690285468559
 20
36.887022741448114
 30
0.0
 11
24.232902854685559
 21
36.887022741448114
 31
0.0
  0
LINE
  5
2604
  8
3
 10
21.94690285468559
 20
36.887022741448114
 30
0.0
 11
23.02640285468576
 21
35.807522835243653
 31
0.0
  0
LINE
  5
2605
  8
3
 10
23.02640285468576
 20
35.807522835243653
 30
0.0
 11
23.15340285468557
 21
35.807522835243653
 31
0.0
  0
LINE
  5
2606
  8
3
 10
23.15340285468557
 20
35.807522835243653
 30
0.0
 11
24.232902854685559
 21
36.887022741448114
 31
0.0
  0
LINE
  5
2607
  8
3
 10
25.312402854685789
 20
26.536522835243659
 30
0.0
 11
24.23290285468568
 21
25.457022741447989
 31
0.0
  0
LINE
  5
2608
  8
3
 10
24.23290285468568
 20
25.457022741447989
 30
0.0
 11
26.518902854685571
 21
25.4570227414481
 31
0.0
  0
LINE
  5
2609
  8
3
 10
25.439402854685571
 20
26.536522835243659
 30
0.0
 11
26.518902854685571
 21
25.4570227414481
 31
0.0
  0
LINE
  5
260A
  8
3
 10
28.804902854685679
 20
30.029022741447989
 30
0.0
 11
31.09090285468568
 21
30.029022741447989
 31
0.0
  0
LINE
  5
260B
  8
3
 10
30.011402854685571
 20
31.108522835243662
 30
0.0
 11
29.884402854685788
 21
31.108522835243662
 31
0.0
  0
LINE
  5
260C
  8
3
 10
29.884402854685788
 20
31.108522835243662
 30
0.0
 11
28.804902854685679
 21
30.029022741447989
 31
0.0
  0
LINE
  5
260D
  8
3
 10
32.17040285468579
 20
26.66352283524364
 30
0.0
 11
32.297402854685551
 21
26.66352283524364
 31
0.0
  0
LINE
  5
260E
  8
3
 10
31.09090285468568
 20
27.743022741448218
 30
0.0
 11
33.376902854685682
 21
27.743022741448218
 31
0.0
  0
LINE
  5
260F
  8
3
 10
24.23290285468568
 20
30.02902274144822
 30
0.0
 11
25.312402854685789
 21
28.949522835243641
 31
0.0
  0
LINE
  5
2610
  8
3
 10
26.518902854685681
 20
30.029022741447989
 30
0.0
 11
25.439402854685571
 21
28.94952283524367
 31
0.0
  0
LINE
  5
2611
  8
3
 10
31.09090285468568
 20
30.029022741447989
 30
0.0
 11
33.376902854685682
 21
30.029022741447989
 31
0.0
  0
LINE
  5
2612
  8
3
 10
31.09090285468568
 20
32.31502274144799
 30
0.0
 11
33.376902854685682
 21
32.31502274144799
 31
0.0
  0
LINE
  5
2613
  8
3
 10
25.439402854685571
 20
31.235522835243671
 30
0.0
 11
26.518902854685681
 21
32.31502274144799
 31
0.0
  0
LINE
  5
2614
  8
3
 10
32.17040285468579
 20
35.807522835243653
 30
0.0
 11
32.297402854685551
 21
35.807522835243653
 31
0.0
  0
LINE
  5
2615
  8
3
 10
32.297402854685551
 20
35.680522835243657
 30
0.0
 11
32.17040285468579
 21
35.680522835243657
 31
0.0
  0
LINE
  5
2616
  8
3
 10
25.439402854685571
 20
31.235522835243671
 30
0.0
 11
25.439402854685571
 21
31.108522835243662
 31
0.0
  0
LINE
  5
2617
  8
3
 10
25.312402854685789
 20
31.235522835243671
 30
0.0
 11
25.439402854685571
 21
31.235522835243671
 31
0.0
  0
LINE
  5
2618
  8
3
 10
32.17040285468579
 20
28.949522835243641
 30
0.0
 11
32.297402854685551
 21
28.949522835243641
 31
0.0
  0
LINE
  5
2619
  8
3
 10
32.297402854685551
 20
28.82252283524366
 30
0.0
 11
32.17040285468579
 21
28.82252283524366
 31
0.0
  0
LINE
  5
261A
  8
3
 10
25.312402854685789
 20
26.536522835243659
 30
0.0
 11
25.312402854685789
 21
26.66352283524364
 31
0.0
  0
LINE
  5
261B
  8
3
 10
25.439402854685571
 20
26.536522835243659
 30
0.0
 11
25.312402854685789
 21
26.536522835243659
 31
0.0
  0
LINE
  5
261C
  8
3
 10
25.439402854685571
 20
26.66352283524364
 30
0.0
 11
25.439402854685571
 21
26.536522835243659
 31
0.0
  0
LINE
  5
261D
  8
3
 10
32.17040285468579
 20
33.521522835243672
 30
0.0
 11
32.297402854685551
 21
33.521522835243672
 31
0.0
  0
LINE
  5
261E
  8
3
 10
32.297402854685551
 20
33.394522835243663
 30
0.0
 11
32.17040285468579
 21
33.394522835243663
 31
0.0
  0
LINE
  5
261F
  8
3
 10
21.94690285468571
 20
27.743022741447991
 30
0.0
 11
23.02640285468576
 21
26.66352283524364
 31
0.0
  0
LINE
  5
2620
  8
3
 10
23.02640285468576
 20
26.66352283524364
 30
0.0
 11
23.15340285468557
 21
26.66352283524364
 31
0.0
  0
LINE
  5
2621
  8
3
 10
23.15340285468557
 20
26.66352283524364
 30
0.0
 11
24.23290285468568
 21
27.743022741447991
 31
0.0
  0
LINE
  5
2622
  8
3
 10
23.02640285468576
 20
33.394522835243663
 30
0.0
 11
23.02640285468576
 21
33.521522835243672
 31
0.0
  0
LINE
  5
2623
  8
3
 10
21.94690285468571
 20
34.601022741447991
 30
0.0
 11
23.02640285468576
 21
33.521522835243672
 31
0.0
  0
LINE
  5
2624
  8
3
 10
21.94690285468571
 20
32.31502274144799
 30
0.0
 11
21.94690285468571
 21
34.601022741447991
 31
0.0
  0
LINE
  5
2625
  8
3
 10
23.15340285468557
 20
35.680522835243657
 30
0.0
 11
23.02640285468576
 21
35.680522835243657
 31
0.0
  0
LINE
  5
2626
  8
3
 10
23.02640285468576
 20
35.680522835243657
 30
0.0
 11
21.94690285468571
 21
34.601022741447991
 31
0.0
  0
LINE
  5
2627
  8
3
 10
21.94690285468571
 20
34.601022741447991
 30
0.0
 11
24.23290285468568
 21
34.601022741447991
 31
0.0
  0
LINE
  5
2628
  8
3
 10
24.23290285468568
 20
34.601022741447991
 30
0.0
 11
23.15340285468557
 21
35.680522835243657
 31
0.0
  0
LINE
  5
2629
  8
3
 10
23.02640285468576
 20
31.108522835243662
 30
0.0
 11
23.02640285468576
 21
31.235522835243671
 31
0.0
  0
LINE
  5
262A
  8
3
 10
23.15340285468557
 20
31.235522835243671
 30
0.0
 11
23.15340285468557
 21
31.108522835243662
 31
0.0
  0
LINE
  5
262B
  8
3
 10
28.804902854685679
 20
32.31502274144799
 30
0.0
 11
27.725402854685569
 21
33.394522835243663
 31
0.0
  0
LINE
  5
262C
  8
3
 10
27.725402854685569
 20
33.394522835243663
 30
0.0
 11
27.598402854685759
 21
33.394522835243663
 31
0.0
  0
LINE
  5
262D
  8
3
 10
27.598402854685759
 20
33.394522835243663
 30
0.0
 11
26.518902854685681
 21
32.31502274144799
 31
0.0
  0
LINE
  5
262E
  8
3
 10
27.598402854685759
 20
31.235522835243671
 30
0.0
 11
27.725402854685569
 21
31.235522835243671
 31
0.0
  0
LINE
  5
262F
  8
3
 10
27.725402854685569
 20
31.235522835243671
 30
0.0
 11
28.804902854685679
 21
32.31502274144799
 31
0.0
  0
LINE
  5
2630
  8
3
 10
26.518902854685681
 20
32.31502274144799
 30
0.0
 11
28.804902854685679
 21
32.31502274144799
 31
0.0
  0
LINE
  5
2631
  8
3
 10
26.518902854685681
 20
32.31502274144799
 30
0.0
 11
27.598402854685759
 21
31.235522835243671
 31
0.0
  0
LINE
  5
2632
  8
3
 10
30.011402854685571
 20
31.235522835243671
 30
0.0
 11
31.09090285468568
 21
32.31502274144799
 31
0.0
  0
LINE
  5
2633
  8
3
 10
30.011402854685571
 20
31.235522835243671
 30
0.0
 11
30.011402854685571
 21
31.108522835243662
 31
0.0
  0
LINE
  5
2634
  8
3
 10
31.09090285468568
 20
30.029022741447989
 30
0.0
 11
30.011402854685571
 21
31.108522835243662
 31
0.0
  0
LINE
  5
2635
  8
3
 10
23.15340285468557
 20
28.82252283524366
 30
0.0
 11
23.02640285468576
 21
28.82252283524366
 31
0.0
  0
LINE
  5
2636
  8
3
 10
23.02640285468576
 20
28.82252283524366
 30
0.0
 11
21.94690285468571
 21
27.743022741447991
 31
0.0
  0
LINE
  5
2637
  8
3
 10
21.94690285468571
 20
27.743022741447991
 30
0.0
 11
24.23290285468568
 21
27.743022741447991
 31
0.0
  0
LINE
  5
2638
  8
3
 10
24.23290285468568
 20
27.743022741447991
 30
0.0
 11
23.15340285468557
 21
28.82252283524366
 31
0.0
  0
LINE
  5
2639
  8
3
 10
32.17040285468579
 20
28.82252283524366
 30
0.0
 11
32.17040285468579
 21
28.949522835243641
 31
0.0
  0
LINE
  5
263A
  8
3
 10
31.09090285468568
 20
30.029022741447989
 30
0.0
 11
32.17040285468579
 21
28.949522835243641
 31
0.0
  0
LINE
  5
263B
  8
3
 10
32.17040285468579
 20
28.82252283524366
 30
0.0
 11
31.09090285468568
 21
27.743022741448218
 31
0.0
  0
LINE
  5
263C
  8
3
 10
31.09090285468568
 20
27.743022741448218
 30
0.0
 11
31.09090285468568
 21
30.029022741447989
 31
0.0
  0
LINE
  5
263D
  8
3
 10
30.011402854685571
 20
28.949522835243641
 30
0.0
 11
31.09090285468568
 21
30.029022741447989
 31
0.0
  0
LINE
  5
263E
  8
3
 10
30.011402854685571
 20
28.949522835243641
 30
0.0
 11
30.011402854685571
 21
28.82252283524366
 31
0.0
  0
LINE
  5
263F
  8
3
 10
31.09090285468568
 20
27.743022741448218
 30
0.0
 11
30.011402854685571
 21
28.82252283524366
 31
0.0
  0
LINE
  5
2640
  8
3
 10
32.17040285468579
 20
26.536522835243659
 30
0.0
 11
32.17040285468579
 21
26.66352283524364
 31
0.0
  0
LINE
  5
2641
  8
3
 10
31.09090285468568
 20
27.743022741448218
 30
0.0
 11
32.17040285468579
 21
26.66352283524364
 31
0.0
  0
LINE
  5
2642
  8
3
 10
31.09090285468568
 20
25.45702274144821
 30
0.0
 11
31.09090285468568
 21
27.743022741448218
 31
0.0
  0
LINE
  5
2643
  8
3
 10
30.011402854685571
 20
26.66352283524364
 30
0.0
 11
30.011402854685571
 21
26.536522835243659
 31
0.0
  0
LINE
  5
2644
  8
3
 10
31.09090285468568
 20
25.45702274144821
 30
0.0
 11
30.011402854685571
 21
26.536522835243659
 31
0.0
  0
LINE
  5
2645
  8
3
 10
25.312402854685789
 20
28.82252283524366
 30
0.0
 11
25.312402854685789
 21
28.949522835243641
 31
0.0
  0
LINE
  5
2646
  8
3
 10
25.439402854685571
 20
28.94952283524367
 30
0.0
 11
25.439402854685571
 21
28.82252283524366
 31
0.0
  0
LINE
  5
2647
  8
3
 10
25.312402854685789
 20
28.949522835243641
 30
0.0
 11
25.439402854685571
 21
28.94952283524367
 31
0.0
  0
LINE
  5
2648
  8
3
 10
30.011402854685571
 20
33.521522835243672
 30
0.0
 11
31.09090285468568
 21
34.601022741448219
 31
0.0
  0
LINE
  5
2649
  8
3
 10
30.011402854685571
 20
33.521522835243672
 30
0.0
 11
30.011402854685571
 21
33.394522835243663
 31
0.0
  0
LINE
  5
264A
  8
3
 10
31.09090285468568
 20
25.45702274144821
 30
0.0
 11
33.376902854685682
 21
25.45702274144821
 31
0.0
  0
LINE
  5
264B
  8
3
 10
32.297402854685551
 20
26.536522835243659
 30
0.0
 11
32.17040285468579
 21
26.536522835243659
 31
0.0
  0
LINE
  5
264C
  8
3
 10
32.17040285468579
 20
26.536522835243659
 30
0.0
 11
31.09090285468568
 21
25.45702274144821
 31
0.0
  0
LINE
  5
264D
  8
3
 10
25.439402854685571
 20
33.394522835243663
 30
0.0
 11
25.312402854685789
 21
33.394522835243663
 31
0.0
  0
LINE
  5
264E
  8
3
 10
24.23290285468568
 20
32.31502274144799
 30
0.0
 11
26.518902854685681
 21
32.31502274144799
 31
0.0
  0
LINE
  5
264F
  8
3
 10
26.518902854685681
 20
32.31502274144799
 30
0.0
 11
25.439402854685571
 21
33.394522835243663
 31
0.0
  0
LINE
  5
2650
  8
3
 10
29.884402854685788
 20
26.66352283524364
 30
0.0
 11
30.011402854685571
 21
26.66352283524364
 31
0.0
  0
LINE
  5
2651
  8
3
 10
30.011402854685571
 20
26.66352283524364
 30
0.0
 11
31.09090285468568
 21
27.743022741448218
 31
0.0
  0
LINE
  5
2652
  8
3
 10
28.804902854685679
 20
27.743022741448218
 30
0.0
 11
31.09090285468568
 21
27.743022741448218
 31
0.0
  0
LINE
  5
2653
  8
3
 10
28.804902854685679
 20
27.743022741448218
 30
0.0
 11
29.884402854685788
 21
26.66352283524364
 31
0.0
  0
LINE
  5
2654
  8
3
 10
28.804902854685679
 20
32.31502274144799
 30
0.0
 11
31.09090285468568
 21
32.31502274144799
 31
0.0
  0
LINE
  5
2655
  8
3
 10
31.09090285468568
 20
32.31502274144799
 30
0.0
 11
30.011402854685571
 21
33.394522835243663
 31
0.0
  0
LINE
  5
2656
  8
3
 10
30.011402854685571
 20
33.394522835243663
 30
0.0
 11
29.884402854685788
 21
33.394522835243663
 31
0.0
  0
LINE
  5
2657
  8
3
 10
23.15340285468557
 20
33.394522835243663
 30
0.0
 11
23.02640285468576
 21
33.394522835243663
 31
0.0
  0
LINE
  5
2658
  8
3
 10
23.02640285468576
 20
33.394522835243663
 30
0.0
 11
21.94690285468571
 21
32.31502274144799
 31
0.0
  0
LINE
  5
2659
  8
3
 10
24.23290285468568
 20
27.743022741447991
 30
0.0
 11
25.312402854685789
 21
26.66352283524364
 31
0.0
  0
LINE
  5
265A
  8
3
 10
25.312402854685789
 20
26.66352283524364
 30
0.0
 11
25.439402854685571
 21
26.66352283524364
 31
0.0
  0
LINE
  5
265B
  8
3
 10
26.518902854685571
 20
27.743022741448101
 30
0.0
 11
25.439402854685571
 21
26.66352283524364
 31
0.0
  0
LINE
  5
265C
  8
3
 10
21.94690285468571
 20
32.31502274144799
 30
0.0
 11
24.23290285468568
 21
32.31502274144799
 31
0.0
  0
LINE
  5
265D
  8
3
 10
21.94690285468571
 20
32.31502274144799
 30
0.0
 11
23.02640285468576
 21
31.235522835243671
 31
0.0
  0
LINE
  5
265E
  8
3
 10
23.02640285468576
 20
31.235522835243671
 30
0.0
 11
23.15340285468557
 21
31.235522835243671
 31
0.0
  0
LINE
  5
265F
  8
3
 10
23.15340285468557
 20
31.235522835243671
 30
0.0
 11
24.23290285468568
 21
32.31502274144799
 31
0.0
  0
LINE
  5
2660
  8
3
 10
25.312402854685789
 20
35.680522835243657
 30
0.0
 11
25.312402854685789
 21
35.807522835243653
 31
0.0
  0
LINE
  5
2661
  8
3
 10
25.439402854685571
 20
35.680522835243657
 30
0.0
 11
25.312402854685789
 21
35.680522835243657
 31
0.0
  0
LINE
  5
2662
  8
3
 10
25.4394028546856
 20
35.807522835243653
 30
0.0
 11
25.439402854685571
 21
35.680522835243657
 31
0.0
  0
LINE
  5
2663
  8
3
 10
25.312402854685789
 20
35.807522835243653
 30
0.0
 11
25.4394028546856
 21
35.807522835243653
 31
0.0
  0
LINE
  5
2664
  8
3
 10
23.15340285468557
 20
31.108522835243662
 30
0.0
 11
23.02640285468576
 21
31.108522835243662
 31
0.0
  0
LINE
  5
2665
  8
3
 10
23.02640285468576
 20
31.108522835243662
 30
0.0
 11
21.94690285468571
 21
30.02902274144822
 31
0.0
  0
LINE
  5
2666
  8
3
 10
21.94690285468571
 20
30.02902274144822
 30
0.0
 11
24.23290285468568
 21
30.02902274144822
 31
0.0
  0
LINE
  5
2667
  8
3
 10
24.23290285468568
 20
30.02902274144822
 30
0.0
 11
23.15340285468557
 21
31.108522835243662
 31
0.0
  0
LINE
  5
2668
  8
3
 10
23.15340285468557
 20
26.536522835243659
 30
0.0
 11
23.02640285468576
 21
26.536522835243659
 31
0.0
  0
LINE
  5
2669
  8
3
 10
23.02640285468576
 20
26.536522835243659
 30
0.0
 11
21.94690285468571
 21
25.457022741447989
 31
0.0
  0
LINE
  5
266A
  8
3
 10
21.94690285468571
 20
25.457022741447989
 30
0.0
 11
24.23290285468568
 21
25.457022741447989
 31
0.0
  0
LINE
  5
266B
  8
3
 10
24.23290285468568
 20
25.457022741447989
 30
0.0
 11
23.15340285468557
 21
26.536522835243659
 31
0.0
  0
LINE
  5
266C
  8
3
 10
25.312402854685789
 20
33.394522835243663
 30
0.0
 11
25.312402854685789
 21
33.521522835243672
 31
0.0
  0
LINE
  5
266D
  8
3
 10
25.312402854685789
 20
33.394522835243663
 30
0.0
 11
24.23290285468568
 21
32.31502274144799
 31
0.0
  0
LINE
  5
266E
  8
3
 10
24.23290285468568
 20
34.601022741447991
 30
0.0
 11
26.518902854685791
 21
34.601022741448112
 31
0.0
  0
LINE
  5
266F
  8
3
 10
24.23290285468568
 20
34.601022741447991
 30
0.0
 11
25.312402854685789
 21
33.521522835243672
 31
0.0
  0
LINE
  5
2670
  8
3
 10
25.312402854685789
 20
33.521522835243672
 30
0.0
 11
25.4394028546856
 21
33.521522835243672
 31
0.0
  0
LINE
  5
2671
  8
3
 10
26.518902854685791
 20
34.601022741448112
 30
0.0
 11
25.4394028546856
 21
33.521522835243672
 31
0.0
  0
LINE
  5
2672
  8
3
 10
33.376902854685682
 20
34.601022741448219
 30
0.0
 11
33.376902854685682
 21
36.88702274144822
 31
0.0
  0
LINE
  5
2673
  8
3
 10
32.297402854685551
 20
35.807522835243653
 30
0.0
 11
33.376902854685682
 21
36.88702274144822
 31
0.0
  0
LINE
  5
2674
  8
3
 10
32.297402854685551
 20
35.807522835243653
 30
0.0
 11
32.297402854685551
 21
35.680522835243657
 31
0.0
  0
LINE
  5
2675
  8
3
 10
33.376902854685682
 20
34.601022741448219
 30
0.0
 11
32.297402854685551
 21
35.680522835243657
 31
0.0
  0
LINE
  5
2676
  8
3
 10
32.17040285468579
 20
35.680522835243657
 30
0.0
 11
32.17040285468579
 21
35.807522835243653
 31
0.0
  0
LINE
  5
2677
  8
3
 10
31.09090285468568
 20
36.88702274144822
 30
0.0
 11
32.17040285468579
 21
35.807522835243653
 31
0.0
  0
LINE
  5
2678
  8
3
 10
31.09090285468568
 20
34.601022741448219
 30
0.0
 11
31.09090285468568
 21
36.88702274144822
 31
0.0
  0
LINE
  5
2679
  8
3
 10
32.17040285468579
 20
35.680522835243657
 30
0.0
 11
31.09090285468568
 21
34.601022741448219
 31
0.0
  0
LINE
  5
267A
  8
3
 10
25.439402854685571
 20
28.82252283524366
 30
0.0
 11
25.312402854685789
 21
28.82252283524366
 31
0.0
  0
LINE
  5
267B
  8
3
 10
25.312402854685789
 20
28.82252283524366
 30
0.0
 11
24.23290285468568
 21
27.743022741447991
 31
0.0
  0
LINE
  5
267C
  8
3
 10
24.23290285468568
 20
27.743022741447991
 30
0.0
 11
26.518902854685571
 21
27.743022741448101
 31
0.0
  0
LINE
  5
267D
  8
3
 10
25.439402854685571
 20
28.82252283524366
 30
0.0
 11
26.518902854685571
 21
27.743022741448101
 31
0.0
  0
LINE
  5
267E
  8
3
 10
33.376902854685682
 20
27.743022741448218
 30
0.0
 11
33.376902854685682
 21
30.029022741447989
 31
0.0
  0
LINE
  5
267F
  8
3
 10
32.297402854685551
 20
28.949522835243641
 30
0.0
 11
33.376902854685682
 21
30.029022741447989
 31
0.0
  0
LINE
  5
2680
  8
3
 10
32.297402854685551
 20
28.949522835243641
 30
0.0
 11
32.297402854685551
 21
28.82252283524366
 31
0.0
  0
LINE
  5
2681
  8
3
 10
33.376902854685682
 20
27.743022741448218
 30
0.0
 11
32.297402854685551
 21
28.82252283524366
 31
0.0
  0
LINE
  5
2682
  8
3
 10
33.376902854685682
 20
30.029022741447989
 30
0.0
 11
33.376902854685682
 21
32.31502274144799
 31
0.0
  0
LINE
  5
2683
  8
3
 10
32.297402854685551
 20
31.235522835243671
 30
0.0
 11
33.376902854685682
 21
32.31502274144799
 31
0.0
  0
LINE
  5
2684
  8
3
 10
32.297402854685551
 20
31.235522835243671
 30
0.0
 11
32.297402854685551
 21
31.108522835243662
 31
0.0
  0
LINE
  5
2685
  8
3
 10
33.376902854685682
 20
30.029022741447989
 30
0.0
 11
32.297402854685551
 21
31.108522835243662
 31
0.0
  0
LINE
  5
2686
  8
3
 10
29.884402854685788
 20
33.394522835243663
 30
0.0
 11
29.884402854685788
 21
33.521522835243672
 31
0.0
  0
LINE
  5
2687
  8
3
 10
28.804902854685679
 20
34.601022741448219
 30
0.0
 11
29.884402854685788
 21
33.521522835243672
 31
0.0
  0
LINE
  5
2688
  8
3
 10
28.804902854685679
 20
32.31502274144799
 30
0.0
 11
28.804902854685679
 21
34.601022741448219
 31
0.0
  0
LINE
  5
2689
  8
3
 10
29.884402854685788
 20
33.394522835243663
 30
0.0
 11
28.804902854685679
 21
32.31502274144799
 31
0.0
  0
LINE
  5
268A
  8
3
 10
29.884402854685788
 20
35.680522835243643
 30
0.0
 11
29.884402854685788
 21
35.807522835243653
 31
0.0
  0
LINE
  5
268B
  8
3
 10
28.804902854685569
 20
36.887022741448114
 30
0.0
 11
29.884402854685788
 21
35.807522835243653
 31
0.0
  0
LINE
  5
268C
  8
3
 10
28.804902854685679
 20
34.601022741448219
 30
0.0
 11
28.804902854685569
 21
36.887022741448114
 31
0.0
  0
LINE
  5
268D
  8
3
 10
29.884402854685788
 20
35.680522835243643
 30
0.0
 11
28.804902854685679
 21
34.601022741448219
 31
0.0
  0
LINE
  5
268E
  8
3
 10
24.23290285468568
 20
32.31502274144799
 30
0.0
 11
24.23290285468568
 21
34.601022741447991
 31
0.0
  0
LINE
  5
268F
  8
3
 10
23.15340285468557
 20
33.521522835243672
 30
0.0
 11
24.23290285468568
 21
34.601022741447991
 31
0.0
  0
LINE
  5
2690
  8
3
 10
23.15340285468557
 20
33.521522835243672
 30
0.0
 11
23.15340285468557
 21
33.394522835243663
 31
0.0
  0
LINE
  5
2691
  8
3
 10
24.23290285468568
 20
32.31502274144799
 30
0.0
 11
23.15340285468557
 21
33.394522835243663
 31
0.0
  0
LINE
  5
2692
  8
3
 10
26.518902854685571
 20
27.743022741448101
 30
0.0
 11
28.804902854685679
 21
27.743022741448218
 31
0.0
  0
LINE
  5
2693
  8
3
 10
28.804902854685679
 20
27.743022741448218
 30
0.0
 11
27.725402854685569
 21
28.82252283524366
 31
0.0
  0
LINE
  5
2694
  8
3
 10
27.725402854685569
 20
28.82252283524366
 30
0.0
 11
27.598402854685819
 21
28.82252283524366
 31
0.0
  0
LINE
  5
2695
  8
3
 10
26.518902854685571
 20
27.743022741448101
 30
0.0
 11
27.598402854685819
 21
28.82252283524366
 31
0.0
  0
LINE
  5
2696
  8
3
 10
33.376902854685682
 20
25.45702274144821
 30
0.0
 11
33.376902854685682
 21
27.743022741448218
 31
0.0
  0
LINE
  5
2697
  8
3
 10
32.297402854685551
 20
26.66352283524364
 30
0.0
 11
33.376902854685682
 21
27.743022741448218
 31
0.0
  0
LINE
  5
2698
  8
3
 10
32.297402854685551
 20
26.66352283524364
 30
0.0
 11
32.297402854685551
 21
26.536522835243659
 31
0.0
  0
LINE
  5
2699
  8
3
 10
33.376902854685682
 20
25.45702274144821
 30
0.0
 11
32.297402854685551
 21
26.536522835243659
 31
0.0
  0
LINE
  5
269A
  8
3
 10
32.17040285468579
 20
31.108522835243662
 30
0.0
 11
32.17040285468579
 21
31.235522835243671
 31
0.0
  0
LINE
  5
269B
  8
3
 10
31.09090285468568
 20
32.31502274144799
 30
0.0
 11
32.17040285468579
 21
31.235522835243671
 31
0.0
  0
LINE
  5
269C
  8
3
 10
31.09090285468568
 20
30.029022741447989
 30
0.0
 11
31.09090285468568
 21
32.31502274144799
 31
0.0
  0
LINE
  5
269D
  8
3
 10
32.17040285468579
 20
31.108522835243662
 30
0.0
 11
31.09090285468568
 21
30.029022741447989
 31
0.0
  0
LINE
  5
269E
  8
3
 10
25.312402854685789
 20
31.108522835243662
 30
0.0
 11
25.312402854685789
 21
31.235522835243671
 31
0.0
  0
LINE
  5
269F
  8
3
 10
24.23290285468568
 20
32.31502274144799
 30
0.0
 11
25.312402854685789
 21
31.235522835243671
 31
0.0
  0
LINE
  5
26A0
  8
3
 10
24.23290285468568
 20
30.02902274144822
 30
0.0
 11
24.23290285468568
 21
32.31502274144799
 31
0.0
  0
LINE
  5
26A1
  8
3
 10
33.376902854685682
 20
32.31502274144799
 30
0.0
 11
33.376902854685682
 21
34.601022741448219
 31
0.0
  0
LINE
  5
26A2
  8
3
 10
32.297402854685551
 20
33.521522835243672
 30
0.0
 11
33.376902854685682
 21
34.601022741448219
 31
0.0
  0
LINE
  5
26A3
  8
3
 10
32.297402854685551
 20
33.521522835243672
 30
0.0
 11
32.297402854685551
 21
33.394522835243663
 31
0.0
  0
LINE
  5
26A4
  8
3
 10
33.376902854685682
 20
32.31502274144799
 30
0.0
 11
32.297402854685551
 21
33.394522835243663
 31
0.0
  0
LINE
  5
26A5
  8
3
 10
32.17040285468579
 20
33.394522835243663
 30
0.0
 11
32.17040285468579
 21
33.521522835243672
 31
0.0
  0
LINE
  5
26A6
  8
3
 10
31.09090285468568
 20
34.601022741448219
 30
0.0
 11
32.17040285468579
 21
33.521522835243672
 31
0.0
  0
LINE
  5
26A7
  8
3
 10
31.09090285468568
 20
32.31502274144799
 30
0.0
 11
31.09090285468568
 21
34.601022741448219
 31
0.0
  0
LINE
  5
26A8
  8
3
 10
32.17040285468579
 20
33.394522835243663
 30
0.0
 11
31.09090285468568
 21
32.31502274144799
 31
0.0
  0
LINE
  5
26A9
  8
3
 10
25.439402854685571
 20
31.108522835243662
 30
0.0
 11
25.312402854685789
 21
31.108522835243662
 31
0.0
  0
LINE
  5
26AA
  8
3
 10
25.312402854685789
 20
31.108522835243662
 30
0.0
 11
24.23290285468568
 21
30.02902274144822
 31
0.0
  0
LINE
  5
26AB
  8
3
 10
24.23290285468568
 20
30.02902274144822
 30
0.0
 11
26.518902854685681
 21
30.029022741447989
 31
0.0
  0
LINE
  5
26AC
  8
3
 10
25.439402854685571
 20
31.108522835243662
 30
0.0
 11
26.518902854685681
 21
30.029022741447989
 31
0.0
  0
TEXT
  5
276F
  8
0
 62
     3
 10
0.0
 20
0.0
 30
0.0
 40
5.0
  1
CS-4EF
  7
STANDARD1
  0
ENDSEC
  0
EOF
