  0
SECTION
  2
HEADER
  9
$ACADVER
  1
AC1009
  9
$INSBASE
 10
0.0
 20
0.0
 30
0.0
  9
$EXTMIN
 10
0.0
 20
-2.960436562073669
 30
0.0
  9
$EXTMAX
 10
285.22409399999998
 20
194.15842799999999
 30
0.0
  9
$LIMMIN
 10
0.0
 20
0.0
  9
$LIMMAX
 10
375.0
 20
270.0
  9
$ORTHOMODE
 70
     1
  9
$REGENMODE
 70
     1
  9
$FILLMODE
 70
     1
  9
$QTEXTMODE
 70
     0
  9
$MIRRTEXT
 70
     0
  9
$DRAGMODE
 70
     2
  9
$LTSCALE
 40
10.0
  9
$OSMODE
 70
    37
  9
$ATTMODE
 70
     1
  9
$TEXTSIZE
 40
0.2
  9
$TRACEWID
 40
0.05
  9
$TEXTSTYLE
  7
STANDARD
  9
$CLAYER
  8
0
  9
$CELTYPE
  6
BYLAYER
  9
$CECOLOR
 62
   256
  9
$DIMSCALE
 40
1.0
  9
$DIMASZ
 40
3.0
  9
$DIMEXO
 40
1.0
  9
$DIMDLI
 40
6.0
  9
$DIMRND
 40
0.0
  9
$DIMDLE
 40
0.0
  9
$DIMEXE
 40
1.0
  9
$DIMTP
 40
495.0
  9
$DIMTM
 40
0.0
  9
$DIMTXT
 40
3.0
  9
$DIMCEN
 40
0.0
  9
$DIMTSZ
 40
0.0
  9
$DIMTOL
 70
     0
  9
$DIMLIM
 70
     0
  9
$DIMTIH
 70
     0
  9
$DIMTOH
 70
     0
  9
$DIMSE1
 70
     0
  9
$DIMSE2
 70
     0
  9
$DIMTAD
 70
     1
  9
$DIMZIN
 70
     0
  9
$DIMBLK
  1

  9
$DIMASO
 70
     0
  9
$DIMSHO
 70
     0
  9
$DIMPOST
  1

  9
$DIMAPOST
  1

  9
$DIMALT
 70
     0
  9
$DIMALTD
 70
     2
  9
$DIMALTF
 40
25.399999999999999
  9
$DIMLFAC
 40
1.0
  9
$DIMTOFL
 70
     1
  9
$DIMTVP
 40
0.0
  9
$DIMTIX
 70
     1
  9
$DIMSOXD
 70
     0
  9
$DIMSAH
 70
     0
  9
$DIMBLK1
  1

  9
$DIMBLK2
  1

  9
$DIMSTYLE
  2
STANDARD
  9
$DIMCLRD
 70
     0
  9
$DIMCLRE
 70
     0
  9
$DIMCLRT
 70
     0
  9
$DIMTFAC
 40
1.0
  9
$DIMGAP
 40
0.09
  9
$LUNITS
 70
     2
  9
$LUPREC
 70
     2
  9
$SKETCHINC
 40
0.1
  9
$FILLETRAD
 40
0.5
  9
$AUNITS
 70
     0
  9
$AUPREC
 70
     2
  9
$MENU
  1
E:\r13\win\SUPPORT\ACAD
  9
$ELEVATION
 40
0.0
  9
$PELEVATION
 40
0.0
  9
$THICKNESS
 40
0.0
  9
$LIMCHECK
 70
     0
  9
$BLIPMODE
 70
     0
  9
$CHAMFERA
 40
0.0
  9
$CHAMFERB
 40
0.0
  9
$SKPOLY
 70
     0
  9
$TDCREATE
 40
2449840.3442129628
  9
$TDUPDATE
 40
2457711.3984186109
  9
$TDINDWG
 40
0.0050893981
  9
$TDUSRTIMER
 40
0.0050893981
  9
$USRTIMER
 70
     1
  9
$ANGBASE
 50
0.0
  9
$ANGDIR
 70
     0
  9
$PDMODE
 70
     0
  9
$PDSIZE
 40
0.0
  9
$PLINEWID
 40
0.0
  9
$COORDS
 70
     1
  9
$SPLFRAME
 70
     0
  9
$SPLINETYPE
 70
     6
  9
$SPLINESEGS
 70
     8
  9
$ATTDIA
 70
     0
  9
$ATTREQ
 70
     1
  9
$HANDLING
 70
     1
  9
$HANDSEED
  5
832
  9
$SURFTAB1
 70
     6
  9
$SURFTAB2
 70
     6
  9
$SURFTYPE
 70
     6
  9
$SURFU
 70
     6
  9
$SURFV
 70
     6
  9
$UCSNAME
  2

  9
$UCSORG
 10
0.0
 20
0.0
 30
0.0
  9
$UCSXDIR
 10
1.0
 20
0.0
 30
0.0
  9
$UCSYDIR
 10
0.0
 20
1.0
 30
0.0
  9
$PUCSNAME
  2

  9
$PUCSORG
 10
0.0
 20
0.0
 30
0.0
  9
$PUCSXDIR
 10
1.0
 20
0.0
 30
0.0
  9
$PUCSYDIR
 10
0.0
 20
1.0
 30
0.0
  9
$USERI1
 70
     3
  9
$USERI2
 70
     1
  9
$USERI3
 70
     0
  9
$USERI4
 70
     1
  9
$USERI5
 70
     0
  9
$USERR1
 40
1.0
  9
$USERR2
 40
3.0
  9
$USERR3
 40
3.0
  9
$USERR4
 40
3.0
  9
$USERR5
 40
10.0
  9
$WORLDVIEW
 70
     1
  9
$SHADEDGE
 70
     3
  9
$SHADEDIF
 70
    70
  9
$TILEMODE
 70
     1
  9
$MAXACTVP
 70
    16
  9
$PLIMCHECK
 70
     0
  9
$PEXTMIN
 10
1.0000000000000000E+020
 20
1.0000000000000000E+020
 30
1.0000000000000000E+020
  9
$PEXTMAX
 10
-1.0000000000000000E+020
 20
-1.0000000000000000E+020
 30
-1.0000000000000000E+020
  9
$PLIMMIN
 10
0.0
 20
0.0
  9
$PLIMMAX
 10
12.0
 20
9.0
  9
$UNITMODE
 70
     0
  9
$VISRETAIN
 70
     0
  9
$PLINEGEN
 70
     0
  9
$PSLTSCALE
 70
     0
  0
ENDSEC
  0
SECTION
  2
TABLES
  0
TABLE
  2
VPORT
 70
     1
  0
VPORT
  2
*ACTIVE
 70
     0
 10
0.0
 20
0.0
 11
1.0
 21
1.0
 12
205.0028639822583
 22
95.590687308839847
 13
0.0
 23
0.0
 14
1.0
 24
1.0
 15
10.0
 25
10.0
 16
0.0
 26
0.0
 36
1.0
 17
0.0
 27
0.0
 37
0.0
 40
226.77185619255971
 41
1.816239316239316
 42
50.0
 43
0.0
 44
0.0
 50
0.0
 51
0.0
 71
     0
 72
   100
 73
     1
 74
     0
 75
     0
 76
     0
 77
     0
 78
     0
  0
ENDTAB
  0
TABLE
  2
LTYPE
 70
     4
  0
LTYPE
  2
CONTINUOUS
 70
     0
  3
Solid Line
 72
    65
 73
     0
 40
0.0
  0
LTYPE
  2
CENTER
 70
     0
  3
____ _ ____ _ ____ _ ____ _ ____ _ ____ _ ____
 72
    65
 73
     4
 40
2.0
 49
1.25
 49
-0.25
 49
0.25
 49
-0.25
  0
LTYPE
  2
PHANTOM
 70
     0
  3
_____ _ _ _____ _ _ _____ _ _ _____ _ _ ____
 72
    65
 73
     6
 40
2.5
 49
1.25
 49
-0.25
 49
0.25
 49
-0.25
 49
0.25
 49
-0.25
  0
LTYPE
  2
PHANTOM2
 70
     0
  3
Phantom (.5x) ___ _ _ ___ _ _ ___ _ _ ___ _ _
 72
    65
 73
     6
 40
1.25
 49
0.625
 49
-0.125
 49
0.125
 49
-0.125
 49
0.125
 49
-0.125
  0
ENDTAB
  0
TABLE
  2
LAYER
 70
     3
  0
LAYER
  2
0
 70
     0
 62
     7
  6
CONTINUOUS
  0
LAYER
  2
1
 70
     0
 62
     1
  6
CENTER
  0
LAYER
  2
5
 70
     0
 62
     3
  6
PHANTOM2
  0
ENDTAB
  0
TABLE
  2
STYLE
 70
     2
  0
STYLE
  2
STANDARD
 70
     0
 40
0.0
 41
1.0
 50
0.0
 71
     0
 42
0.2
  3
TXT
  4
BIGFONT
  0
STYLE
  2
STANDARD1
 70
     0
 40
0.0
 41
1.0
 50
0.0
 71
     0
 42
3.0
  3
txt
  4

  0
ENDTAB
  0
TABLE
  2
VIEW
 70
     0
  0
ENDTAB
  0
TABLE
  2
UCS
 70
     0
  0
ENDTAB
  0
TABLE
  2
APPID
 70
     4
  0
APPID
  2
ACAD
 70
     0
  0
APPID
  2
ACAD_MLEADERVER
 70
     0
  0
APPID
  2
ACAD_EXEMPT_FROM_CAD_STANDARDS
 70
     0
  0
APPID
  2
ACAD_NAV_VCDISPLAY
 70
     0
  0
ENDTAB
  0
TABLE
  2
DIMSTYLE
 70
     1
  0
DIMSTYLE
  2
STANDARD
 70
     0
  3

  4

  5

  6

  7

 40
1.0
 41
0.18
 42
0.0625
 43
0.38
 44
0.18
 45
0.0
 46
0.0
 47
0.0
 48
0.0
140
0.18
141
0.09
142
0.0
143
25.399999999999999
144
1.0
145
0.0
146
1.0
147
0.09
 71
     0
 72
     0
 73
     1
 74
     1
 75
     0
 76
     0
 77
     0
 78
     0
170
     0
171
     2
172
     0
173
     0
174
     0
175
     0
176
     0
177
     0
178
     0
  0
ENDTAB
  0
ENDSEC
  0
SECTION
  2
BLOCKS
  0
BLOCK
  8
0
  2
$MODEL_SPACE
 70
     0
 10
0.0
 20
0.0
 30
0.0
  3
$MODEL_SPACE
  1

  0
ENDBLK
  5
614
  8
0
  0
BLOCK
 67
     1
  8
0
  2
$PAPER_SPACE
 70
     0
 10
0.0
 20
0.0
 30
0.0
  3
$PAPER_SPACE
  1

  0
ENDBLK
  5
612
 67
     1
  8
0
  0
BLOCK
  8
0
  2
BBB
 70
     0
 10
0.0
 20
0.0
 30
0.0
  3
BBB
  1

  0
LINE
  5
2B
  8
0
 10
-16.347819000000001
 20
4.5612009999999996
 30
0.0
 11
-15.632993000000001
 21
5.9000000000000004
 31
0.0
  0
LINE
  5
2C
  8
0
 10
-16.309011999999999
 20
3.7145320000000002
 30
0.0
 11
-15.596173
 21
5.0496089999999993
 31
0.0
  0
LINE
  5
2D
  8
0
 10
-15.163779
 20
4.6844320000000002
 30
0.0
 11
-14.514749
 21
5.9000000000000004
 31
0.0
  0
LINE
  5
2E
  8
0
 10
-15.190769
 20
3.7145320000000002
 30
0.0
 11
-14.242421999999999
 21
5.4906930000000003
 31
0.0
  0
LINE
  5
2F
  8
0
 10
-13.863538999999999
 20
4.8530749999999987
 30
0.0
 11
-13.304553
 21
5.9000000000000004
 31
0.0
  0
LINE
  5
30
  8
0
 10
-13.980573
 20
3.7145320000000002
 30
0.0
 11
-13.078431999999999
 21
5.404151999999999
 31
0.0
  0
LINE
  5
31
  8
0
 10
-15.594749999999999
 20
5.8893810000000002
 30
0.0
 11
-15.598262
 21
3.8168730000000002
 31
0.0
  0
LINE
  5
32
  8
0
 10
-15.161719
 20
5.9000000000000004
 30
0.0
 11
-15.16525
 21
3.8161389999999988
 31
0.0
  0
ARC
  5
33
  8
0
 10
-15.381755999999999
 20
3.816506
 30
0.0
 40
0.216506
 50
179.90290300000001
 51
359.90290299999998
  0
ARC
  5
34
  8
0
 10
-14.171561000000001
 20
3.816506
 30
0.0
 40
0.216506
 50
175.0
 51
355.0
  0
LINE
  5
35
  8
0
 10
-13.771945000000001
 20
5.9000000000000004
 30
0.0
 11
-13.955878
 21
3.7976369999999999
 31
0.0
  0
LINE
  5
36
  8
0
 10
-14.206612
 20
5.9000000000000004
 30
0.0
 11
-14.387243
 21
3.8353760000000001
 31
0.0
  0
ARC
  5
37
  8
0
 10
-13.0
 20
3.816506
 30
0.0
 40
0.216506
 50
175.0
 51
355.0
  0
LINE
  5
38
  8
0
 10
-12.600384999999999
 20
5.9000000000000004
 30
0.0
 11
-12.784318000000001
 21
3.7976369999999999
 31
0.0
  0
LINE
  5
39
  8
0
 10
-13.035050999999999
 20
5.9000000000000004
 30
0.0
 11
-13.215681999999999
 21
3.8353760000000001
 31
0.0
  0
LINE
  5
3A
  8
0
 10
-23.964949000000001
 20
5.9000000000000004
 30
0.0
 11
-23.784317999999999
 21
3.8353760000000001
 31
0.0
  0
LINE
  5
3B
  8
0
 10
-14.304107999999999
 20
-6.2999999999999989
 30
0.0
 11
-14.216506000000001
 21
-5.9674959999999988
 31
0.0
  0
LINE
  5
3C
  8
0
 10
-14.980409999999999
 20
-6.2999999999999989
 30
0.0
 11
-14.766506
 21
-5.4881029999999988
 31
0.0
  0
ARC
  5
3D
  8
0
 10
-14.550000000000001
 20
-3.816506
 30
0.0
 40
0.216506
 50
0.0
 51
180.0
  0
LINE
  5
3E
  8
0
 10
-14.766506
 20
-6.2999999999999989
 30
0.0
 11
-14.766506
 21
-3.816506
 31
0.0
  0
LINE
  5
3F
  8
0
 10
-14.333494
 20
-6.2999999999999989
 30
0.0
 11
-14.333494
 21
-3.816506
 31
0.0
  0
LINE
  5
40
  8
0
 10
-15.190988000000001
 20
-3.7145320000000002
 30
0.0
 11
-16.485931000000001
 21
-6.1398339999999987
 31
0.0
  0
LINE
  5
41
  8
0
 10
-15.308021
 20
-4.8530749999999987
 30
0.0
 11
-16.080579
 21
-6.2999999999999989
 31
0.0
  0
ARC
  5
42
  8
0
 10
-15.0
 20
-3.816506
 30
0.0
 40
0.216506
 50
355.0
 51
175.0
  0
LINE
  5
43
  8
0
 10
-15.434611
 20
-6.2999999999999989
 30
0.0
 11
-15.215681999999999
 21
-3.7976369999999999
 31
0.0
  0
LINE
  5
44
  8
0
 10
-14.999943999999999
 20
-6.2999999999999989
 30
0.0
 11
-14.784318000000001
 21
-3.8353760000000001
 31
0.0
  0
LINE
  5
45
  8
0
 10
-14.216506000000001
 20
-6.2999999999999989
 30
0.0
 11
-14.216506000000001
 21
-3.816506
 31
0.0
  0
LINE
  5
46
  8
0
 10
-16.499943999999999
 20
-6.2999999999999989
 30
0.0
 11
-16.284317999999999
 21
-3.8353760000000001
 31
0.0
  0
LINE
  5
47
  8
0
 10
-16.899615000000001
 20
5.9000000000000004
 30
0.0
 11
-16.715682000000001
 21
3.7976369999999999
 31
0.0
  0
ARC
  5
48
  8
0
 10
-16.5
 20
-3.816506
 30
0.0
 40
0.216506
 50
355.0
 51
175.0
  0
LINE
  5
49
  8
0
 10
-16.808021
 20
4.8530749999999987
 30
0.0
 11
-17.367007000000001
 21
5.9000000000000004
 31
0.0
  0
LINE
  5
4A
  8
0
 10
-16.690988000000001
 20
3.7145320000000002
 30
0.0
 11
-17.857876999999998
 21
5.9000000000000004
 31
0.0
  0
LINE
  5
4B
  8
0
 10
-18.399615000000001
 20
5.9000000000000004
 30
0.0
 11
-18.215682000000001
 21
3.7976369999999999
 31
0.0
  0
LINE
  5
4C
  8
0
 10
-18.308021
 20
4.8530749999999987
 30
0.0
 11
-18.867007000000001
 21
5.9000000000000004
 31
0.0
  0
LINE
  5
4D
  8
0
 10
-18.190988000000001
 20
3.7145320000000002
 30
0.0
 11
-19.357876999999998
 21
5.9000000000000004
 31
0.0
  0
ARC
  5
4E
  8
0
 10
-18.0
 20
3.816506
 30
0.0
 40
0.216506
 50
185.0
 51
5.0
  0
LINE
  5
4F
  8
0
 10
-17.964949000000001
 20
5.9000000000000004
 30
0.0
 11
-17.784317999999999
 21
3.8353760000000001
 31
0.0
  0
LINE
  5
50
  8
0
 10
-19.899615000000001
 20
5.9000000000000004
 30
0.0
 11
-19.715682000000001
 21
3.7976369999999999
 31
0.0
  0
LINE
  5
51
  8
0
 10
-19.808021
 20
4.8530749999999987
 30
0.0
 11
-20.367007000000001
 21
5.9000000000000004
 31
0.0
  0
LINE
  5
52
  8
0
 10
-19.690988000000001
 20
3.7145320000000002
 30
0.0
 11
-20.857876999999998
 21
5.9000000000000004
 31
0.0
  0
ARC
  5
53
  8
0
 10
-19.5
 20
3.816506
 30
0.0
 40
0.216506
 50
185.0
 51
5.0
  0
LINE
  5
54
  8
0
 10
-19.464949000000001
 20
5.9000000000000004
 30
0.0
 11
-19.284317999999999
 21
3.8353760000000001
 31
0.0
  0
LINE
  5
55
  8
0
 10
-21.399615000000001
 20
5.9000000000000004
 30
0.0
 11
-21.215682000000001
 21
3.7976369999999999
 31
0.0
  0
LINE
  5
56
  8
0
 10
-21.308021
 20
4.8530749999999987
 30
0.0
 11
-21.867007000000001
 21
5.9000000000000004
 31
0.0
  0
LINE
  5
57
  8
0
 10
-21.190988000000001
 20
3.7145320000000002
 30
0.0
 11
-22.357876999999998
 21
5.9000000000000004
 31
0.0
  0
ARC
  5
58
  8
0
 10
-21.0
 20
3.816506
 30
0.0
 40
0.216506
 50
185.0
 51
5.0
  0
LINE
  5
59
  8
0
 10
-20.964949000000001
 20
5.9000000000000004
 30
0.0
 11
-20.784317999999999
 21
3.8353760000000001
 31
0.0
  0
LINE
  5
5A
  8
0
 10
-22.464949000000001
 20
5.9000000000000004
 30
0.0
 11
-22.284317999999999
 21
3.8353760000000001
 31
0.0
  0
LINE
  5
5B
  8
0
 10
-22.899615000000001
 20
5.9000000000000004
 30
0.0
 11
-22.715682000000001
 21
3.7976369999999999
 31
0.0
  0
ARC
  5
5C
  8
0
 10
-22.5
 20
3.816506
 30
0.0
 40
0.216506
 50
185.0
 51
5.0
  0
LINE
  5
5D
  8
0
 10
-22.808021
 20
4.8530749999999987
 30
0.0
 11
-23.367007000000001
 21
5.9000000000000004
 31
0.0
  0
LINE
  5
5E
  8
0
 10
-22.690988000000001
 20
3.7145320000000002
 30
0.0
 11
-23.857876999999998
 21
5.9000000000000004
 31
0.0
  0
ARC
  5
5F
  8
0
 10
-24.0
 20
3.816506
 30
0.0
 40
0.216506
 50
185.0
 51
5.0
  0
LINE
  5
60
  8
0
 10
-24.434611
 20
6.2999999999999989
 30
0.0
 11
-24.215682000000001
 21
3.7976369999999999
 31
0.0
  0
ARC
  5
61
  8
0
 10
-25.5
 20
3.816506
 30
0.0
 40
0.216506
 50
185.0
 51
5.0
  0
LINE
  5
62
  8
0
 10
-25.499943999999999
 20
6.2999999999999989
 30
0.0
 11
-25.284317999999999
 21
3.8353760000000001
 31
0.0
  0
LINE
  5
63
  8
0
 10
-25.934611
 20
6.2999999999999989
 30
0.0
 11
-25.715682000000001
 21
3.7976369999999999
 31
0.0
  0
ARC
  5
64
  8
0
 10
-27.0
 20
3.816506
 30
0.0
 40
0.216506
 50
185.0
 51
5.0
  0
LINE
  5
65
  8
0
 10
-26.999943999999999
 20
6.2999999999999989
 30
0.0
 11
-26.784317999999999
 21
3.8353760000000001
 31
0.0
  0
LINE
  5
66
  8
0
 10
-27.434611
 20
6.2999999999999989
 30
0.0
 11
-27.215682000000001
 21
3.7976369999999999
 31
0.0
  0
ARC
  5
67
  8
0
 10
-33.284999999999997
 20
0.0
 30
0.0
 40
0.215
 50
90.0
 51
270.0
  0
LINE
  5
68
  8
0
 10
-31.593574
 20
-0.215
 30
0.0
 11
-33.284999999999997
 21
-0.215
 31
0.0
  0
LINE
  5
69
  8
0
 10
-31.593574
 20
0.215
 30
0.0
 11
-33.284999999999997
 21
0.215
 31
0.0
  0
LINE
  5
6A
  8
0
 10
-31.198246000000001
 20
1.6526419999999991
 30
0.0
 11
-32.901539
 21
2.2060749999999989
 31
0.0
  0
LINE
  5
6B
  8
0
 10
-31.373275
 20
1.257382999999999
 30
0.0
 11
-33.034416999999998
 21
1.7971209999999991
 31
0.0
  0
ARC
  5
6C
  8
0
 10
-32.967978000000002
 20
2.0015979999999991
 30
0.0
 40
0.215
 50
72.0
 51
252.0
  0
LINE
  5
6D
  8
0
 10
-30.278337000000001
 20
2.7873250000000001
 30
0.0
 11
-31.921569999999999
 21
3.9812050000000001
 31
0.0
  0
LINE
  5
6E
  8
0
 10
-30.600261
 20
2.4897079999999998
 30
0.0
 11
-32.174318
 21
3.6333269999999991
 31
0.0
  0
ARC
  5
6F
  8
0
 10
-32.047944000000001
 20
3.8072659999999998
 30
0.0
 40
0.215
 50
54.0
 51
234.0
  0
LINE
  5
70
  8
0
 10
-29.044895
 20
3.4450249999999989
 30
0.0
 11
-30.441020000000002
 21
5.3666260000000001
 31
0.0
  0
LINE
  5
71
  8
0
 10
-29.46321
 20
3.289226999999999
 30
0.0
 11
-30.788896999999999
 21
5.1138779999999988
 31
0.0
  0
ARC
  5
72
  8
0
 10
-30.614958000000001
 20
5.240251999999999
 30
0.0
 40
0.215
 50
36.0
 51
216.0
  0
LINE
  5
73
  8
0
 10
-28.001322999999999
 20
3.7582049999999998
 30
0.0
 11
-28.764595
 21
6.1073149999999989
 31
0.0
  0
LINE
  5
74
  8
0
 10
-28.410277000000001
 20
3.6253279999999992
 30
0.0
 11
-29.173549000000001
 21
5.9744380000000001
 31
0.0
  0
ARC
  5
75
  8
0
 10
-28.969072000000001
 20
6.040875999999999
 30
0.0
 40
0.215
 50
18.0
 51
198.0
  0
ARC
  5
76
  8
0
 10
-28.2058
 20
3.691767
 30
0.0
 40
0.215
 50
198.0
 51
211.652694
  0
ARC
  5
77
  8
0
 10
-27.215627000000001
 20
6.2811300000000001
 30
0.0
 40
0.216506
 50
5.0
 51
185.0
  0
ARC
  5
78
  8
0
 10
-25.715627000000001
 20
6.2811300000000001
 30
0.0
 40
0.216506
 50
5.0
 51
185.0
  0
ARC
  5
79
  8
0
 10
-24.215627000000001
 20
6.2811300000000001
 30
0.0
 40
0.216506
 50
85.855304000000004
 51
185.0
  0
LINE
  5
7A
  8
0
 10
-24.286496
 20
4.607041999999999
 30
0.0
 11
-25.537932999999999
 21
6.4048230000000004
 31
0.0
  0
LINE
  5
7B
  8
0
 10
-24.177693999999999
 20
3.6928139999999989
 30
0.0
 11
-25.429130000000001
 21
5.4905939999999998
 31
0.0
  0
LINE
  5
7C
  8
0
 10
-25.677693999999999
 20
3.6928139999999989
 30
0.0
 11
-26.929130000000001
 21
5.4905939999999998
 31
0.0
  0
LINE
  5
7D
  8
0
 10
-25.786496
 20
4.607041999999999
 30
0.0
 11
-27.037932999999999
 21
6.4048230000000004
 31
0.0
  0
LINE
  5
7E
  8
0
 10
-27.162113000000002
 20
3.672998999999999
 30
0.0
 11
-28.444237000000001
 21
5.1213559999999987
 31
0.0
  0
LINE
  5
7F
  8
0
 10
-27.272880000000001
 20
4.4514050000000003
 30
0.0
 11
-28.806958999999999
 21
6.1843830000000004
 31
0.0
  0
LINE
  5
80
  8
0
 10
-28.424396000000002
 20
3.5748969999999991
 30
0.0
 11
-29.765552
 21
4.4369249999999987
 31
0.0
  0
LINE
  5
81
  8
0
 10
-28.597238000000001
 20
4.200734999999999
 30
0.0
 11
-30.497895
 21
5.4223809999999988
 31
0.0
  0
LINE
  5
82
  8
0
 10
-29.762816000000001
 20
3.1388660000000002
 30
0.0
 11
-31.131270000000001
 21
3.407017999999999
 31
0.0
  0
LINE
  5
83
  8
0
 10
-29.6599
 20
3.5599470000000002
 30
0.0
 11
-32.006310999999997
 21
4.0197320000000003
 31
0.0
  0
LINE
  5
84
  8
0
 10
-30.976490999999999
 20
2.0249700000000002
 30
0.0
 11
-31.972486
 21
1.9042069999999991
 31
0.0
  0
LINE
  5
85
  8
0
 10
-30.620387000000001
 20
2.5043299999999991
 30
0.0
 11
-32.994038000000003
 21
2.2165300000000001
 31
0.0
  0
LINE
  5
86
  8
0
 10
-31.555451000000001
 20
0.564596
 30
0.0
 11
-32.308135
 21
0.215
 31
0.0
  0
LINE
  5
87
  8
0
 10
-31.427332
 20
1.1015429999999991
 30
0.0
 11
-33.376201999999999
 21
0.19636
 31
0.0
  0
ARC
  5
88
  8
0
 10
-28.2058
 20
3.691767
 30
0.0
 40
0.215
 50
334.72868
 51
18.0
  0
ARC
  5
89
  8
0
 10
-28.2058
 20
-3.691767
 30
0.0
 40
0.215
 50
342.0
 51
25.271319999999999
  0
LINE
  5
8A
  8
0
 10
-31.427332
 20
-1.1015429999999991
 30
0.0
 11
-33.376201999999999
 21
-0.19636
 31
0.0
  0
LINE
  5
8B
  8
0
 10
-31.555451000000001
 20
-0.564596
 30
0.0
 11
-32.308135
 21
-0.215
 31
0.0
  0
LINE
  5
8C
  8
0
 10
-30.620387000000001
 20
-2.5043299999999991
 30
0.0
 11
-32.994038000000003
 21
-2.2165300000000001
 31
0.0
  0
LINE
  5
8D
  8
0
 10
-30.976490999999999
 20
-2.0249700000000002
 30
0.0
 11
-31.972486
 21
-1.9042069999999991
 31
0.0
  0
LINE
  5
8E
  8
0
 10
-29.6599
 20
-3.5599470000000002
 30
0.0
 11
-32.006310999999997
 21
-4.0197320000000003
 31
0.0
  0
LINE
  5
8F
  8
0
 10
-29.762816000000001
 20
-3.1388660000000002
 30
0.0
 11
-31.131270000000001
 21
-3.407017999999999
 31
0.0
  0
LINE
  5
90
  8
0
 10
-28.597238000000001
 20
-4.200734999999999
 30
0.0
 11
-30.497895
 21
-5.4223809999999988
 31
0.0
  0
LINE
  5
91
  8
0
 10
-28.424396000000002
 20
-3.5748969999999991
 30
0.0
 11
-29.765552
 21
-4.4369249999999987
 31
0.0
  0
LINE
  5
92
  8
0
 10
-27.272880000000001
 20
-4.4514050000000003
 30
0.0
 11
-28.806958999999999
 21
-6.1843830000000004
 31
0.0
  0
LINE
  5
93
  8
0
 10
-27.162113000000002
 20
-3.672998999999999
 30
0.0
 11
-28.444237000000001
 21
-5.1213559999999987
 31
0.0
  0
LINE
  5
94
  8
0
 10
-25.786496
 20
-4.607041999999999
 30
0.0
 11
-27.037932999999999
 21
-6.4048230000000004
 31
0.0
  0
LINE
  5
95
  8
0
 10
-25.677693999999999
 20
-3.6928139999999989
 30
0.0
 11
-26.929130000000001
 21
-5.4905939999999998
 31
0.0
  0
LINE
  5
96
  8
0
 10
-24.177693999999999
 20
-3.6928139999999989
 30
0.0
 11
-25.429130000000001
 21
-5.4905939999999998
 31
0.0
  0
LINE
  5
97
  8
0
 10
-24.286496
 20
-4.607041999999999
 30
0.0
 11
-25.537932999999999
 21
-6.4048230000000004
 31
0.0
  0
ARC
  5
98
  8
0
 10
-24.215627000000001
 20
-6.2811300000000001
 30
0.0
 40
0.216506
 50
175.0
 51
274.139002
  0
ARC
  5
99
  8
0
 10
-25.715627000000001
 20
-6.2811300000000001
 30
0.0
 40
0.216506
 50
175.0
 51
355.0
  0
ARC
  5
9A
  8
0
 10
-27.215627000000001
 20
-6.2811300000000001
 30
0.0
 40
0.216506
 50
175.0
 51
355.0
  0
ARC
  5
9B
  8
0
 10
-28.2058
 20
-3.691767
 30
0.0
 40
0.215
 50
148.347306
 51
162.0
  0
ARC
  5
9C
  8
0
 10
-28.969072000000001
 20
-6.040875999999999
 30
0.0
 40
0.215
 50
162.0
 51
342.0
  0
LINE
  5
9D
  8
0
 10
-28.410277000000001
 20
-3.6253279999999992
 30
0.0
 11
-29.173549000000001
 21
-5.9744380000000001
 31
0.0
  0
LINE
  5
9E
  8
0
 10
-28.001322999999999
 20
-3.7582049999999998
 30
0.0
 11
-28.764595
 21
-6.1073149999999989
 31
0.0
  0
ARC
  5
9F
  8
0
 10
-30.614958000000001
 20
-5.240251999999999
 30
0.0
 40
0.215
 50
144.0
 51
324.0
  0
LINE
  5
A0
  8
0
 10
-29.46321
 20
-3.289226999999999
 30
0.0
 11
-30.788896999999999
 21
-5.1138779999999988
 31
0.0
  0
LINE
  5
A1
  8
0
 10
-29.044895
 20
-3.4450249999999989
 30
0.0
 11
-30.441020000000002
 21
-5.3666260000000001
 31
0.0
  0
ARC
  5
A2
  8
0
 10
-32.047944000000001
 20
-3.8072659999999998
 30
0.0
 40
0.215
 50
126.0
 51
306.0
  0
LINE
  5
A3
  8
0
 10
-30.600261
 20
-2.4897079999999998
 30
0.0
 11
-32.174318
 21
-3.6333269999999991
 31
0.0
  0
LINE
  5
A4
  8
0
 10
-30.278337000000001
 20
-2.7873250000000001
 30
0.0
 11
-31.921569999999999
 21
-3.9812050000000001
 31
0.0
  0
ARC
  5
A5
  8
0
 10
-32.967978000000002
 20
-2.0015979999999991
 30
0.0
 40
0.215
 50
108.0
 51
288.0
  0
LINE
  5
A6
  8
0
 10
-31.373275
 20
-1.257382999999999
 30
0.0
 11
-33.034416999999998
 21
-1.7971209999999991
 31
0.0
  0
LINE
  5
A7
  8
0
 10
-31.198246000000001
 20
-1.6526419999999991
 30
0.0
 11
-32.901539
 21
-2.2060749999999989
 31
0.0
  0
LINE
  5
A8
  8
0
 10
-31.593574
 20
-0.215
 30
0.0
 11
-33.284999999999997
 21
-0.215
 31
0.0
  0
LINE
  5
A9
  8
0
 10
-31.593574
 20
0.215
 30
0.0
 11
-33.284999999999997
 21
0.215
 31
0.0
  0
ARC
  5
AA
  8
0
 10
-33.284999999999997
 20
0.0
 30
0.0
 40
0.215
 50
90.0
 51
270.0
  0
LINE
  5
AB
  8
0
 10
-27.434611
 20
-6.2999999999999989
 30
0.0
 11
-27.215682000000001
 21
-3.7976369999999999
 31
0.0
  0
LINE
  5
AC
  8
0
 10
-26.999943999999999
 20
-6.2999999999999989
 30
0.0
 11
-26.784317999999999
 21
-3.8353760000000001
 31
0.0
  0
ARC
  5
AD
  8
0
 10
-27.0
 20
-3.816506
 30
0.0
 40
0.216506
 50
355.0
 51
175.0
  0
LINE
  5
AE
  8
0
 10
-25.934611
 20
-6.2999999999999989
 30
0.0
 11
-25.715682000000001
 21
-3.7976369999999999
 31
0.0
  0
LINE
  5
AF
  8
0
 10
-25.499943999999999
 20
-6.2999999999999989
 30
0.0
 11
-25.284317999999999
 21
-3.8353760000000001
 31
0.0
  0
ARC
  5
B0
  8
0
 10
-25.5
 20
-3.816506
 30
0.0
 40
0.216506
 50
355.0
 51
175.0
  0
LINE
  5
B1
  8
0
 10
-24.434611
 20
-6.2999999999999989
 30
0.0
 11
-24.215682000000001
 21
-3.7976369999999999
 31
0.0
  0
LINE
  5
B2
  8
0
 10
-23.999943999999999
 20
-6.2999999999999989
 30
0.0
 11
-23.784317999999999
 21
-3.8353760000000001
 31
0.0
  0
ARC
  5
B3
  8
0
 10
-24.0
 20
-3.816506
 30
0.0
 40
0.216506
 50
355.0
 51
175.0
  0
LINE
  5
B4
  8
0
 10
-22.690988000000001
 20
-3.7145320000000002
 30
0.0
 11
-23.985931000000001
 21
-6.1398339999999987
 31
0.0
  0
LINE
  5
B5
  8
0
 10
-22.808021
 20
-4.8530749999999987
 30
0.0
 11
-23.580579
 21
-6.2999999999999989
 31
0.0
  0
ARC
  5
B6
  8
0
 10
-22.5
 20
-3.816506
 30
0.0
 40
0.216506
 50
355.0
 51
175.0
  0
LINE
  5
B7
  8
0
 10
-22.934611
 20
-6.2999999999999989
 30
0.0
 11
-22.715682000000001
 21
-3.7976369999999999
 31
0.0
  0
LINE
  5
B8
  8
0
 10
-22.499943999999999
 20
-6.2999999999999989
 30
0.0
 11
-22.284317999999999
 21
-3.8353760000000001
 31
0.0
  0
LINE
  5
B9
  8
0
 10
-20.999943999999999
 20
-6.2999999999999989
 30
0.0
 11
-20.784317999999999
 21
-3.8353760000000001
 31
0.0
  0
ARC
  5
BA
  8
0
 10
-21.0
 20
-3.816506
 30
0.0
 40
0.216506
 50
355.0
 51
175.0
  0
LINE
  5
BB
  8
0
 10
-21.190988000000001
 20
-3.7145320000000002
 30
0.0
 11
-22.485931000000001
 21
-6.1398339999999987
 31
0.0
  0
LINE
  5
BC
  8
0
 10
-21.308021
 20
-4.8530749999999987
 30
0.0
 11
-22.080579
 21
-6.2999999999999989
 31
0.0
  0
LINE
  5
BD
  8
0
 10
-21.434611
 20
-6.2999999999999989
 30
0.0
 11
-21.215682000000001
 21
-3.7976369999999999
 31
0.0
  0
LINE
  5
BE
  8
0
 10
-19.499943999999999
 20
-6.2999999999999989
 30
0.0
 11
-19.284317999999999
 21
-3.8353760000000001
 31
0.0
  0
ARC
  5
BF
  8
0
 10
-19.5
 20
-3.816506
 30
0.0
 40
0.216506
 50
355.0
 51
175.0
  0
LINE
  5
C0
  8
0
 10
-19.690988000000001
 20
-3.7145320000000002
 30
0.0
 11
-20.985931000000001
 21
-6.1398339999999987
 31
0.0
  0
LINE
  5
C1
  8
0
 10
-19.808021
 20
-4.8530749999999987
 30
0.0
 11
-20.580579
 21
-6.2999999999999989
 31
0.0
  0
LINE
  5
C2
  8
0
 10
-19.934611
 20
-6.2999999999999989
 30
0.0
 11
-19.715682000000001
 21
-3.7976369999999999
 31
0.0
  0
LINE
  5
C3
  8
0
 10
-17.999943999999999
 20
-6.2999999999999989
 30
0.0
 11
-17.784317999999999
 21
-3.8353760000000001
 31
0.0
  0
ARC
  5
C4
  8
0
 10
-18.0
 20
-3.816506
 30
0.0
 40
0.216506
 50
355.0
 51
175.0
  0
LINE
  5
C5
  8
0
 10
-18.190988000000001
 20
-3.7145320000000002
 30
0.0
 11
-19.485931000000001
 21
-6.1398339999999987
 31
0.0
  0
LINE
  5
C6
  8
0
 10
-18.308021
 20
-4.8530749999999987
 30
0.0
 11
-19.080579
 21
-6.2999999999999989
 31
0.0
  0
LINE
  5
C7
  8
0
 10
-18.434611
 20
-6.2999999999999989
 30
0.0
 11
-18.215682000000001
 21
-3.7976369999999999
 31
0.0
  0
LINE
  5
C8
  8
0
 10
-16.690988000000001
 20
-3.7145320000000002
 30
0.0
 11
-17.985931000000001
 21
-6.1398339999999987
 31
0.0
  0
LINE
  5
C9
  8
0
 10
-16.808021
 20
-4.8530749999999987
 30
0.0
 11
-17.580579
 21
-6.2999999999999989
 31
0.0
  0
ARC
  5
CA
  8
0
 10
-16.5
 20
3.816506
 30
0.0
 40
0.216506
 50
185.0
 51
5.0
  0
LINE
  5
CB
  8
0
 10
-16.934611
 20
-6.2999999999999989
 30
0.0
 11
-16.715682000000001
 21
-3.7976369999999999
 31
0.0
  0
LINE
  5
CC
  8
0
 10
-16.464949000000001
 20
5.9000000000000004
 30
0.0
 11
-16.284317999999999
 21
3.8353760000000001
 31
0.0
  0
LINE
  5
CD
  8
0
 10
-12.809011999999999
 20
3.7145320000000002
 30
0.0
 11
-11.642123
 21
5.9000000000000004
 31
0.0
  0
LINE
  5
CE
  8
0
 10
-12.691979
 20
4.8530749999999987
 30
0.0
 11
-12.132993000000001
 21
5.9000000000000004
 31
0.0
  0
LINE
  5
CF
  8
0
 10
-11.535050999999999
 20
5.9000000000000004
 30
0.0
 11
-11.715681999999999
 21
3.8353760000000001
 31
0.0
  0
LINE
  5
D0
  8
0
 10
-11.100384999999999
 20
5.9000000000000004
 30
0.0
 11
-11.284318000000001
 21
3.7976369999999999
 31
0.0
  0
ARC
  5
D1
  8
0
 10
-11.5
 20
3.816506
 30
0.0
 40
0.216506
 50
175.0
 51
355.0
  0
LINE
  5
D2
  8
0
 10
-11.191979
 20
4.8530749999999987
 30
0.0
 11
-10.632993000000001
 21
5.9000000000000004
 31
0.0
  0
LINE
  5
D3
  8
0
 10
-11.309011999999999
 20
3.7145320000000002
 30
0.0
 11
-10.142123
 21
5.9000000000000004
 31
0.0
  0
LINE
  5
D4
  8
0
 10
-9.6003850000000011
 20
5.9000000000000004
 30
0.0
 11
-9.7843179999999972
 21
3.7976369999999999
 31
0.0
  0
LINE
  5
D5
  8
0
 10
-9.6919789999999981
 20
4.8530749999999987
 30
0.0
 11
-9.132992999999999
 21
5.9000000000000004
 31
0.0
  0
LINE
  5
D6
  8
0
 10
-9.8090119999999992
 20
3.7145320000000002
 30
0.0
 11
-8.6421229999999998
 21
5.9000000000000004
 31
0.0
  0
ARC
  5
D7
  8
0
 10
-10.0
 20
3.816506
 30
0.0
 40
0.216506
 50
175.0
 51
355.0
  0
LINE
  5
D8
  8
0
 10
-10.035050999999999
 20
5.9000000000000004
 30
0.0
 11
-10.215681999999999
 21
3.8353760000000001
 31
0.0
  0
LINE
  5
D9
  8
0
 10
-8.1003850000000011
 20
5.9000000000000004
 30
0.0
 11
-8.2843179999999972
 21
3.7976369999999999
 31
0.0
  0
LINE
  5
DA
  8
0
 10
-8.1919789999999981
 20
4.8530749999999987
 30
0.0
 11
-7.632992999999999
 21
5.9000000000000004
 31
0.0
  0
LINE
  5
DB
  8
0
 10
-8.3090119999999992
 20
3.7145320000000002
 30
0.0
 11
-7.1421229999999989
 21
5.9000000000000004
 31
0.0
  0
ARC
  5
DC
  8
0
 10
-8.5
 20
3.816506
 30
0.0
 40
0.216506
 50
175.0
 51
355.0
  0
LINE
  5
DD
  8
0
 10
-8.5350509999999993
 20
5.9000000000000004
 30
0.0
 11
-8.715682000000001
 21
3.8353760000000001
 31
0.0
  0
LINE
  5
DE
  8
0
 10
-6.6003850000000002
 20
5.9000000000000004
 30
0.0
 11
-6.7843179999999981
 21
3.7976369999999999
 31
0.0
  0
LINE
  5
DF
  8
0
 10
-6.691978999999999
 20
4.8530749999999987
 30
0.0
 11
-6.132992999999999
 21
5.9000000000000004
 31
0.0
  0
LINE
  5
E0
  8
0
 10
-6.8090119999999992
 20
3.7145320000000002
 30
0.0
 11
-5.6421229999999998
 21
5.9000000000000004
 31
0.0
  0
ARC
  5
E1
  8
0
 10
-7.0
 20
3.816506
 30
0.0
 40
0.216506
 50
175.0
 51
355.0
  0
LINE
  5
E2
  8
0
 10
-7.0350509999999993
 20
5.9000000000000004
 30
0.0
 11
-7.215682000000001
 21
3.8353760000000001
 31
0.0
  0
LINE
  5
E3
  8
0
 10
-5.5350510000000002
 20
5.9000000000000004
 30
0.0
 11
-5.7156820000000002
 21
3.8353760000000001
 31
0.0
  0
LINE
  5
E4
  8
0
 10
-5.1003850000000002
 20
5.9000000000000004
 30
0.0
 11
-5.284317999999999
 21
3.7976369999999999
 31
0.0
  0
ARC
  5
E5
  8
0
 10
-5.5
 20
3.816506
 30
0.0
 40
0.216506
 50
175.0
 51
355.0
  0
LINE
  5
E6
  8
0
 10
-5.191978999999999
 20
4.8530749999999987
 30
0.0
 11
-4.632992999999999
 21
5.9000000000000004
 31
0.0
  0
LINE
  5
E7
  8
0
 10
-5.3090120000000001
 20
3.7145320000000002
 30
0.0
 11
-4.1421229999999998
 21
5.9000000000000004
 31
0.0
  0
ARC
  5
E8
  8
0
 10
-4.0
 20
3.816506
 30
0.0
 40
0.216506
 50
175.0
 51
355.0
  0
LINE
  5
E9
  8
0
 10
-4.0350510000000002
 20
5.9000000000000004
 30
0.0
 11
-4.2156820000000002
 21
3.8353760000000001
 31
0.0
  0
LINE
  5
EA
  8
0
 10
-3.5653890000000001
 20
6.2999999999999989
 30
0.0
 11
-3.784317999999999
 21
3.7976369999999999
 31
0.0
  0
ARC
  5
EB
  8
0
 10
-2.5
 20
3.816506
 30
0.0
 40
0.216506
 50
175.0
 51
355.0
  0
LINE
  5
EC
  8
0
 10
-2.5000559999999998
 20
6.2999999999999989
 30
0.0
 11
-2.7156820000000002
 21
3.8353760000000001
 31
0.0
  0
LINE
  5
ED
  8
0
 10
-2.0653890000000001
 20
6.2999999999999989
 30
0.0
 11
-2.284317999999999
 21
3.7976369999999999
 31
0.0
  0
ARC
  5
EE
  8
0
 10
-1.0
 20
3.816506
 30
0.0
 40
0.216506
 50
175.0
 51
355.0
  0
LINE
  5
EF
  8
0
 10
-1.0000560000000001
 20
6.2999999999999989
 30
0.0
 11
-1.215681999999999
 21
3.8353760000000001
 31
0.0
  0
LINE
  5
F0
  8
0
 10
-0.5653890000000001
 20
6.2999999999999989
 30
0.0
 11
-0.7843180000000001
 21
3.7976369999999999
 31
0.0
  0
ARC
  5
F1
  8
0
 10
5.2850000000000001
 20
0.0
 30
0.0
 40
0.215
 50
270.0
 51
90.0
  0
LINE
  5
F2
  8
0
 10
3.5935739999999989
 20
-0.215
 30
0.0
 11
5.2850000000000001
 21
-0.215
 31
0.0
  0
LINE
  5
F3
  8
0
 10
3.5935739999999989
 20
0.215
 30
0.0
 11
5.2850000000000001
 21
0.215
 31
0.0
  0
LINE
  5
F4
  8
0
 10
3.1982459999999988
 20
1.6526419999999991
 30
0.0
 11
4.9015389999999988
 21
2.2060749999999989
 31
0.0
  0
LINE
  5
F5
  8
0
 10
3.373275
 20
1.257382999999999
 30
0.0
 11
5.0344169999999986
 21
1.7971209999999991
 31
0.0
  0
ARC
  5
F6
  8
0
 10
4.9679779999999987
 20
2.0015979999999991
 30
0.0
 40
0.215
 50
288.0
 51
108.0
  0
LINE
  5
F7
  8
0
 10
2.2783370000000001
 20
2.7873250000000001
 30
0.0
 11
3.9215699999999991
 21
3.9812050000000001
 31
0.0
  0
LINE
  5
F8
  8
0
 10
2.6002610000000002
 20
2.4897079999999998
 30
0.0
 11
4.1743180000000004
 21
3.6333269999999991
 31
0.0
  0
ARC
  5
F9
  8
0
 10
4.0479440000000002
 20
3.8072659999999998
 30
0.0
 40
0.215
 50
306.0
 51
126.0
  0
LINE
  5
FA
  8
0
 10
1.0448949999999999
 20
3.4450249999999989
 30
0.0
 11
2.4410199999999991
 21
5.3666260000000001
 31
0.0
  0
LINE
  5
FB
  8
0
 10
1.4632099999999999
 20
3.289226999999999
 30
0.0
 11
2.7888969999999991
 21
5.1138779999999988
 31
0.0
  0
ARC
  5
FC
  8
0
 10
2.6149580000000001
 20
5.240251999999999
 30
0.0
 40
0.215
 50
324.0
 51
144.0
  0
LINE
  5
FD
  8
0
 10
0.001323
 20
3.7582049999999998
 30
0.0
 11
0.764595
 21
6.1073149999999989
 31
0.0
  0
LINE
  5
FE
  8
0
 10
0.4102770000000001
 20
3.6253279999999992
 30
0.0
 11
1.1735489999999991
 21
5.9744380000000001
 31
0.0
  0
ARC
  5
FF
  8
0
 10
0.9690719999999998
 20
6.040875999999999
 30
0.0
 40
0.215
 50
342.0
 51
162.0
  0
ARC
  5
100
  8
0
 10
0.2058
 20
3.691767
 30
0.0
 40
0.215
 50
328.347306
 51
342.0
  0
ARC
  5
101
  8
0
 10
-0.784373
 20
6.2811300000000001
 30
0.0
 40
0.216506
 50
355.0
 51
175.0
  0
ARC
  5
102
  8
0
 10
-2.2843729999999991
 20
6.2811300000000001
 30
0.0
 40
0.216506
 50
355.0
 51
175.0
  0
ARC
  5
103
  8
0
 10
-3.784373
 20
6.2811300000000001
 30
0.0
 40
0.216506
 50
355.0
 51
94.139002000000005
  0
LINE
  5
104
  8
0
 10
-3.713503999999999
 20
4.607041999999999
 30
0.0
 11
-2.4620669999999989
 21
6.4048230000000004
 31
0.0
  0
LINE
  5
105
  8
0
 10
-3.8223059999999989
 20
3.6928139999999989
 30
0.0
 11
-2.5708700000000002
 21
5.4905939999999998
 31
0.0
  0
LINE
  5
106
  8
0
 10
-2.3223060000000002
 20
3.6928139999999989
 30
0.0
 11
-1.0708699999999991
 21
5.4905939999999998
 31
0.0
  0
LINE
  5
107
  8
0
 10
-2.213503999999999
 20
4.607041999999999
 30
0.0
 11
-0.962067
 21
6.4048230000000004
 31
0.0
  0
LINE
  5
108
  8
0
 10
-0.8378870000000001
 20
3.672998999999999
 30
0.0
 11
0.4442370000000001
 21
5.1213559999999987
 31
0.0
  0
LINE
  5
109
  8
0
 10
-0.7271200000000001
 20
4.4514050000000003
 30
0.0
 11
0.8069589999999999
 21
6.1843830000000004
 31
0.0
  0
LINE
  5
10A
  8
0
 10
0.424396
 20
3.5748969999999991
 30
0.0
 11
1.765552
 21
4.4369249999999987
 31
0.0
  0
LINE
  5
10B
  8
0
 10
0.5972380000000001
 20
4.200734999999999
 30
0.0
 11
2.4978950000000002
 21
5.4223809999999988
 31
0.0
  0
LINE
  5
10C
  8
0
 10
1.7628159999999991
 20
3.1388660000000002
 30
0.0
 11
3.1312700000000002
 21
3.407017999999999
 31
0.0
  0
LINE
  5
10D
  8
0
 10
1.659899999999999
 20
3.5599470000000002
 30
0.0
 11
4.0063110000000002
 21
4.0197320000000003
 31
0.0
  0
LINE
  5
10E
  8
0
 10
2.9764909999999989
 20
2.0249700000000002
 30
0.0
 11
3.9724859999999991
 21
1.9042069999999991
 31
0.0
  0
LINE
  5
10F
  8
0
 10
2.620387
 20
2.5043299999999991
 30
0.0
 11
4.9940379999999989
 21
2.2165300000000001
 31
0.0
  0
LINE
  5
110
  8
0
 10
3.5554510000000001
 20
0.564596
 30
0.0
 11
4.308135
 21
0.215
 31
0.0
  0
LINE
  5
111
  8
0
 10
3.4273319999999989
 20
1.1015429999999991
 30
0.0
 11
5.3762019999999993
 21
0.19636
 31
0.0
  0
ARC
  5
112
  8
0
 10
0.2058
 20
3.691767
 30
0.0
 40
0.215
 50
162.0
 51
205.27132
  0
ARC
  5
113
  8
0
 10
0.2058
 20
-3.691767
 30
0.0
 40
0.215
 50
154.72868
 51
198.0
  0
LINE
  5
114
  8
0
 10
3.4273319999999989
 20
-1.1015429999999991
 30
0.0
 11
5.3762019999999993
 21
-0.19636
 31
0.0
  0
LINE
  5
115
  8
0
 10
3.5554510000000001
 20
-0.564596
 30
0.0
 11
4.308135
 21
-0.215
 31
0.0
  0
LINE
  5
116
  8
0
 10
2.620387
 20
-2.5043299999999991
 30
0.0
 11
4.9940379999999989
 21
-2.2165300000000001
 31
0.0
  0
LINE
  5
117
  8
0
 10
2.9764909999999989
 20
-2.0249700000000002
 30
0.0
 11
3.9724859999999991
 21
-1.9042069999999991
 31
0.0
  0
LINE
  5
118
  8
0
 10
1.659899999999999
 20
-3.5599470000000002
 30
0.0
 11
4.0063110000000002
 21
-4.0197320000000003
 31
0.0
  0
LINE
  5
119
  8
0
 10
1.7628159999999991
 20
-3.1388660000000002
 30
0.0
 11
3.1312700000000002
 21
-3.407017999999999
 31
0.0
  0
LINE
  5
11A
  8
0
 10
0.5972380000000001
 20
-4.200734999999999
 30
0.0
 11
2.4978950000000002
 21
-5.4223809999999988
 31
0.0
  0
LINE
  5
11B
  8
0
 10
0.424396
 20
-3.5748969999999991
 30
0.0
 11
1.765552
 21
-4.4369249999999987
 31
0.0
  0
LINE
  5
11C
  8
0
 10
-0.7271200000000001
 20
-4.4514050000000003
 30
0.0
 11
0.8069589999999999
 21
-6.1843830000000004
 31
0.0
  0
LINE
  5
11D
  8
0
 10
-0.8378870000000001
 20
-3.672998999999999
 30
0.0
 11
0.4442370000000001
 21
-5.1213559999999987
 31
0.0
  0
LINE
  5
11E
  8
0
 10
-2.213503999999999
 20
-4.607041999999999
 30
0.0
 11
-0.962067
 21
-6.4048230000000004
 31
0.0
  0
LINE
  5
11F
  8
0
 10
-2.3223060000000002
 20
-3.6928139999999989
 30
0.0
 11
-1.0708699999999991
 21
-5.4905939999999998
 31
0.0
  0
LINE
  5
120
  8
0
 10
-3.8223059999999989
 20
-3.6928139999999989
 30
0.0
 11
-2.5708700000000002
 21
-5.4905939999999998
 31
0.0
  0
LINE
  5
121
  8
0
 10
-3.713503999999999
 20
-4.607041999999999
 30
0.0
 11
-2.4620669999999989
 21
-6.4048230000000004
 31
0.0
  0
ARC
  5
122
  8
0
 10
-3.784373
 20
-6.2811300000000001
 30
0.0
 40
0.216506
 50
265.85530399999999
 51
5.0
  0
ARC
  5
123
  8
0
 10
-2.2843729999999991
 20
-6.2811300000000001
 30
0.0
 40
0.216506
 50
185.0
 51
5.0
  0
ARC
  5
124
  8
0
 10
-0.784373
 20
-6.2811300000000001
 30
0.0
 40
0.216506
 50
185.0
 51
5.0
  0
ARC
  5
125
  8
0
 10
0.2058
 20
-3.691767
 30
0.0
 40
0.215
 50
18.0
 51
31.652694
  0
ARC
  5
126
  8
0
 10
0.9690719999999998
 20
-6.040875999999999
 30
0.0
 40
0.215
 50
198.0
 51
18.0
  0
LINE
  5
127
  8
0
 10
0.4102770000000001
 20
-3.6253279999999992
 30
0.0
 11
1.1735489999999991
 21
-5.9744380000000001
 31
0.0
  0
LINE
  5
128
  8
0
 10
0.001323
 20
-3.7582049999999998
 30
0.0
 11
0.764595
 21
-6.1073149999999989
 31
0.0
  0
ARC
  5
129
  8
0
 10
2.6149580000000001
 20
-5.240251999999999
 30
0.0
 40
0.215
 50
216.0
 51
36.0
  0
LINE
  5
12A
  8
0
 10
1.4632099999999999
 20
-3.289226999999999
 30
0.0
 11
2.7888969999999991
 21
-5.1138779999999988
 31
0.0
  0
LINE
  5
12B
  8
0
 10
1.0448949999999999
 20
-3.4450249999999989
 30
0.0
 11
2.4410199999999991
 21
-5.3666260000000001
 31
0.0
  0
ARC
  5
12C
  8
0
 10
4.0479440000000002
 20
-3.8072659999999998
 30
0.0
 40
0.215
 50
234.0
 51
54.0
  0
LINE
  5
12D
  8
0
 10
2.6002610000000002
 20
-2.4897079999999998
 30
0.0
 11
4.1743180000000004
 21
-3.6333269999999991
 31
0.0
  0
LINE
  5
12E
  8
0
 10
2.2783370000000001
 20
-2.7873250000000001
 30
0.0
 11
3.9215699999999991
 21
-3.9812050000000001
 31
0.0
  0
ARC
  5
12F
  8
0
 10
4.9679779999999987
 20
-2.0015979999999991
 30
0.0
 40
0.215
 50
252.0
 51
72.0
  0
LINE
  5
130
  8
0
 10
3.373275
 20
-1.257382999999999
 30
0.0
 11
5.0344169999999986
 21
-1.7971209999999991
 31
0.0
  0
LINE
  5
131
  8
0
 10
3.1982459999999988
 20
-1.6526419999999991
 30
0.0
 11
4.9015389999999988
 21
-2.2060749999999989
 31
0.0
  0
LINE
  5
132
  8
0
 10
3.5935739999999989
 20
-0.215
 30
0.0
 11
5.2850000000000001
 21
-0.215
 31
0.0
  0
LINE
  5
133
  8
0
 10
3.5935739999999989
 20
0.215
 30
0.0
 11
5.2850000000000001
 21
0.215
 31
0.0
  0
ARC
  5
134
  8
0
 10
5.2850000000000001
 20
0.0
 30
0.0
 40
0.215
 50
270.0
 51
90.0
  0
LINE
  5
135
  8
0
 10
-0.5653890000000001
 20
-6.2999999999999989
 30
0.0
 11
-0.7843180000000001
 21
-3.7976369999999999
 31
0.0
  0
LINE
  5
136
  8
0
 10
-1.0000560000000001
 20
-6.2999999999999989
 30
0.0
 11
-1.215681999999999
 21
-3.8353760000000001
 31
0.0
  0
ARC
  5
137
  8
0
 10
-1.0
 20
-3.816506
 30
0.0
 40
0.216506
 50
5.0
 51
185.0
  0
LINE
  5
138
  8
0
 10
-2.0653890000000001
 20
-6.2999999999999989
 30
0.0
 11
-2.284317999999999
 21
-3.7976369999999999
 31
0.0
  0
LINE
  5
139
  8
0
 10
-2.5000559999999998
 20
-6.2999999999999989
 30
0.0
 11
-2.7156820000000002
 21
-3.8353760000000001
 31
0.0
  0
ARC
  5
13A
  8
0
 10
-2.5
 20
-3.816506
 30
0.0
 40
0.216506
 50
5.0
 51
185.0
  0
LINE
  5
13B
  8
0
 10
-3.5653890000000001
 20
-6.2999999999999989
 30
0.0
 11
-3.784317999999999
 21
-3.7976369999999999
 31
0.0
  0
LINE
  5
13C
  8
0
 10
-4.0000559999999989
 20
-6.2999999999999989
 30
0.0
 11
-4.2156820000000002
 21
-3.8353760000000001
 31
0.0
  0
ARC
  5
13D
  8
0
 10
-4.0
 20
-3.816506
 30
0.0
 40
0.216506
 50
5.0
 51
185.0
  0
LINE
  5
13E
  8
0
 10
-5.3090120000000001
 20
-3.7145320000000002
 30
0.0
 11
-4.0140690000000001
 21
-6.1398339999999987
 31
0.0
  0
LINE
  5
13F
  8
0
 10
-5.191978999999999
 20
-4.8530749999999987
 30
0.0
 11
-4.4194209999999989
 21
-6.2999999999999989
 31
0.0
  0
ARC
  5
140
  8
0
 10
-5.5
 20
-3.816506
 30
0.0
 40
0.216506
 50
5.0
 51
185.0
  0
LINE
  5
141
  8
0
 10
-5.0653889999999988
 20
-6.2999999999999989
 30
0.0
 11
-5.284317999999999
 21
-3.7976369999999999
 31
0.0
  0
LINE
  5
142
  8
0
 10
-5.5000559999999989
 20
-6.2999999999999989
 30
0.0
 11
-5.7156820000000002
 21
-3.8353760000000001
 31
0.0
  0
LINE
  5
143
  8
0
 10
-7.0000559999999989
 20
-6.2999999999999989
 30
0.0
 11
-7.215682000000001
 21
-3.8353760000000001
 31
0.0
  0
ARC
  5
144
  8
0
 10
-7.0
 20
-3.816506
 30
0.0
 40
0.216506
 50
5.0
 51
185.0
  0
LINE
  5
145
  8
0
 10
-6.8090119999999992
 20
-3.7145320000000002
 30
0.0
 11
-5.5140690000000001
 21
-6.1398339999999987
 31
0.0
  0
LINE
  5
146
  8
0
 10
-6.691978999999999
 20
-4.8530749999999987
 30
0.0
 11
-5.9194209999999989
 21
-6.2999999999999989
 31
0.0
  0
LINE
  5
147
  8
0
 10
-6.5653889999999988
 20
-6.2999999999999989
 30
0.0
 11
-6.7843179999999981
 21
-3.7976369999999999
 31
0.0
  0
LINE
  5
148
  8
0
 10
-8.5000559999999972
 20
-6.2999999999999989
 30
0.0
 11
-8.715682000000001
 21
-3.8353760000000001
 31
0.0
  0
ARC
  5
149
  8
0
 10
-8.5
 20
-3.816506
 30
0.0
 40
0.216506
 50
5.0
 51
185.0
  0
LINE
  5
14A
  8
0
 10
-8.3090119999999992
 20
-3.7145320000000002
 30
0.0
 11
-7.0140690000000001
 21
-6.1398339999999987
 31
0.0
  0
LINE
  5
14B
  8
0
 10
-8.1919789999999981
 20
-4.8530749999999987
 30
0.0
 11
-7.4194209999999998
 21
-6.2999999999999989
 31
0.0
  0
LINE
  5
14C
  8
0
 10
-8.0653889999999997
 20
-6.2999999999999989
 30
0.0
 11
-8.2843179999999972
 21
-3.7976369999999999
 31
0.0
  0
LINE
  5
14D
  8
0
 10
-10.000056000000001
 20
-6.2999999999999989
 30
0.0
 11
-10.215681999999999
 21
-3.8353760000000001
 31
0.0
  0
ARC
  5
14E
  8
0
 10
-10.0
 20
-3.816506
 30
0.0
 40
0.216506
 50
5.0
 51
185.0
  0
LINE
  5
14F
  8
0
 10
-9.8090119999999992
 20
-3.7145320000000002
 30
0.0
 11
-8.5140689999999992
 21
-6.1398339999999987
 31
0.0
  0
LINE
  5
150
  8
0
 10
-9.6919789999999981
 20
-4.8530749999999987
 30
0.0
 11
-8.9194209999999998
 21
-6.2999999999999989
 31
0.0
  0
LINE
  5
151
  8
0
 10
-9.5653889999999997
 20
-6.2999999999999989
 30
0.0
 11
-9.7843179999999972
 21
-3.7976369999999999
 31
0.0
  0
LINE
  5
152
  8
0
 10
-11.309011999999999
 20
-3.7145320000000002
 30
0.0
 11
-10.014068999999999
 21
-6.1398339999999987
 31
0.0
  0
LINE
  5
153
  8
0
 10
-11.191979
 20
-4.8530749999999987
 30
0.0
 11
-10.419421
 21
-6.2999999999999989
 31
0.0
  0
ARC
  5
154
  8
0
 10
-11.5
 20
-3.816506
 30
0.0
 40
0.216506
 50
5.0
 51
185.0
  0
LINE
  5
155
  8
0
 10
-11.065389
 20
-6.2999999999999989
 30
0.0
 11
-11.284318000000001
 21
-3.7976369999999999
 31
0.0
  0
LINE
  5
156
  8
0
 10
-11.500056000000001
 20
-6.2999999999999989
 30
0.0
 11
-11.715681999999999
 21
-3.8353760000000001
 31
0.0
  0
ARC
  5
157
  8
0
 10
-24.0
 20
6.2999999999999989
 30
0.0
 40
0.2
 50
180.0
 51
270.0
  0
ARC
  5
158
  8
0
 10
-14.0
 20
-3.816506
 30
0.0
 40
0.216506
 50
0.0
 51
180.0
  0
LINE
  5
159
  8
0
 10
-13.783493999999999
 20
-6.2999999999999989
 30
0.0
 11
-13.783493999999999
 21
-3.816506
 31
0.0
  0
LINE
  5
15A
  8
0
 10
-13.000056000000001
 20
-6.2999999999999989
 30
0.0
 11
-13.215681999999999
 21
-3.8353760000000001
 31
0.0
  0
LINE
  5
15B
  8
0
 10
-12.565389
 20
-6.2999999999999989
 30
0.0
 11
-12.784318000000001
 21
-3.7976369999999999
 31
0.0
  0
ARC
  5
15C
  8
0
 10
-13.0
 20
-3.816506
 30
0.0
 40
0.216506
 50
5.0
 51
185.0
  0
LINE
  5
15D
  8
0
 10
-12.691979
 20
-4.8530749999999987
 30
0.0
 11
-11.919421
 21
-6.2999999999999989
 31
0.0
  0
LINE
  5
15E
  8
0
 10
-12.809011999999999
 20
-3.7145320000000002
 30
0.0
 11
-11.514068999999999
 21
-6.1398339999999987
 31
0.0
  0
LINE
  5
15F
  8
0
 10
-13.666506
 20
-6.2999999999999989
 30
0.0
 11
-13.666506
 21
-3.816506
 31
0.0
  0
LINE
  5
160
  8
0
 10
-13.233494
 20
-6.2999999999999989
 30
0.0
 11
-13.233494
 21
-3.816506
 31
0.0
  0
ARC
  5
161
  8
0
 10
-13.449999999999999
 20
-3.816506
 30
0.0
 40
0.216506
 50
0.0
 51
180.0
  0
LINE
  5
162
  8
0
 10
-13.019590000000001
 20
-6.2999999999999989
 30
0.0
 11
-13.233494
 21
-5.4881029999999988
 31
0.0
  0
LINE
  5
163
  8
0
 10
-13.695892000000001
 20
-6.2999999999999989
 30
0.0
 11
-13.783493999999999
 21
-5.9674959999999988
 31
0.0
  0
ENDBLK
  5
164
  8
0
  0
ENDSEC
  0
SECTION
  2
ENTITIES
  0
LINE
  5
176
  8
5
 10
126.0
 20
102.658345
 30
0.0
 11
123.0
 21
102.658345
 31
0.0
  0
LINE
  5
177
  8
5
 10
122.5
 20
102.158345
 30
0.0
 11
122.5
 21
81.158344999999997
 31
0.0
  0
LINE
  5
178
  8
5
 10
123.0
 20
80.658344999999997
 30
0.0
 11
126.0
 21
80.658344999999997
 31
0.0
  0
LINE
  5
179
  8
5
 10
171.0
 20
80.658344999999997
 30
0.0
 11
168.0
 21
80.658344999999997
 31
0.0
  0
LINE
  5
17A
  8
5
 10
171.5
 20
102.158345
 30
0.0
 11
171.5
 21
81.158344999999997
 31
0.0
  0
LINE
  5
17B
  8
5
 10
168.0
 20
102.658345
 30
0.0
 11
171.0
 21
102.658345
 31
0.0
  0
LINE
  5
17C
  8
1
 10
147.0
 20
75.658344999999997
 30
0.0
 11
147.0
 21
111.658345
 31
0.0
  0
LINE
  5
17D
  8
0
 10
156.69999999999999
 20
99.658344999999997
 30
0.0
 11
137.30000000000001
 21
99.658344999999997
 31
0.0
  0
LINE
  5
17E
  8
0
 10
157.0
 20
102.658345
 30
0.0
 11
155.73891599999999
 21
99.658344999999997
 31
0.0
  0
LINE
  5
17F
  8
0
 10
137.0
 20
102.658345
 30
0.0
 11
138.26108400000001
 21
99.658344999999997
 31
0.0
  0
ARC
  5
180
  8
0
 10
133.0
 20
92.258344999999991
 30
0.0
 40
3.6000000000000001
 50
90.0
 51
270.0
  0
LINE
  5
181
  8
0
 10
157.19999999999999
 20
88.658344999999997
 30
0.0
 11
161.0
 21
88.658344999999997
 31
0.0
  0
ARC
  5
182
  8
0
 10
161.0
 20
92.258344999999991
 30
0.0
 40
3.6000000000000001
 50
270.0
 51
90.0
  0
LINE
  5
183
  8
0
 10
157.19999999999999
 20
95.858345
 30
0.0
 11
161.0
 21
95.858345
 31
0.0
  0
ARC
  5
184
  8
0
 10
133.0
 20
92.258344999999991
 30
0.0
 40
2.6000000000000001
 50
90.0
 51
270.0
  0
LINE
  5
185
  8
0
 10
157.19999999999999
 20
89.658344999999997
 30
0.0
 11
161.0
 21
89.658344999999997
 31
0.0
  0
ARC
  5
186
  8
0
 10
161.0
 20
92.258344999999991
 30
0.0
 40
2.6000000000000001
 50
270.0
 51
90.0
  0
LINE
  5
187
  8
0
 10
157.19999999999999
 20
94.858345000000014
 30
0.0
 11
161.0
 21
94.858345000000014
 31
0.0
  0
LINE
  5
188
  8
0
 10
136.80000000000001
 20
94.858345000000014
 30
0.0
 11
133.0
 21
94.858345000000014
 31
0.0
  0
LINE
  5
189
  8
0
 10
136.80000000000001
 20
89.658344999999997
 30
0.0
 11
133.0
 21
89.658344999999997
 31
0.0
  0
LINE
  5
18A
  8
0
 10
136.80000000000001
 20
95.858345
 30
0.0
 11
133.0
 21
95.858345
 31
0.0
  0
LINE
  5
18B
  8
0
 10
136.80000000000001
 20
88.658344999999997
 30
0.0
 11
133.0
 21
88.658344999999997
 31
0.0
  0
LINE
  5
18C
  8
0
 10
137.0
 20
85.958344999999994
 30
0.0
 11
157.0
 21
85.958344999999994
 31
0.0
  0
LINE
  5
18D
  8
0
 10
157.19999999999999
 20
88.528441000000001
 30
0.0
 11
157.19999999999999
 21
95.988248999999996
 31
0.0
  0
LINE
  5
18E
  8
0
 10
136.80000000000001
 20
88.528441000000001
 30
0.0
 11
136.80000000000001
 21
95.988248999999996
 31
0.0
  0
LINE
  5
18F
  8
0
 10
157.0
 20
98.158345000000011
 30
0.0
 11
137.0
 21
98.158345000000011
 31
0.0
  0
LINE
  5
190
  8
0
 10
157.19999999999999
 20
98.358345
 30
0.0
 11
157.19999999999999
 21
99.158344999999997
 31
0.0
  0
LINE
  5
191
  8
0
 10
136.80000000000001
 20
98.358345
 30
0.0
 11
136.80000000000001
 21
99.158344999999997
 31
0.0
  0
ARC
  5
192
  8
0
 10
137.0
 20
98.358345
 30
0.0
 40
0.2
 50
180.0
 51
270.0
  0
ARC
  5
193
  8
0
 10
157.0
 20
85.758344999999991
 30
0.0
 40
0.2
 50
0.0
 51
90.0
  0
ARC
  5
194
  8
0
 10
137.0
 20
85.758344999999991
 30
0.0
 40
0.2
 50
90.0
 51
180.0
  0
ARC
  5
195
  8
0
 10
137.0
 20
85.458344999999994
 30
0.0
 40
0.2
 50
90.0
 51
180.0
  0
LINE
  5
196
  8
0
 10
137.0
 20
85.658344999999997
 30
0.0
 11
157.0
 21
85.658344999999997
 31
0.0
  0
ARC
  5
197
  8
0
 10
157.0
 20
85.458344999999994
 30
0.0
 40
0.2
 50
0.0
 51
90.0
  0
LINE
  5
198
  8
0
 10
157.0
 20
98.358345
 30
0.0
 11
137.0
 21
98.358345
 31
0.0
  0
ARC
  5
199
  8
0
 10
137.0
 20
98.558345000000003
 30
0.0
 40
0.2
 50
180.0
 51
270.0
  0
LINE
  5
19A
  8
0
 10
126.5
 20
80.658344999999997
 30
0.0
 11
167.5
 21
80.658344999999997
 31
0.0
  0
LINE
  5
19B
  8
0
 10
167.5
 20
102.658345
 30
0.0
 11
157.0
 21
102.658345
 31
0.0
  0
ARC
  5
19C
  8
0
 10
137.30000000000001
 20
81.158344999999997
 30
0.0
 40
0.5
 50
180.0
 51
270.0
  0
LINE
  5
19D
  8
0
 10
136.80000000000001
 20
81.158344999999997
 30
0.0
 11
136.80000000000001
 21
85.758344999999991
 31
0.0
  0
ARC
  5
19E
  8
0
 10
156.69999999999999
 20
81.158344999999997
 30
0.0
 40
0.5
 50
270.0
 51
0.0
  0
LINE
  5
19F
  8
0
 10
157.19999999999999
 20
81.158344999999997
 30
0.0
 11
157.19999999999999
 21
85.758344999999991
 31
0.0
  0
ARC
  5
1A0
  8
0
 10
137.30000000000001
 20
99.158344999999997
 30
0.0
 40
0.5
 50
90.0
 51
180.0
  0
ARC
  5
1A1
  8
0
 10
156.69999999999999
 20
99.158344999999997
 30
0.0
 40
0.5
 50
0.0
 51
90.0
  0
LINE
  5
1A6
  8
0
 10
249.72409400000001
 20
106.45834499999999
 30
0.0
 11
249.72409400000001
 21
80.658344999999997
 31
0.0
  0
LINE
  5
1A7
  8
0
 10
279.72409399999998
 20
102.658345
 30
0.0
 11
249.72409400000001
 21
102.658345
 31
0.0
  0
LINE
  5
1A8
  8
0
 10
279.72409399999998
 20
80.658344999999997
 30
0.0
 11
279.72409399999998
 21
106.45834499999999
 31
0.0
  0
LINE
  5
1A9
  8
0
 10
249.72409400000001
 20
80.658344999999997
 30
0.0
 11
279.72409399999998
 21
80.658344999999997
 31
0.0
  0
LINE
  5
478
  8
0
 10
168.0
 20
81.158344999999997
 30
0.0
 11
168.0
 21
102.158345
 31
0.0
  0
LINE
  5
479
  8
0
 10
128.08000000000001
 20
106.658345
 30
0.0
 11
165.91999999999999
 21
106.658345
 31
0.0
  0
LINE
  5
47A
  8
0
 10
137.0
 20
102.658345
 30
0.0
 11
126.5
 21
102.658345
 31
0.0
  0
LINE
  5
47B
  8
0
 10
126.0
 20
102.158345
 30
0.0
 11
126.0
 21
81.158344999999997
 31
0.0
  0
ARC
  5
47C
  8
0
 10
126.5
 20
81.158344999999997
 30
0.0
 40
0.5
 50
180.0
 51
270.0
  0
ARC
  5
47D
  8
0
 10
126.5
 20
102.158345
 30
0.0
 40
0.5
 50
90.0
 51
180.0
  0
ARC
  5
47E
  8
0
 10
167.5
 20
102.158345
 30
0.0
 40
0.5
 50
0.0
 51
90.0
  0
ARC
  5
47F
  8
0
 10
167.5
 20
81.158344999999997
 30
0.0
 40
0.5
 50
270.0
 51
0.0
  0
LINE
  5
480
  8
0
 10
135.86093500000001
 20
106.658345
 30
0.0
 11
138.80346399999999
 21
99.658344999999997
 31
0.0
  0
LINE
  5
481
  8
0
 10
158.13906499999999
 20
106.658345
 30
0.0
 11
155.19653600000001
 21
99.658344999999997
 31
0.0
  0
LINE
  5
482
  8
0
 10
165.91999999999999
 20
106.658345
 30
0.0
 11
164.23855499999999
 21
102.658345
 31
0.0
  0
LINE
  5
483
  8
0
 10
128.08000000000001
 20
106.658345
 30
0.0
 11
129.76144500000001
 21
102.658345
 31
0.0
  0
ARC
  5
484
  8
5
 10
123.0
 20
102.158345
 30
0.0
 40
0.5
 50
90.0
 51
180.0
  0
ARC
  5
485
  8
5
 10
123.0
 20
81.158344999999997
 30
0.0
 40
0.5
 50
180.0
 51
270.0
  0
ARC
  5
486
  8
5
 10
171.0
 20
81.158344999999997
 30
0.0
 40
0.5
 50
270.0
 51
0.0
  0
ARC
  5
487
  8
5
 10
171.0
 20
102.158345
 30
0.0
 40
0.5
 50
0.0
 51
90.0
  0
LINE
  5
488
  8
0
 10
244.22409400000001
 20
89.658344999999997
 30
0.0
 11
244.22409400000001
 21
94.858345000000014
 31
0.0
  0
LINE
  5
489
  8
0
 10
249.22409400000001
 20
98.658344999999997
 30
0.0
 11
249.22409400000001
 21
81.614229000000009
 31
0.0
  0
LINE
  5
48A
  8
0
 10
248.72409400000001
 20
82.858827000000005
 30
0.0
 11
248.72409400000001
 21
81.798979000000003
 31
0.0
  0
ARC
  5
48B
  8
0
 10
248.22409400000001
 20
83.073823999999988
 30
0.0
 40
1.0
 50
0.0
 51
46.534835000000001
  0
ARC
  5
48C
  8
0
 10
247.72409400000001
 20
82.858827000000005
 30
0.0
 40
1.0
 50
0.0
 51
46.534835000000001
  0
LINE
  5
48D
  8
0
 10
249.014353
 20
80.658344999999997
 30
0.0
 11
249.22409400000001
 21
80.658344999999997
 31
0.0
  0
ARC
  5
48E
  8
0
 10
249.22409400000001
 20
81.278355000000005
 30
0.0
 40
0.12001
 50
159.06525600000001
 51
20.934743999999998
  0
LINE
  5
48F
  8
0
 10
249.22409400000001
 20
81.614229000000009
 30
0.0
 11
249.11200700000001
 21
81.321235000000001
 31
0.0
  0
LINE
  5
490
  8
0
 10
249.22409400000001
 20
81.614229000000009
 30
0.0
 11
249.33618200000001
 21
81.321235000000001
 31
0.0
  0
LINE
  5
491
  8
0
 10
248.69108800000001
 20
81.620327000000003
 30
0.0
 11
248.52930699999999
 21
81.197434999999999
 31
0.0
  0
ARC
  5
492
  8
0
 10
249.014353
 20
81.158344999999997
 30
0.0
 40
0.5
 50
186.19452699999999
 51
270.0
  0
ARC
  5
493
  8
0
 10
249.22409400000001
 20
81.158344999999997
 30
0.0
 40
0.5
 50
270.0
 51
0.0
  0
ARC
  5
494
  8
0
 10
248.716105
 20
81.125973999999999
 30
0.0
 40
0.2
 50
159.06525600000001
 51
186.19452699999999
  0
ARC
  5
495
  8
0
 10
248.22409400000001
 20
81.798979000000003
 30
0.0
 40
0.5
 50
339.06525599999998
 51
0.0
  0
LINE
  5
496
  8
0
 10
246.40187599999999
 20
85.658344999999997
 30
0.0
 11
246.745833
 21
86.021241000000003
 31
0.0
  0
LINE
  5
497
  8
0
 10
245.22409400000001
 20
88.658344999999997
 30
0.0
 11
246.02409399999999
 21
88.658344999999997
 31
0.0
  0
LINE
  5
498
  8
0
 10
245.22409400000001
 20
95.858345
 30
0.0
 11
246.02409399999999
 21
95.858345
 31
0.0
  0
LINE
  5
499
  8
0
 10
246.22409400000001
 20
87.158344999999997
 30
0.0
 11
246.22409400000001
 21
97.358345000000014
 31
0.0
  0
ARC
  5
49A
  8
0
 10
247.72409400000001
 20
87.158344999999997
 30
0.0
 40
1.5
 50
180.0
 51
0.0
  0
LINE
  5
49B
  8
0
 10
248.91200799999999
 20
83.799615999999986
 30
0.0
 11
246.745833
 21
86.021241000000003
 31
0.0
  0
LINE
  5
49C
  8
0
 10
248.41200799999999
 20
83.584618999999989
 30
0.0
 11
246.40187599999999
 21
85.658344999999997
 31
0.0
  0
ARC
  5
49D
  8
0
 10
247.72409400000001
 20
97.358345000000014
 30
0.0
 40
1.5
 50
0.0
 51
180.0
  0
LINE
  5
49E
  8
0
 10
247.39701600000001
 20
99.658344999999997
 30
0.0
 11
249.22409400000001
 21
99.658344999999997
 31
0.0
  0
LINE
  5
49F
  8
0
 10
247.66247100000001
 20
99.158344999999997
 30
0.0
 11
248.72409400000001
 21
99.158344999999997
 31
0.0
  0
LINE
  5
4A0
  8
0
 10
246.45523600000001
 20
98.158345000000011
 30
0.0
 11
246.83413100000001
 21
98.718570999999983
 31
0.0
  0
LINE
  5
4A1
  8
0
 10
245.986884
 20
98.358345
 30
0.0
 11
246.56867600000001
 21
99.218570999999997
 31
0.0
  0
LINE
  5
4A2
  8
0
 10
246.45523600000001
 20
98.158345000000011
 30
0.0
 11
245.986884
 21
98.358345
 31
0.0
  0
ARC
  5
4A3
  8
0
 10
248.72409400000001
 20
98.658344999999997
 30
0.0
 40
0.5
 50
360.0
 51
90.0
  0
ARC
  5
4A4
  8
0
 10
249.22409400000001
 20
99.158344999999997
 30
0.0
 40
0.5
 50
0.0
 51
90.0
  0
ARC
  5
4A5
  8
0
 10
247.39701600000001
 20
98.658344999999997
 30
0.0
 40
1.0
 50
90.0
 51
145.92854700000001
  0
ARC
  5
4A6
  8
0
 10
247.66247100000001
 20
98.158345000000011
 30
0.0
 40
1.0
 50
90.0
 51
145.92854700000001
  0
LINE
  5
4A7
  8
0
 10
245.22409400000001
 20
88.658344999999997
 30
0.0
 11
245.22409400000001
 21
95.858345
 31
0.0
  0
LINE
  5
4A8
  8
0
 10
244.22409400000001
 20
94.858345000000014
 30
0.0
 11
245.22409400000001
 21
95.858345
 31
0.0
  0
LINE
  5
4A9
  8
0
 10
244.22409400000001
 20
89.658344999999997
 30
0.0
 11
245.22409400000001
 21
88.658344999999997
 31
0.0
  0
ARC
  5
4AA
  8
0
 10
247.72409400000001
 20
97.220889999999997
 30
0.0
 40
1.5
 50
0.0
 51
180.0
  0
ARC
  5
4AB
  8
0
 10
247.72409400000001
 20
96.941069999999996
 30
0.0
 40
1.5
 50
0.0
 51
180.0
  0
ARC
  5
4AC
  8
0
 10
247.72409400000001
 20
96.52379599999999
 30
0.0
 40
1.5
 50
0.0
 51
180.0
  0
ARC
  5
4AD
  8
0
 10
247.72409400000001
 20
95.969065999999998
 30
0.0
 40
1.5
 50
0.0
 51
180.0
  0
ARC
  5
4AE
  8
0
 10
247.72409400000001
 20
95.178698999999995
 30
0.0
 40
1.5
 50
0.0
 51
180.0
  0
ARC
  5
4AF
  8
0
 10
247.72409400000001
 20
94.250877000000003
 30
0.0
 40
1.5
 50
0.0
 51
180.0
  0
ARC
  5
4B0
  8
0
 10
247.72409400000001
 20
93.229781000000003
 30
0.0
 40
1.5
 50
0.0
 51
180.0
  0
ARC
  5
4B1
  8
0
 10
247.72409400000001
 20
97.03434399999999
 30
0.0
 40
1.5
 50
0.0
 51
180.0
  0
ARC
  5
4B2
  8
0
 10
247.72409400000001
 20
96.710342000000011
 30
0.0
 40
1.5
 50
0.0
 51
180.0
  0
ARC
  5
4B3
  8
0
 10
247.72409400000001
 20
96.386341000000002
 30
0.0
 40
1.5
 50
0.0
 51
180.0
  0
ARC
  5
4B4
  8
0
 10
247.72409400000001
 20
95.645065000000002
 30
0.0
 40
1.5
 50
0.0
 51
180.0
  0
ARC
  5
4B5
  8
0
 10
247.72409400000001
 20
94.717241999999999
 30
0.0
 40
1.5
 50
0.0
 51
180.0
  0
ARC
  5
4B6
  8
0
 10
247.72409400000001
 20
93.637237999999996
 30
0.0
 40
1.5
 50
0.0
 51
180.0
  0
LINE
  5
4B7
  8
0
 10
246.43909400000001
 20
92.473344999999995
 30
0.0
 11
249.009094
 21
92.473344999999995
 31
0.0
  0
LINE
  5
4B8
  8
0
 10
246.43909400000001
 20
92.043344999999988
 30
0.0
 11
249.009094
 21
92.043344999999988
 31
0.0
  0
ARC
  5
4B9
  8
0
 10
246.43909400000001
 20
92.258344999999991
 30
0.0
 40
0.215
 50
90.0
 51
270.0
  0
ARC
  5
4BA
  8
0
 10
249.009094
 20
92.258344999999991
 30
0.0
 40
0.215
 50
270.0
 51
90.0
  0
ARC
  5
4BB
  8
0
 10
247.72409400000001
 20
93.707533999999995
 30
0.0
 40
2.9258310000000001
 50
241.581411
 51
298.418589
  0
ARC
  5
4BC
  8
0
 10
246.43909400000001
 20
91.320518000000007
 30
0.0
 40
0.215
 50
61.712347999999999
 51
243.389072
  0
ARC
  5
4BD
  8
0
 10
249.009094
 20
91.320518000000007
 30
0.0
 40
0.215
 50
296.610928
 51
118.28765199999999
  0
ARC
  5
4BE
  8
0
 10
247.72409400000001
 20
93.708254000000011
 30
0.0
 40
2.4965509999999989
 50
241.71234799999999
 51
298.28765199999998
  0
ARC
  5
4BF
  8
0
 10
247.72409400000001
 20
90.808435999999986
 30
0.0
 40
2.4965509999999989
 50
61.712347999999999
 51
118.28765199999999
  0
ARC
  5
4C0
  8
0
 10
249.009094
 20
93.196172000000004
 30
0.0
 40
0.215
 50
241.71234799999999
 51
63.389071999999999
  0
ARC
  5
4C1
  8
0
 10
246.43909400000001
 20
93.196172000000004
 30
0.0
 40
0.215
 50
116.610928
 51
298.28765199999998
  0
ARC
  5
4C2
  8
0
 10
247.72409400000001
 20
90.809156000000002
 30
0.0
 40
2.9258310000000001
 50
61.581410999999989
 51
118.418589
  0
ARC
  5
4C3
  8
0
 10
247.72409400000001
 20
90.879452999999984
 30
0.0
 40
1.5
 50
180.0
 51
0.0
  0
ARC
  5
4C4
  8
0
 10
247.72409400000001
 20
89.799447999999998
 30
0.0
 40
1.5
 50
180.0
 51
0.0
  0
ARC
  5
4C5
  8
0
 10
247.72409400000001
 20
88.871624999999995
 30
0.0
 40
1.5
 50
180.0
 51
0.0
  0
ARC
  5
4C6
  8
0
 10
247.72409400000001
 20
88.130348999999995
 30
0.0
 40
1.5
 50
180.0
 51
0.0
  0
ARC
  5
4C7
  8
0
 10
247.72409400000001
 20
87.806347999999986
 30
0.0
 40
1.5
 50
180.0
 51
0.0
  0
ARC
  5
4C8
  8
0
 10
247.72409400000001
 20
87.482345999999993
 30
0.0
 40
1.5
 50
180.0
 51
0.0
  0
ARC
  5
4C9
  8
0
 10
247.72409400000001
 20
91.286908999999994
 30
0.0
 40
1.5
 50
180.0
 51
0.0
  0
ARC
  5
4CA
  8
0
 10
247.72409400000001
 20
90.265812999999994
 30
0.0
 40
1.5
 50
180.0
 51
0.0
  0
ARC
  5
4CB
  8
0
 10
247.72409400000001
 20
89.337990999999988
 30
0.0
 40
1.5
 50
180.0
 51
0.0
  0
ARC
  5
4CC
  8
0
 10
247.72409400000001
 20
88.547623999999999
 30
0.0
 40
1.5
 50
180.0
 51
0.0
  0
ARC
  5
4CD
  8
0
 10
247.72409400000001
 20
87.992893999999993
 30
0.0
 40
1.5
 50
180.0
 51
0.0
  0
ARC
  5
4CE
  8
0
 10
247.72409400000001
 20
87.575620000000001
 30
0.0
 40
1.5
 50
180.0
 51
0.0
  0
ARC
  5
4CF
  8
0
 10
247.72409400000001
 20
87.2958
 30
0.0
 40
1.5
 50
180.0
 51
0.0
  0
LINE
  5
4D0
  8
1
 10
264.72409399999998
 20
75.658344999999997
 30
0.0
 11
264.72409399999998
 21
111.658345
 31
0.0
  0
ARC
  5
4D1
  8
0
 10
281.72409399999998
 20
87.2958
 30
0.0
 40
1.5
 50
180.0
 51
0.0
  0
ARC
  5
4D2
  8
0
 10
281.72409399999998
 20
87.575620000000001
 30
0.0
 40
1.5
 50
180.0
 51
0.0
  0
ARC
  5
4D3
  8
0
 10
281.72409399999998
 20
87.992893999999993
 30
0.0
 40
1.5
 50
180.0
 51
0.0
  0
ARC
  5
4D4
  8
0
 10
281.72409399999998
 20
88.547623999999999
 30
0.0
 40
1.5
 50
180.0
 51
0.0
  0
ARC
  5
4D5
  8
0
 10
281.72409399999998
 20
89.337990999999988
 30
0.0
 40
1.5
 50
180.0
 51
0.0
  0
ARC
  5
4D6
  8
0
 10
281.72409399999998
 20
90.265812999999994
 30
0.0
 40
1.5
 50
180.0
 51
0.0
  0
ARC
  5
4D7
  8
0
 10
281.72409399999998
 20
91.286908999999994
 30
0.0
 40
1.5
 50
180.0
 51
0.0
  0
ARC
  5
4D8
  8
0
 10
281.72409399999998
 20
87.482345999999993
 30
0.0
 40
1.5
 50
180.0
 51
0.0
  0
ARC
  5
4D9
  8
0
 10
281.72409399999998
 20
87.806347999999986
 30
0.0
 40
1.5
 50
180.0
 51
0.0
  0
ARC
  5
4DA
  8
0
 10
281.72409399999998
 20
88.130348999999995
 30
0.0
 40
1.5
 50
180.0
 51
0.0
  0
ARC
  5
4DB
  8
0
 10
281.72409399999998
 20
88.871624999999995
 30
0.0
 40
1.5
 50
180.0
 51
0.0
  0
ARC
  5
4DC
  8
0
 10
281.72409399999998
 20
89.799447999999998
 30
0.0
 40
1.5
 50
180.0
 51
0.0
  0
ARC
  5
4DD
  8
0
 10
281.72409399999998
 20
90.879452999999984
 30
0.0
 40
1.5
 50
180.0
 51
0.0
  0
ARC
  5
4DE
  8
0
 10
281.72409399999998
 20
90.809156000000002
 30
0.0
 40
2.9258310000000001
 50
61.581410999999989
 51
118.418589
  0
ARC
  5
4DF
  8
0
 10
283.009094
 20
93.196172000000004
 30
0.0
 40
0.215
 50
241.71234799999999
 51
63.389071999999999
  0
ARC
  5
4E0
  8
0
 10
280.43909400000001
 20
93.196172000000004
 30
0.0
 40
0.215
 50
116.610928
 51
298.28765199999998
  0
ARC
  5
4E1
  8
0
 10
281.72409399999998
 20
90.808435999999986
 30
0.0
 40
2.4965509999999989
 50
61.712347999999999
 51
118.28765199999999
  0
ARC
  5
4E2
  8
0
 10
281.72409399999998
 20
93.708254000000011
 30
0.0
 40
2.4965509999999989
 50
241.71234799999999
 51
298.28765199999998
  0
ARC
  5
4E3
  8
0
 10
280.43909400000001
 20
91.320518000000007
 30
0.0
 40
0.215
 50
61.712347999999999
 51
243.389072
  0
ARC
  5
4E4
  8
0
 10
283.009094
 20
91.320518000000007
 30
0.0
 40
0.215
 50
296.610928
 51
118.28765199999999
  0
ARC
  5
4E5
  8
0
 10
281.72409399999998
 20
93.707533999999995
 30
0.0
 40
2.9258310000000001
 50
241.581411
 51
298.418589
  0
ARC
  5
4E6
  8
0
 10
280.43909400000001
 20
92.258344999999991
 30
0.0
 40
0.215
 50
90.0
 51
270.0
  0
ARC
  5
4E7
  8
0
 10
283.009094
 20
92.258344999999991
 30
0.0
 40
0.215
 50
270.0
 51
90.0
  0
LINE
  5
4E8
  8
0
 10
283.009094
 20
92.043344999999988
 30
0.0
 11
280.43909400000001
 21
92.043344999999988
 31
0.0
  0
LINE
  5
4E9
  8
0
 10
283.009094
 20
92.473344999999995
 30
0.0
 11
280.43909400000001
 21
92.473344999999995
 31
0.0
  0
ARC
  5
4EA
  8
0
 10
281.72409399999998
 20
93.637237999999996
 30
0.0
 40
1.5
 50
0.0
 51
180.0
  0
ARC
  5
4EB
  8
0
 10
281.72409399999998
 20
94.717241999999999
 30
0.0
 40
1.5
 50
0.0
 51
180.0
  0
ARC
  5
4EC
  8
0
 10
281.72409399999998
 20
95.645065000000002
 30
0.0
 40
1.5
 50
0.0
 51
180.0
  0
ARC
  5
4ED
  8
0
 10
281.72409399999998
 20
96.386341000000002
 30
0.0
 40
1.5
 50
0.0
 51
180.0
  0
ARC
  5
4EE
  8
0
 10
281.72409399999998
 20
96.710342000000011
 30
0.0
 40
1.5
 50
0.0
 51
180.0
  0
ARC
  5
4EF
  8
0
 10
281.72409399999998
 20
97.03434399999999
 30
0.0
 40
1.5
 50
0.0
 51
180.0
  0
ARC
  5
4F0
  8
0
 10
281.72409399999998
 20
93.229781000000003
 30
0.0
 40
1.5
 50
0.0
 51
180.0
  0
ARC
  5
4F1
  8
0
 10
281.72409399999998
 20
94.250877000000003
 30
0.0
 40
1.5
 50
0.0
 51
180.0
  0
ARC
  5
4F2
  8
0
 10
281.72409399999998
 20
95.178698999999995
 30
0.0
 40
1.5
 50
0.0
 51
180.0
  0
ARC
  5
4F3
  8
0
 10
281.72409399999998
 20
95.969065999999998
 30
0.0
 40
1.5
 50
0.0
 51
180.0
  0
ARC
  5
4F4
  8
0
 10
281.72409399999998
 20
96.52379599999999
 30
0.0
 40
1.5
 50
0.0
 51
180.0
  0
ARC
  5
4F5
  8
0
 10
281.72409399999998
 20
96.941069999999996
 30
0.0
 40
1.5
 50
0.0
 51
180.0
  0
ARC
  5
4F6
  8
0
 10
281.72409399999998
 20
97.220889999999997
 30
0.0
 40
1.5
 50
0.0
 51
180.0
  0
LINE
  5
4F7
  8
0
 10
285.22409399999998
 20
89.658344999999997
 30
0.0
 11
284.22409399999998
 21
88.658344999999997
 31
0.0
  0
LINE
  5
4F8
  8
0
 10
285.22409399999998
 20
94.858345000000014
 30
0.0
 11
284.22409399999998
 21
95.858345
 31
0.0
  0
LINE
  5
4F9
  8
0
 10
284.22409399999998
 20
88.658344999999997
 30
0.0
 11
284.22409399999998
 21
95.858345
 31
0.0
  0
ARC
  5
4FA
  8
0
 10
281.78571799999997
 20
98.158345000000011
 30
0.0
 40
1.0
 50
34.071453000000012
 51
90.0
  0
ARC
  5
4FB
  8
0
 10
282.05117300000001
 20
98.658344999999997
 30
0.0
 40
1.0
 50
34.071453000000012
 51
90.0
  0
ARC
  5
4FC
  8
0
 10
280.22409399999998
 20
99.158344999999997
 30
0.0
 40
0.5
 50
90.0
 51
180.0
  0
ARC
  5
4FD
  8
0
 10
280.72409399999998
 20
98.658344999999997
 30
0.0
 40
0.5
 50
90.0
 51
180.0
  0
LINE
  5
4FE
  8
0
 10
282.992952
 20
98.158345000000011
 30
0.0
 11
283.46130399999998
 21
98.358345
 31
0.0
  0
LINE
  5
4FF
  8
0
 10
283.46130399999998
 20
98.358345
 30
0.0
 11
282.87951199999998
 21
99.218570999999997
 31
0.0
  0
LINE
  5
500
  8
0
 10
282.992952
 20
98.158345000000011
 30
0.0
 11
282.614057
 21
98.718570999999983
 31
0.0
  0
LINE
  5
501
  8
0
 10
281.78571799999997
 20
99.158344999999997
 30
0.0
 11
280.72409399999998
 21
99.158344999999997
 31
0.0
  0
LINE
  5
502
  8
0
 10
282.05117300000001
 20
99.658344999999997
 30
0.0
 11
280.22409399999998
 21
99.658344999999997
 31
0.0
  0
ARC
  5
503
  8
0
 10
281.72409399999998
 20
97.358345000000014
 30
0.0
 40
1.5
 50
0.0
 51
180.0
  0
LINE
  5
504
  8
0
 10
281.036181
 20
83.584618999999989
 30
0.0
 11
283.046312
 21
85.658344999999997
 31
0.0
  0
LINE
  5
505
  8
0
 10
280.536181
 20
83.799615999999986
 30
0.0
 11
282.70235600000001
 21
86.021241000000003
 31
0.0
  0
ARC
  5
506
  8
0
 10
281.72409399999998
 20
87.158344999999997
 30
0.0
 40
1.5
 50
180.0
 51
0.0
  0
LINE
  5
507
  8
0
 10
283.22409399999998
 20
87.158344999999997
 30
0.0
 11
283.22409399999998
 21
97.358345000000014
 31
0.0
  0
LINE
  5
508
  8
0
 10
284.22409399999998
 20
95.858345
 30
0.0
 11
283.42409400000003
 21
95.858345
 31
0.0
  0
LINE
  5
509
  8
0
 10
284.22409399999998
 20
88.658344999999997
 30
0.0
 11
283.42409400000003
 21
88.658344999999997
 31
0.0
  0
LINE
  5
50A
  8
0
 10
283.046312
 20
85.658344999999997
 30
0.0
 11
282.70235600000001
 21
86.021241000000003
 31
0.0
  0
ARC
  5
50B
  8
0
 10
281.22409399999998
 20
81.798979000000003
 30
0.0
 40
0.5
 50
180.0
 51
200.93474399999999
  0
ARC
  5
50C
  8
0
 10
280.73208399999999
 20
81.125973999999999
 30
0.0
 40
0.2
 50
353.80547300000001
 51
20.934743999999998
  0
ARC
  5
50D
  8
0
 10
280.22409399999998
 20
81.158344999999997
 30
0.0
 40
0.5
 50
180.0
 51
270.0
  0
ARC
  5
50E
  8
0
 10
280.43383499999999
 20
81.158344999999997
 30
0.0
 40
0.5
 50
270.0
 51
353.80547300000001
  0
LINE
  5
50F
  8
0
 10
280.75709999999998
 20
81.620327000000003
 30
0.0
 11
280.918881
 21
81.197434999999999
 31
0.0
  0
LINE
  5
510
  8
0
 10
280.22409399999998
 20
81.614229000000009
 30
0.0
 11
280.11200700000001
 21
81.321235000000001
 31
0.0
  0
LINE
  5
511
  8
0
 10
280.22409399999998
 20
81.614229000000009
 30
0.0
 11
280.33618200000001
 21
81.321235000000001
 31
0.0
  0
ARC
  5
512
  8
0
 10
280.22409399999998
 20
81.278355000000005
 30
0.0
 40
0.12001
 50
159.06525600000001
 51
20.934743999999998
  0
LINE
  5
513
  8
0
 10
280.43383499999999
 20
80.658344999999997
 30
0.0
 11
280.22409399999998
 21
80.658344999999997
 31
0.0
  0
ARC
  5
514
  8
0
 10
281.72409399999998
 20
82.858827000000005
 30
0.0
 40
1.0
 50
133.46516500000001
 51
180.0
  0
ARC
  5
515
  8
0
 10
281.22409399999998
 20
83.073823999999988
 30
0.0
 40
1.0
 50
133.46516500000001
 51
180.0
  0
LINE
  5
516
  8
0
 10
280.72409399999998
 20
82.858827000000005
 30
0.0
 11
280.72409399999998
 21
81.798979000000003
 31
0.0
  0
LINE
  5
517
  8
0
 10
280.22409399999998
 20
98.658344999999997
 30
0.0
 11
280.22409399999998
 21
81.614229000000009
 31
0.0
  0
LINE
  5
518
  8
0
 10
285.22409399999998
 20
89.658344999999997
 30
0.0
 11
285.22409399999998
 21
94.858345000000014
 31
0.0
  0
LINE
  5
519
  8
0
 10
249.924094
 20
106.658345
 30
0.0
 11
279.52409399999999
 21
106.658345
 31
0.0
  0
LINE
  5
51A
  8
0
 10
266.72409399999998
 20
102.658345
 30
0.0
 11
266.72409399999998
 21
106.658345
 31
0.0
  0
LINE
  5
51B
  8
0
 10
262.72409399999998
 20
102.658345
 30
0.0
 11
262.72409399999998
 21
106.658345
 31
0.0
  0
LINE
  5
51C
  8
0
 10
246.02409399999999
 20
95.858345
 30
0.0
 11
246.22409400000001
 21
95.658344999999997
 31
0.0
  0
LINE
  5
51D
  8
0
 10
246.02409399999999
 20
88.658344999999997
 30
0.0
 11
246.22409400000001
 21
88.858344999999986
 31
0.0
  0
LINE
  5
51E
  8
0
 10
283.42409400000003
 20
88.658344999999997
 30
0.0
 11
283.22409399999998
 21
88.858344999999986
 31
0.0
  0
LINE
  5
51F
  8
0
 10
283.42409400000003
 20
95.858345
 30
0.0
 11
283.22409399999998
 21
95.658344999999997
 31
0.0
  0
LINE
  5
520
  8
0
 10
249.924094
 20
106.658345
 30
0.0
 11
249.72409400000001
 21
106.45834499999999
 31
0.0
  0
LINE
  5
521
  8
0
 10
279.52409399999999
 20
106.658345
 30
0.0
 11
279.72409399999998
 21
106.45834499999999
 31
0.0
  0
LINE
  5
522
  8
0
 10
126.0
 20
154.15842799999999
 30
0.0
 11
126.0
 21
183.15842799999999
 31
0.0
  0
LINE
  5
523
  8
0
 10
168.0
 20
154.15842799999999
 30
0.0
 11
168.0
 21
183.15842799999999
 31
0.0
  0
LINE
  5
524
  8
5
 10
171.0
 20
183.65842799999999
 30
0.0
 11
168.0
 21
183.65842799999999
 31
0.0
  0
LINE
  5
525
  8
5
 10
171.0
 20
153.65842799999999
 30
0.0
 11
168.0
 21
153.65842799999999
 31
0.0
  0
LINE
  5
526
  8
5
 10
171.5
 20
154.15842799999999
 30
0.0
 11
171.5
 21
183.15842799999999
 31
0.0
  0
LINE
  5
527
  8
5
 10
122.5
 20
154.15842799999999
 30
0.0
 11
122.5
 21
183.15842799999999
 31
0.0
  0
LINE
  5
528
  8
5
 10
126.0
 20
153.65842799999999
 30
0.0
 11
123.0
 21
153.65842799999999
 31
0.0
  0
ARC
  5
529
  8
0
 10
126.5
 20
154.15842799999999
 30
0.0
 40
0.5
 50
180.0
 51
270.0
  0
ARC
  5
52A
  8
5
 10
123.0
 20
154.15842799999999
 30
0.0
 40
0.5
 50
180.0
 51
270.0
  0
LINE
  5
52B
  8
5
 10
126.0
 20
183.65842799999999
 30
0.0
 11
123.0
 21
183.65842799999999
 31
0.0
  0
ARC
  5
52C
  8
5
 10
123.0
 20
183.15842799999999
 30
0.0
 40
0.5
 50
90.0
 51
180.0
  0
ARC
  5
52D
  8
0
 10
126.5
 20
183.15842799999999
 30
0.0
 40
0.5
 50
90.0
 51
180.0
  0
LINE
  5
52E
  8
0
 10
167.5
 20
183.65842799999999
 30
0.0
 11
126.5
 21
183.65842799999999
 31
0.0
  0
ARC
  5
52F
  8
0
 10
167.5
 20
183.15842799999999
 30
0.0
 40
0.5
 50
0.0
 51
90.0
  0
ARC
  5
530
  8
5
 10
171.0
 20
183.15842799999999
 30
0.0
 40
0.5
 50
0.0
 51
90.0
  0
LINE
  5
531
  8
0
 10
167.5
 20
153.65842799999999
 30
0.0
 11
126.5
 21
153.65842799999999
 31
0.0
  0
ARC
  5
532
  8
0
 10
167.5
 20
154.15842799999999
 30
0.0
 40
0.5
 50
270.0
 51
0.0
  0
ARC
  5
533
  8
5
 10
171.0
 20
154.15842799999999
 30
0.0
 40
0.5
 50
270.0
 51
360.0
  0
LINE
  5
534
  8
0
 10
163.59999999999999
 20
148.15842799999999
 30
0.0
 11
157.19999999999999
 21
148.15842799999999
 31
0.0
  0
LINE
  5
535
  8
1
 10
176.5
 20
168.65842799999999
 30
0.0
 11
117.5
 21
168.65842799999999
 31
0.0
  0
LINE
  5
536
  8
0
 10
165.91999999999999
 20
166.65842799999999
 30
0.0
 11
165.91999999999999
 21
170.65842799999999
 31
0.0
  0
LINE
  5
537
  8
0
 10
165.91999999999999
 20
166.65842799999999
 30
0.0
 11
158.41999999999999
 21
153.65842799999999
 31
0.0
  0
LINE
  5
538
  8
0
 10
165.91999999999999
 20
170.65842799999999
 30
0.0
 11
158.41999999999999
 21
183.65842799999999
 31
0.0
  0
LINE
  5
539
  8
0
 10
128.08000000000001
 20
170.65842799999999
 30
0.0
 11
135.58000000000001
 21
183.65842799999999
 31
0.0
  0
LINE
  5
53A
  8
0
 10
128.08000000000001
 20
166.65842799999999
 30
0.0
 11
135.58000000000001
 21
153.65842799999999
 31
0.0
  0
LINE
  5
53B
  8
0
 10
128.08000000000001
 20
166.65842799999999
 30
0.0
 11
128.08000000000001
 21
170.65842799999999
 31
0.0
  0
LINE
  5
53C
  8
1
 10
147.0
 20
143.15842799999999
 30
0.0
 11
147.0
 21
194.15842799999999
 31
0.0
  0
LINE
  5
53D
  8
1
 10
148.0
 20
156.65842799999999
 30
0.0
 11
148.0
 21
180.65842799999999
 31
0.0
  0
LINE
  5
53E
  8
1
 10
146.0
 20
156.65842799999999
 30
0.0
 11
146.0
 21
180.65842799999999
 31
0.0
  0
TEXT
  5
53F
  8
0
 10
137.3833333333333
 20
178.958428
 30
0.0
 40
3.2000000000000002
  1
O
 72
     4
 11
138.44999999999999
 21
180.55842799999999
 31
0.0
  0
TEXT
  5
540
  8
0
 10
140.3833333333333
 20
178.958428
 30
0.0
 40
3.2000000000000002
  1
K
 72
     4
 11
141.44999999999999
 21
180.55842799999999
 31
0.0
  0
TEXT
  5
541
  8
0
 10
143.3833333333333
 20
178.958428
 30
0.0
 40
3.2000000000000002
  1
-
 72
     4
 11
144.44999999999999
 21
180.55842799999999
 31
0.0
  0
TEXT
  5
542
  8
0
 10
145.84999999999999
 20
178.958428
 30
0.0
 40
3.2000000000000002
  1
V
 72
     4
 11
147.44999999999999
 21
180.55842799999999
 31
0.0
  0
TEXT
  5
543
  8
0
 10
149.9166666666666
 20
178.958428
 30
0.0
 40
3.2000000000000002
  1
I
 72
     4
 11
150.44999999999999
 21
180.55842799999999
 31
0.0
  0
TEXT
  5
544
  8
0
 10
152.3833333333333
 20
178.958428
 30
0.0
 40
3.2000000000000002
  1
S
 72
     4
 11
153.44999999999999
 21
180.55842799999999
 31
0.0
  0
TEXT
  5
545
  8
0
 10
155.3833333333333
 20
178.958428
 30
0.0
 40
3.2000000000000002
  1
E
 72
     4
 11
156.44999999999999
 21
180.55842799999999
 31
0.0
  0
TEXT
  5
546
  8
0
 10
153.18333333333331
 20
154.644068
 30
0.0
 40
3.2000000000000002
  1
T
 72
     4
 11
154.25
 21
156.244068
 31
0.0
  0
TEXT
  5
547
  8
0
 10
149.65000000000001
 20
154.644068
 30
0.0
 40
3.2000000000000002
  1
V
 72
     4
 11
151.25
 21
156.244068
 31
0.0
  0
TEXT
  5
548
  8
0
 10
147.18333333333331
 20
154.644068
 30
0.0
 40
3.2000000000000002
  1
-
 72
     4
 11
148.25
 21
156.244068
 31
0.0
  0
TEXT
  5
549
  8
0
 10
144.18333333333331
 20
154.644068
 30
0.0
 40
3.2000000000000002
  1
2
 72
     4
 11
145.25
 21
156.244068
 31
0.0
  0
TEXT
  5
54A
  8
0
 10
141.18333333333331
 20
154.644068
 30
0.0
 40
3.2000000000000002
  1
K
 72
     4
 11
142.25
 21
156.244068
 31
0.0
  0
TEXT
  5
54B
  8
0
 10
138.18333333333331
 20
154.644068
 30
0.0
 40
3.2000000000000002
  1
D
 72
     4
 11
139.25
 21
156.244068
 31
0.0
  0
LINE
  5
54C
  8
0
 10
129.40000000000001
 20
149.15842799999999
 30
0.0
 11
129.40000000000001
 21
149.958428
 31
0.0
  0
LINE
  5
54D
  8
0
 10
164.59999999999999
 20
149.15842799999999
 30
0.0
 11
164.59999999999999
 21
149.958428
 31
0.0
  0
LINE
  5
54E
  8
0
 10
136.80000000000001
 20
148.15842799999999
 30
0.0
 11
136.80000000000001
 21
153.65842799999999
 31
0.0
  0
LINE
  5
54F
  8
0
 10
157.19999999999999
 20
148.15842799999999
 30
0.0
 11
157.19999999999999
 21
153.65842799999999
 31
0.0
  0
LINE
  5
550
  8
0
 10
136.80000000000001
 20
148.15842799999999
 30
0.0
 11
130.40000000000001
 21
148.15842799999999
 31
0.0
  0
LINE
  5
551
  8
0
 10
129.40000000000001
 20
149.15842799999999
 30
0.0
 11
130.40000000000001
 21
148.15842799999999
 31
0.0
  0
LINE
  5
552
  8
0
 10
163.59999999999999
 20
148.15842799999999
 30
0.0
 11
164.59999999999999
 21
149.15842799999999
 31
0.0
  0
LINE
  5
553
  8
0
 10
164.59999999999999
 20
149.15842799999999
 30
0.0
 11
157.19999999999999
 21
149.15842799999999
 31
0.0
  0
LINE
  5
554
  8
0
 10
136.80000000000001
 20
149.15842799999999
 30
0.0
 11
129.40000000000001
 21
149.15842799999999
 31
0.0
  0
LINE
  5
555
  8
0
 10
164.75
 20
150.15842799999999
 30
0.0
 11
157.40000000000001
 21
150.15842799999999
 31
0.0
  0
LINE
  5
556
  8
0
 10
136.59999999999999
 20
150.15842799999999
 30
0.0
 11
129.25
 21
150.15842799999999
 31
0.0
  0
LINE
  5
557
  8
0
 10
129.40000000000001
 20
149.958428
 30
0.0
 11
129.59999999999999
 21
150.15842799999999
 31
0.0
  0
LINE
  5
558
  8
0
 10
136.59999999999999
 20
150.15842799999999
 30
0.0
 11
136.80000000000001
 21
149.958428
 31
0.0
  0
LINE
  5
559
  8
0
 10
157.19999999999999
 20
149.958428
 30
0.0
 11
157.40000000000001
 21
150.15842799999999
 31
0.0
  0
LINE
  5
55A
  8
0
 10
164.59999999999999
 20
149.958428
 30
0.0
 11
164.40000000000001
 21
150.15842799999999
 31
0.0
  0
LINE
  5
55B
  8
0
 10
157.19999999999999
 20
149.9212179999999
 30
0.0
 11
136.80000000000001
 21
149.9212179999999
 31
0.0
  0
ARC
  5
55C
  8
0
 10
129.25
 20
151.90842799999999
 30
0.0
 40
1.75
 50
90.0
 51
270.0
  0
ARC
  5
55D
  8
0
 10
164.75
 20
151.90842799999999
 30
0.0
 40
1.75
 50
270.0
 51
90.0
  0
ARC
  5
55E
  8
0
 10
164.41267099999999
 20
151.90842799999999
 30
0.0
 40
1.75
 50
270.0
 51
90.0
  0
ARC
  5
55F
  8
0
 10
163.994383
 20
151.90842799999999
 30
0.0
 40
1.75
 50
270.0
 51
90.0
  0
ARC
  5
560
  8
0
 10
163.495136
 20
151.90842799999999
 30
0.0
 40
1.75
 50
270.0
 51
90.0
  0
ARC
  5
561
  8
0
 10
162.94191599999999
 20
151.90842799999999
 30
0.0
 40
1.75
 50
270.0
 51
90.0
  0
ARC
  5
562
  8
0
 10
162.25376399999999
 20
151.90842799999999
 30
0.0
 40
1.75
 50
270.0
 51
90.0
  0
ARC
  5
563
  8
0
 10
159.64958300000001
 20
151.90842799999999
 30
0.0
 40
2.2336419999999988
 50
308.42025799999999
 51
51.579741999999989
  0
ARC
  5
564
  8
0
 10
159.09636399999999
 20
151.90842799999999
 30
0.0
 40
2.2336419999999988
 50
308.42025799999999
 51
51.579741999999989
  0
ARC
  5
565
  8
0
 10
158.46218500000001
 20
151.90842799999999
 30
0.0
 40
2.2336419999999988
 50
308.42025799999999
 51
51.579741999999989
  0
ARC
  5
566
  8
0
 10
157.774033
 20
151.90842799999999
 30
0.0
 40
2.2336419999999988
 50
308.42025799999999
 51
51.579741999999989
  0
ARC
  5
567
  8
0
 10
157.085882
 20
151.90842799999999
 30
0.0
 40
2.2336419999999988
 50
308.42025799999999
 51
51.579741999999989
  0
ARC
  5
568
  8
0
 10
156.30327800000001
 20
151.90842799999999
 30
0.0
 40
2.2336419999999988
 50
308.42025799999999
 51
51.579741999999989
  0
ARC
  5
569
  8
0
 10
155.58814100000001
 20
151.90842799999999
 30
0.0
 40
2.2336419999999988
 50
316.18907999999999
 51
43.810920000000003
  0
ARC
  5
56A
  8
0
 10
159.959926
 20
151.90842799999999
 30
0.0
 40
2.3955599999999988
 50
313.070153
 51
46.929846999999988
  0
ARC
  5
56B
  8
0
 10
160.45917299999999
 20
151.90842799999999
 30
0.0
 40
2.3955599999999988
 50
313.070153
 51
46.929846999999988
  0
ARC
  5
56C
  8
0
 10
161.403695
 20
151.90842799999999
 30
0.0
 40
1.950286
 50
296.19401399999998
 51
63.80598599999999
  0
ARC
  5
56D
  8
0
 10
132.596305
 20
151.90842799999999
 30
0.0
 40
1.950286
 50
116.194014
 51
243.80598599999999
  0
ARC
  5
56E
  8
0
 10
133.54082700000001
 20
151.90842799999999
 30
0.0
 40
2.3955599999999988
 50
133.070153
 51
226.929847
  0
ARC
  5
56F
  8
0
 10
134.040074
 20
151.90842799999999
 30
0.0
 40
2.3955599999999988
 50
133.070153
 51
226.929847
  0
ARC
  5
570
  8
0
 10
138.41185899999999
 20
151.90842799999999
 30
0.0
 40
2.2336419999999988
 50
136.18907999999999
 51
223.81092000000001
  0
ARC
  5
571
  8
0
 10
137.69672199999999
 20
151.90842799999999
 30
0.0
 40
2.2336419999999988
 50
128.42025799999999
 51
231.57974200000001
  0
ARC
  5
572
  8
0
 10
136.914118
 20
151.90842799999999
 30
0.0
 40
2.2336419999999988
 50
128.42025799999999
 51
231.57974200000001
  0
ARC
  5
573
  8
0
 10
136.225967
 20
151.90842799999999
 30
0.0
 40
2.2336419999999988
 50
128.42025799999999
 51
231.57974200000001
  0
ARC
  5
574
  8
0
 10
135.53781499999999
 20
151.90842799999999
 30
0.0
 40
2.2336419999999988
 50
128.42025799999999
 51
231.57974200000001
  0
ARC
  5
575
  8
0
 10
134.90363600000001
 20
151.90842799999999
 30
0.0
 40
2.2336419999999988
 50
128.42025799999999
 51
231.57974200000001
  0
ARC
  5
576
  8
0
 10
134.35041699999999
 20
151.90842799999999
 30
0.0
 40
2.2336419999999988
 50
128.42025799999999
 51
231.57974200000001
  0
ARC
  5
577
  8
0
 10
131.74623600000001
 20
151.90842799999999
 30
0.0
 40
1.75
 50
90.0
 51
270.0
  0
ARC
  5
578
  8
0
 10
131.05808400000001
 20
151.90842799999999
 30
0.0
 40
1.75
 50
90.0
 51
270.0
  0
ARC
  5
579
  8
0
 10
130.504864
 20
151.90842799999999
 30
0.0
 40
1.75
 50
90.0
 51
270.0
  0
ARC
  5
57A
  8
0
 10
130.005617
 20
151.90842799999999
 30
0.0
 40
1.75
 50
90.0
 51
270.0
  0
ARC
  5
57B
  8
0
 10
129.58732900000001
 20
151.90842799999999
 30
0.0
 40
1.75
 50
90.0
 51
270.0
  0
ARC
  5
57C
  8
0
 10
129.58732900000001
 20
185.40842799999999
 30
0.0
 40
1.75
 50
90.0
 51
270.0
  0
ARC
  5
57D
  8
0
 10
130.005617
 20
185.40842799999999
 30
0.0
 40
1.75
 50
90.0
 51
270.0
  0
ARC
  5
57E
  8
0
 10
130.504864
 20
185.40842799999999
 30
0.0
 40
1.75
 50
90.0
 51
270.0
  0
ARC
  5
57F
  8
0
 10
131.05808400000001
 20
185.40842799999999
 30
0.0
 40
1.75
 50
90.0
 51
270.0
  0
ARC
  5
580
  8
0
 10
131.74623600000001
 20
185.40842799999999
 30
0.0
 40
1.75
 50
90.0
 51
270.0
  0
ARC
  5
581
  8
0
 10
134.35041699999999
 20
185.40842799999999
 30
0.0
 40
2.2336419999999988
 50
128.42025799999999
 51
231.57974200000001
  0
ARC
  5
582
  8
0
 10
134.90363600000001
 20
185.40842799999999
 30
0.0
 40
2.2336419999999988
 50
128.42025799999999
 51
231.57974200000001
  0
ARC
  5
583
  8
0
 10
135.53781499999999
 20
185.40842799999999
 30
0.0
 40
2.2336419999999988
 50
128.42025799999999
 51
231.57974200000001
  0
ARC
  5
584
  8
0
 10
136.225967
 20
185.40842799999999
 30
0.0
 40
2.2336419999999988
 50
128.42025799999999
 51
231.57974200000001
  0
ARC
  5
585
  8
0
 10
136.914118
 20
185.40842799999999
 30
0.0
 40
2.2336419999999988
 50
128.42025799999999
 51
231.57974200000001
  0
ARC
  5
586
  8
0
 10
137.69672199999999
 20
185.40842799999999
 30
0.0
 40
2.2336419999999988
 50
128.42025799999999
 51
231.57974200000001
  0
ARC
  5
587
  8
0
 10
138.41185899999999
 20
185.40842799999999
 30
0.0
 40
2.2336419999999988
 50
136.18907999999999
 51
223.81092000000001
  0
ARC
  5
588
  8
0
 10
134.040074
 20
185.40842799999999
 30
0.0
 40
2.3955599999999988
 50
133.070153
 51
226.929847
  0
ARC
  5
589
  8
0
 10
133.54082700000001
 20
185.40842799999999
 30
0.0
 40
2.3955599999999988
 50
133.070153
 51
226.929847
  0
ARC
  5
58A
  8
0
 10
132.596305
 20
185.40842799999999
 30
0.0
 40
1.950286
 50
116.194014
 51
243.80598599999999
  0
ARC
  5
58B
  8
0
 10
161.403695
 20
185.40842799999999
 30
0.0
 40
1.950286
 50
296.19401399999998
 51
63.80598599999999
  0
ARC
  5
58C
  8
0
 10
160.45917299999999
 20
185.40842799999999
 30
0.0
 40
2.3955599999999988
 50
313.070153
 51
46.929846999999988
  0
ARC
  5
58D
  8
0
 10
159.959926
 20
185.40842799999999
 30
0.0
 40
2.3955599999999988
 50
313.070153
 51
46.929846999999988
  0
ARC
  5
58E
  8
0
 10
155.58814100000001
 20
185.40842799999999
 30
0.0
 40
2.2336419999999988
 50
316.18907999999999
 51
43.810920000000003
  0
ARC
  5
58F
  8
0
 10
156.30327800000001
 20
185.40842799999999
 30
0.0
 40
2.2336419999999988
 50
308.42025799999999
 51
51.579741999999989
  0
ARC
  5
590
  8
0
 10
157.085882
 20
185.40842799999999
 30
0.0
 40
2.2336419999999988
 50
308.42025799999999
 51
51.579741999999989
  0
ARC
  5
591
  8
0
 10
157.774033
 20
185.40842799999999
 30
0.0
 40
2.2336419999999988
 50
308.42025799999999
 51
51.579741999999989
  0
ARC
  5
592
  8
0
 10
158.46218500000001
 20
185.40842799999999
 30
0.0
 40
2.2336419999999988
 50
308.42025799999999
 51
51.579741999999989
  0
ARC
  5
593
  8
0
 10
159.09636399999999
 20
185.40842799999999
 30
0.0
 40
2.2336419999999988
 50
308.42025799999999
 51
51.579741999999989
  0
ARC
  5
594
  8
0
 10
159.64958300000001
 20
185.40842799999999
 30
0.0
 40
2.2336419999999988
 50
308.42025799999999
 51
51.579741999999989
  0
ARC
  5
595
  8
0
 10
162.25376399999999
 20
185.40842799999999
 30
0.0
 40
1.75
 50
270.0
 51
90.0
  0
ARC
  5
596
  8
0
 10
162.94191599999999
 20
185.40842799999999
 30
0.0
 40
1.75
 50
270.0
 51
90.0
  0
ARC
  5
597
  8
0
 10
163.495136
 20
185.40842799999999
 30
0.0
 40
1.75
 50
270.0
 51
90.0
  0
ARC
  5
598
  8
0
 10
163.994383
 20
185.40842799999999
 30
0.0
 40
1.75
 50
270.0
 51
90.0
  0
ARC
  5
599
  8
0
 10
164.41267099999999
 20
185.40842799999999
 30
0.0
 40
1.75
 50
270.0
 51
90.0
  0
ARC
  5
59A
  8
0
 10
164.75
 20
185.40842799999999
 30
0.0
 40
1.75
 50
270.0
 51
90.0
  0
ARC
  5
59B
  8
0
 10
129.25
 20
185.40842799999999
 30
0.0
 40
1.75
 50
90.0
 51
270.0
  0
LINE
  5
59C
  8
0
 10
157.19999999999999
 20
187.39563799999999
 30
0.0
 11
136.80000000000001
 21
187.39563799999999
 31
0.0
  0
LINE
  5
59D
  8
0
 10
164.59999999999999
 20
187.358428
 30
0.0
 11
164.40000000000001
 21
187.15842799999999
 31
0.0
  0
LINE
  5
59E
  8
0
 10
157.19999999999999
 20
187.358428
 30
0.0
 11
157.40000000000001
 21
187.15842799999999
 31
0.0
  0
LINE
  5
59F
  8
0
 10
136.59999999999999
 20
187.15842799999999
 30
0.0
 11
136.80000000000001
 21
187.358428
 31
0.0
  0
LINE
  5
5A0
  8
0
 10
129.40000000000001
 20
187.358428
 30
0.0
 11
129.59999999999999
 21
187.15842799999999
 31
0.0
  0
LINE
  5
5A1
  8
0
 10
136.59999999999999
 20
187.15842799999999
 30
0.0
 11
129.25
 21
187.15842799999999
 31
0.0
  0
LINE
  5
5A2
  8
0
 10
164.75
 20
187.15842799999999
 30
0.0
 11
157.40000000000001
 21
187.15842799999999
 31
0.0
  0
LINE
  5
5A3
  8
0
 10
136.80000000000001
 20
188.15842799999999
 30
0.0
 11
129.40000000000001
 21
188.15842799999999
 31
0.0
  0
LINE
  5
5A4
  8
0
 10
164.59999999999999
 20
188.15842799999999
 30
0.0
 11
157.19999999999999
 21
188.15842799999999
 31
0.0
  0
LINE
  5
5A5
  8
0
 10
163.59999999999999
 20
189.15842799999999
 30
0.0
 11
164.59999999999999
 21
188.15842799999999
 31
0.0
  0
LINE
  5
5A6
  8
0
 10
129.40000000000001
 20
188.15842799999999
 30
0.0
 11
130.40000000000001
 21
189.15842799999999
 31
0.0
  0
LINE
  5
5A7
  8
0
 10
136.80000000000001
 20
189.15842799999999
 30
0.0
 11
130.40000000000001
 21
189.15842799999999
 31
0.0
  0
LINE
  5
5A8
  8
0
 10
157.19999999999999
 20
189.15842799999999
 30
0.0
 11
157.19999999999999
 21
183.65842799999999
 31
0.0
  0
LINE
  5
5A9
  8
0
 10
136.80000000000001
 20
189.15842799999999
 30
0.0
 11
136.80000000000001
 21
183.65842799999999
 31
0.0
  0
LINE
  5
5AA
  8
0
 10
164.59999999999999
 20
188.15842799999999
 30
0.0
 11
164.59999999999999
 21
187.358428
 31
0.0
  0
LINE
  5
5AB
  8
0
 10
129.40000000000001
 20
188.15842799999999
 30
0.0
 11
129.40000000000001
 21
187.358428
 31
0.0
  0
LINE
  5
5AC
  8
0
 10
163.59999999999999
 20
189.15842799999999
 30
0.0
 11
157.19999999999999
 21
189.15842799999999
 31
0.0
  0
INSERT
  5
5AD
  8
0
  2
BBB
 10
161.0
 20
92.258344999999991
 30
0.0
  0
ARC
  5
5AE
  8
0
 10
148.0
 20
168.65842799999999
 30
0.0
 40
6.25
 50
270.0
 51
90.0
  0
ARC
  5
5AF
  8
0
 10
148.0
 20
168.65842799999999
 30
0.0
 40
9.25
 50
270.0
 51
90.0
  0
ARC
  5
5B0
  8
0
 10
146.0
 20
168.65842799999999
 30
0.0
 40
9.25
 50
90.0
 51
270.0
  0
ARC
  5
5B1
  8
0
 10
146.0
 20
168.65842799999999
 30
0.0
 40
6.25
 50
90.0
 51
270.0
  0
LINE
  5
5B2
  8
0
 10
146.0
 20
162.40842799999999
 30
0.0
 11
148.0
 21
162.40842799999999
 31
0.0
  0
LINE
  5
5B3
  8
0
 10
146.0
 20
159.40842799999999
 30
0.0
 11
148.0
 21
159.40842799999999
 31
0.0
  0
LINE
  5
5B4
  8
0
 10
146.0
 20
174.90842799999999
 30
0.0
 11
148.0
 21
174.90842799999999
 31
0.0
  0
LINE
  5
5B5
  8
0
 10
146.0
 20
177.90842799999999
 30
0.0
 11
148.0
 21
177.90842799999999
 31
0.0
  0
TEXT
  5
6F4
  8
0
 62
     3
 10
0.0
 20
0.0
 30
0.0
 40
10.0
  1
DK2-VT-F
  7
STANDARD1
  0
ARC
  5
7A5
  8
0
 10
157.0
 20
98.358345
 30
0.0
 40
0.2
 50
270.0
 51
0.000000000000007
  0
ARC
  5
7A6
  8
0
 10
157.0
 20
98.558345000000003
 30
0.0
 40
0.2
 50
270.0
 51
0.0
  0
ENDSEC
  0
EOF
