  0
SECTION
  2
HEADER
  9
$ACADVER
  1
AC1009
  9
$INSBASE
 10
0.0
 20
0.0
 30
0.0
  9
$EXTMIN
 10
0.0
 20
-2.960436562073669
 30
0.0
  9
$EXTMAX
 10
118.6733687220227
 20
116.2316455443711
 30
0.0
  9
$LIMMIN
 10
0.0
 20
0.0
  9
$LIMMAX
 10
750.0
 20
540.0
  9
$ORTHOMODE
 70
     1
  9
$REGENMODE
 70
     1
  9
$FILLMODE
 70
     1
  9
$QTEXTMODE
 70
     0
  9
$MIRRTEXT
 70
     0
  9
$DRAGMODE
 70
     2
  9
$LTSCALE
 40
5.0
  9
$OSMODE
 70
  3071
  9
$ATTMODE
 70
     1
  9
$TEXTSIZE
 40
0.2
  9
$TRACEWID
 40
0.05
  9
$TEXTSTYLE
  7
STANDARD
  9
$CLAYER
  8
0
  9
$CELTYPE
  6
BYLAYER
  9
$CECOLOR
 62
   256
  9
$DIMSCALE
 40
1.0
  9
$DIMASZ
 40
3.0
  9
$DIMEXO
 40
2.0
  9
$DIMDLI
 40
0.38
  9
$DIMRND
 40
0.0
  9
$DIMDLE
 40
0.0
  9
$DIMEXE
 40
2.0
  9
$DIMTP
 40
0.0
  9
$DIMTM
 40
0.0
  9
$DIMTXT
 40
3.2000000000000002
  9
$DIMCEN
 40
0.0
  9
$DIMTSZ
 40
0.0
  9
$DIMTOL
 70
     0
  9
$DIMLIM
 70
     0
  9
$DIMTIH
 70
     0
  9
$DIMTOH
 70
     0
  9
$DIMSE1
 70
     0
  9
$DIMSE2
 70
     0
  9
$DIMTAD
 70
     1
  9
$DIMZIN
 70
     0
  9
$DIMBLK
  1

  9
$DIMASO
 70
     0
  9
$DIMSHO
 70
     0
  9
$DIMPOST
  1

  9
$DIMAPOST
  1

  9
$DIMALT
 70
     0
  9
$DIMALTD
 70
     2
  9
$DIMALTF
 40
25.399999999999999
  9
$DIMLFAC
 40
1.0
  9
$DIMTOFL
 70
     0
  9
$DIMTVP
 40
1.6000000000000001
  9
$DIMTIX
 70
     1
  9
$DIMSOXD
 70
     0
  9
$DIMSAH
 70
     0
  9
$DIMBLK1
  1

  9
$DIMBLK2
  1

  9
$DIMSTYLE
  2
STANDARD
  9
$DIMCLRD
 70
     0
  9
$DIMCLRE
 70
     0
  9
$DIMCLRT
 70
     0
  9
$DIMTFAC
 40
1.0
  9
$DIMGAP
 40
0.09
  9
$LUNITS
 70
     2
  9
$LUPREC
 70
     4
  9
$SKETCHINC
 40
0.1
  9
$FILLETRAD
 40
0.0
  9
$AUNITS
 70
     0
  9
$AUPREC
 70
     4
  9
$MENU
  1
E:\r13\win\SUPPORT\ACAD
  9
$ELEVATION
 40
0.0
  9
$PELEVATION
 40
0.0
  9
$THICKNESS
 40
0.0
  9
$LIMCHECK
 70
     0
  9
$BLIPMODE
 70
     0
  9
$CHAMFERA
 40
0.0
  9
$CHAMFERB
 40
0.0
  9
$SKPOLY
 70
     0
  9
$TDCREATE
 40
2449840.6227546302
  9
$TDUPDATE
 40
2456598.6102187498
  9
$TDINDWG
 40
0.2521347801
  9
$TDUSRTIMER
 40
2456422.5691390508
  9
$USRTIMER
 70
     1
  9
$ANGBASE
 50
0.0
  9
$ANGDIR
 70
     0
  9
$PDMODE
 70
     0
  9
$PDSIZE
 40
0.0
  9
$PLINEWID
 40
0.0
  9
$COORDS
 70
     1
  9
$SPLFRAME
 70
     0
  9
$SPLINETYPE
 70
     6
  9
$SPLINESEGS
 70
     8
  9
$ATTDIA
 70
     0
  9
$ATTREQ
 70
     1
  9
$HANDLING
 70
     1
  9
$HANDSEED
  5
33AF
  9
$SURFTAB1
 70
     6
  9
$SURFTAB2
 70
     6
  9
$SURFTYPE
 70
     6
  9
$SURFU
 70
     6
  9
$SURFV
 70
     6
  9
$UCSNAME
  2

  9
$UCSORG
 10
0.0
 20
0.0
 30
0.0
  9
$UCSXDIR
 10
1.0
 20
0.0
 30
0.0
  9
$UCSYDIR
 10
0.0
 20
1.0
 30
0.0
  9
$PUCSNAME
  2

  9
$PUCSORG
 10
0.0
 20
0.0
 30
0.0
  9
$PUCSXDIR
 10
1.0
 20
0.0
 30
0.0
  9
$PUCSYDIR
 10
0.0
 20
1.0
 30
0.0
  9
$USERI1
 70
     0
  9
$USERI2
 70
     1
  9
$USERI3
 70
     0
  9
$USERI4
 70
     0
  9
$USERI5
 70
     0
  9
$USERR1
 40
0.0
  9
$USERR2
 40
0.0
  9
$USERR3
 40
0.0
  9
$USERR4
 40
0.0
  9
$USERR5
 40
0.0
  9
$WORLDVIEW
 70
     1
  9
$SHADEDGE
 70
     3
  9
$SHADEDIF
 70
    70
  9
$TILEMODE
 70
     1
  9
$MAXACTVP
 70
    16
  9
$PLIMCHECK
 70
     0
  9
$PEXTMIN
 10
1.0000000000000000E+020
 20
1.0000000000000000E+020
 30
1.0000000000000000E+020
  9
$PEXTMAX
 10
-1.0000000000000000E+020
 20
-1.0000000000000000E+020
 30
-1.0000000000000000E+020
  9
$PLIMMIN
 10
0.0
 20
0.0
  9
$PLIMMAX
 10
12.0
 20
9.0
  9
$UNITMODE
 70
     0
  9
$VISRETAIN
 70
     0
  9
$PLINEGEN
 70
     0
  9
$PSLTSCALE
 70
     0
  0
ENDSEC
  0
SECTION
  2
TABLES
  0
TABLE
  2
VPORT
 70
     1
  0
VPORT
  2
*ACTIVE
 70
     0
 10
0.0
 20
0.0
 11
1.0
 21
1.0
 12
390.03402345615979
 22
268.50860658393782
 13
0.0
 23
0.0
 14
20.0
 24
20.0
 15
20.0
 25
20.0
 16
0.0
 26
0.0
 36
1.0
 17
0.0
 27
0.0
 37
0.0
 40
547.85258761088789
 41
1.831871345029239
 42
50.0
 43
0.0
 44
0.0
 50
0.0
 51
0.0
 71
    16
 72
   100
 73
     1
 74
     0
 75
     0
 76
     0
 77
     0
 78
     2
  0
ENDTAB
  0
TABLE
  2
LTYPE
 70
     4
  0
LTYPE
  2
CONTINUOUS
 70
     0
  3
Solid Line
 72
    65
 73
     0
 40
0.0
  0
LTYPE
  2
PHANTOM2
 70
     0
  3
___ _ _ ___ _ _ ___ _ _ ___ _ _
 72
    65
 73
     6
 40
1.25
 49
0.625
 49
-0.125
 49
0.125
 49
-0.125
 49
0.125
 49
-0.125
  0
LTYPE
  2
CENTER
 70
     0
  3
____ _ ____ _ ____ _ ____ _ ____ _ ____ _ ____
 72
    65
 73
     4
 40
2.0
 49
1.25
 49
-0.25
 49
0.25
 49
-0.25
  0
LTYPE
  2
HIDDEN
 70
     0
  3
_ _ _ _ _ _ _ _ _ _ _ _ _ _ _ _ _ _ _ _ _ _ _
 72
    65
 73
     2
 40
0.375
 49
0.25
 49
-0.125
  0
ENDTAB
  0
TABLE
  2
LAYER
 70
     4
  0
LAYER
  2
0
 70
     0
 62
     7
  6
CONTINUOUS
  0
LAYER
  2
1
 70
     0
 62
     1
  6
CENTER
  0
LAYER
  2
2
 70
     0
 62
     2
  6
HIDDEN
  0
LAYER
  2
DEFPOINTS
 70
     0
 62
     7
  6
CONTINUOUS
  0
ENDTAB
  0
TABLE
  2
STYLE
 70
     2
  0
STYLE
  2
STANDARD
 70
     0
 40
0.0
 41
1.0
 50
0.0
 71
     0
 42
0.2
  3
TXT
  4
BIGFONT
  0
STYLE
  2
STANDARD1
 70
     0
 40
0.0
 41
1.0
 50
0.0
 71
     0
 42
3.0
  3
txt
  4

  0
ENDTAB
  0
TABLE
  2
VIEW
 70
     1
  0
VIEW
  2
ALL
 70
     0
 40
540.0
 10
441.98319299999991
 20
270.0
 41
0.0
 11
0.0
 21
0.0
 31
1.0
 12
0.0
 22
0.0
 32
0.0
 42
0.0
 43
0.0
 44
0.0
 50
0.0
 71
     0
  0
ENDTAB
  0
TABLE
  2
UCS
 70
     0
  0
ENDTAB
  0
TABLE
  2
APPID
 70
     7
  0
APPID
  2
ACAD
 70
     0
  0
APPID
  2
ACADANNOTATIVE
 70
     0
  0
APPID
  2
ACAD_NAV_VCDISPLAY
 70
     0
  0
APPID
  2
ACAD_EXEMPT_FROM_CAD_STANDARDS
 70
     0
  0
APPID
  2
ACAD_DSTYLE_DIMJAG
 70
     0
  0
APPID
  2
ACAD_DSTYLE_DIMTALN
 70
     0
  0
APPID
  2
ACAD_MLEADERVER
 70
     0
  0
ENDTAB
  0
TABLE
  2
DIMSTYLE
 70
     1
  0
DIMSTYLE
  2
STANDARD
 70
     0
  3

  4

  5

  6

  7

 40
1.0
 41
0.18
 42
0.0625
 43
0.38
 44
0.18
 45
0.0
 46
0.0
 47
0.0
 48
0.0
140
0.18
141
0.09
142
0.0
143
25.399999999999999
144
1.0
145
0.0
146
1.0
147
0.09
 71
     0
 72
     0
 73
     1
 74
     1
 75
     0
 76
     0
 77
     0
 78
     0
170
     0
171
     2
172
     0
173
     0
174
     0
175
     0
176
     0
177
     0
178
     0
  0
ENDTAB
  0
ENDSEC
  0
SECTION
  2
BLOCKS
  0
BLOCK
  8
0
  2
$MODEL_SPACE
 70
     0
 10
0.0
 20
0.0
 30
0.0
  3
$MODEL_SPACE
  1

  0
ENDBLK
  5
507
  8
0
  0
BLOCK
 67
     1
  8
0
  2
$PAPER_SPACE
 70
     0
 10
0.0
 20
0.0
 30
0.0
  3
$PAPER_SPACE
  1

  0
ENDBLK
  5
503
 67
     1
  8
0
  0
ENDSEC
  0
SECTION
  2
ENTITIES
  0
ARC
  5
254F
  8
0
 10
75.423368722022786
 20
60.481645544371133
 30
0.0
 40
0.5
 50
270.0
 51
0.0
  0
ARC
  5
2550
  8
0
 10
75.423368722022786
 20
71.481645544371133
 30
0.0
 40
0.5
 50
0.0
 51
90.0
  0
LINE
  5
2551
  8
0
 10
75.923368722022786
 20
60.481645544371133
 30
0.0
 11
75.923368722022786
 21
71.481645544371133
 31
0.0
  0
LINE
  5
2552
  8
0
 10
73.923368722022786
 20
59.98164554437114
 30
0.0
 11
75.423368722022786
 21
59.98164554437114
 31
0.0
  0
LINE
  5
2553
  8
0
 10
75.423368722022786
 20
71.981645544371133
 30
0.0
 11
73.923368722022786
 21
71.981645544371133
 31
0.0
  0
LINE
  5
2557
  8
0
 10
70.523368722022781
 20
59.19439134262052
 30
0.0
 11
70.523368722022781
 21
56.981645544371617
 31
0.0
  0
ARC
  5
2558
  8
0
 10
70.023368722022298
 20
56.981645544371617
 30
0.0
 40
0.5000000000004832
 50
270.00000000005531
 51
0.0
  0
LINE
  5
255C
  8
0
 10
62.923368722022758
 20
58.796092220069397
 30
0.0
 11
62.923368722022758
 21
56.481645544371133
 31
0.0
  0
LINE
  5
255F
  8
0
 10
73.923368722022786
 20
59.372577792182852
 30
0.0
 11
56.923368722022751
 21
58.481645544371133
 31
0.0
  0
LINE
  5
2560
  8
0
 10
73.923368722022786
 20
73.307041696912165
 30
0.0
 11
68.923368722022786
 21
73.481645544371133
 31
0.0
  0
LINE
  5
2561
  8
0
 10
73.923368722022786
 20
59.372577792182852
 30
0.0
 11
73.923368722022786
 21
73.307041696912165
 31
0.0
  0
LINE
  5
2562
  8
0
 10
68.923368722022786
 20
73.481645544371133
 30
0.0
 11
68.923368722022786
 21
59.110538895767661
 31
0.0
  0
LINE
  5
2567
  8
0
 10
70.023368722022298
 20
56.481645544371133
 30
0.0
 11
57.630997017300047
 21
56.481645544371133
 31
0.0
  0
ARC
  5
2569
  8
0
 10
57.42336872202258
 20
56.981645544370927
 30
0.0
 40
0.499999999999794
 50
179.99999999997391
 51
270.00000000002439
  0
LINE
  5
256A
  8
0
 10
56.923368722022794
 20
58.481645544371133
 30
0.0
 11
56.923368722022794
 21
56.981645544371162
 31
0.0
  0
LINE
  5
256B
  8
0
 10
57.630997017300047
 20
56.481645544371133
 30
0.0
 11
57.423368722022794
 21
56.481645544371133
 31
0.0
  0
ARC
  5
2579
  8
2
 10
75.423368722022758
 20
60.481645544371133
 30
0.0
 40
0.5
 50
0.0
 51
90.0
  0
ARC
  5
257A
  8
2
 10
75.423368722022758
 20
71.481645544371133
 30
0.0
 40
0.5
 50
270.0
 51
0.0
  0
ARC
  5
257B
  8
2
 10
70.583368722023181
 20
60.571645544371158
 30
0.0
 40
0.4399999999998841
 50
313.34175822719919
 51
0.0
  0
ARC
  5
257C
  8
2
 10
70.583368722023181
 20
60.571645544371158
 30
0.0
 40
0.4399999999999184
 50
0.0
 51
77.761244232093304
  0
ARC
  5
257D
  8
2
 10
70.583368722023181
 20
71.391645544371144
 30
0.0
 40
0.4399999999998841
 50
0.0
 51
46.658241772803052
  0
ARC
  5
257E
  8
2
 10
70.583368722023181
 20
71.391645544371144
 30
0.0
 40
0.4399999999999045
 50
282.23875576790829
 51
0.0
  0
LINE
  5
257F
  8
2
 10
71.023368722023065
 20
60.571645544371158
 30
0.0
 11
71.023368722023065
 21
71.391645544371144
 31
0.0
  0
LINE
  5
2580
  8
2
 10
68.923368722022786
 20
60.251645544371172
 30
0.0
 11
70.885362099433792
 21
60.251645544371172
 31
0.0
  0
LINE
  5
2581
  8
2
 10
70.885362099433792
 20
71.711645544371152
 30
0.0
 11
68.923368722022786
 21
71.711645544371152
 31
0.0
  0
LINE
  5
2582
  8
2
 10
73.923368722022744
 20
60.981645544371133
 30
0.0
 11
75.423368722022758
 21
60.981645544371133
 31
0.0
  0
LINE
  5
2583
  8
2
 10
75.423368722022758
 20
70.981645544371133
 30
0.0
 11
73.923368722022744
 21
70.981645544371133
 31
0.0
  0
LINE
  5
2584
  8
2
 10
68.923368722022786
 20
61.001645544371172
 30
0.0
 11
70.676642512553769
 21
61.001645544371172
 31
0.0
  0
LINE
  5
2585
  8
2
 10
70.676642512553769
 20
70.961645544371152
 30
0.0
 11
68.923368722022786
 21
70.961645544371152
 31
0.0
  0
LINE
  5
2586
  8
2
 10
68.923368722022744
 20
62.981645544371133
 30
0.0
 11
73.923368722022744
 21
62.981645544371133
 31
0.0
  0
LINE
  5
2587
  8
2
 10
73.923368722022744
 20
68.981645544371133
 30
0.0
 11
68.923368722022744
 21
68.981645544371133
 31
0.0
  0
LINE
  5
2589
  8
0
 10
73.923368722022744
 20
20.48164554437113
 30
0.0
 11
75.423368722022758
 21
20.48164554437113
 31
0.0
  0
LINE
  5
258A
  8
0
 10
75.423368722022758
 20
32.481645544371162
 30
0.0
 11
73.923368722022744
 21
32.481645544371162
 31
0.0
  0
ARC
  5
258B
  8
0
 10
75.423368722022758
 20
20.98164554437113
 30
0.0
 40
0.5
 50
270.0
 51
0.0
  0
ARC
  5
258C
  8
0
 10
75.423368722022758
 20
31.981645544371158
 30
0.0
 40
0.5
 50
0.0
 51
90.0
  0
LINE
  5
258D
  8
0
 10
75.923368722022758
 20
20.98164554437113
 30
0.0
 11
75.923368722022758
 21
31.981645544371158
 31
0.0
  0
LINE
  5
258E
  8
0
 10
63.888469225318801
 20
39.23164554437119
 30
0.0
 11
64.072738093461354
 21
39.23164554437119
 31
0.0
  0
LINE
  5
258F
  8
0
 10
70.023368722022752
 20
39.024129727361839
 30
0.0
 11
64.072738093461354
 21
39.23164554437119
 31
0.0
  0
LINE
  5
2591
  8
0
 10
63.745017762712678
 20
30.624436046220179
 30
0.0
 11
70.023368722022752
 21
32.541289976626281
 31
0.0
  0
POLYLINE
  5
2592
  8
0
 10
63.745017762712671
 20
30.624436046220193
 30
0.0
 66
     1
 70
     8
  0
VERTEX
  8
0
  5
2A8B
 10
63.7450
 20
30.6244
 30
0.000000
  70
    32
  0
VERTEX
  8
0
  5
2A8C
 10
63.7355
 20
30.6215
 30
0.000000
  70
    32
  0
VERTEX
  8
0
  5
2A8D
 10
63.7260
 20
30.6184
 30
0.000000
  70
    32
  0
VERTEX
  8
0
  5
2A8E
 10
63.7166
 20
30.6153
 30
0.000000
  70
    32
  0
VERTEX
  8
0
  5
2A8F
 10
63.7071
 20
30.6120
 30
0.000000
  70
    32
  0
VERTEX
  8
0
  5
2A90
 10
63.6977
 20
30.6087
 30
0.000000
  70
    32
  0
VERTEX
  8
0
  5
2A91
 10
63.6884
 20
30.6053
 30
0.000000
  70
    32
  0
VERTEX
  8
0
  5
2A92
 10
63.6791
 20
30.6018
 30
0.000000
  70
    32
  0
VERTEX
  8
0
  5
2A93
 10
63.6698
 20
30.5981
 30
0.000000
  70
    32
  0
VERTEX
  8
0
  5
2A94
 10
63.6605
 20
30.5944
 30
0.000000
  70
    32
  0
VERTEX
  8
0
  5
2A95
 10
63.6513
 20
30.5906
 30
0.000000
  70
    32
  0
VERTEX
  8
0
  5
2A96
 10
63.6421
 20
30.5868
 30
0.000000
  70
    32
  0
VERTEX
  8
0
  5
2A97
 10
63.6330
 20
30.5828
 30
0.000000
  70
    32
  0
VERTEX
  8
0
  5
2A98
 10
63.6239
 20
30.5787
 30
0.000000
  70
    32
  0
VERTEX
  8
0
  5
2A99
 10
63.6148
 20
30.5746
 30
0.000000
  70
    32
  0
VERTEX
  8
0
  5
2A9A
 10
63.6058
 20
30.5703
 30
0.000000
  70
    32
  0
VERTEX
  8
0
  5
2A9B
 10
63.5969
 20
30.5660
 30
0.000000
  70
    32
  0
VERTEX
  8
0
  5
2A9C
 10
63.5879
 20
30.5615
 30
0.000000
  70
    32
  0
VERTEX
  8
0
  5
2A9D
 10
63.5790
 20
30.5570
 30
0.000000
  70
    32
  0
VERTEX
  8
0
  5
2A9E
 10
63.5702
 20
30.5524
 30
0.000000
  70
    32
  0
VERTEX
  8
0
  5
2A9F
 10
63.5614
 20
30.5477
 30
0.000000
  70
    32
  0
VERTEX
  8
0
  5
2AA0
 10
63.5527
 20
30.5429
 30
0.000000
  70
    32
  0
VERTEX
  8
0
  5
2AA1
 10
63.5440
 20
30.5381
 30
0.000000
  70
    32
  0
VERTEX
  8
0
  5
2AA2
 10
63.5353
 20
30.5331
 30
0.000000
  70
    32
  0
VERTEX
  8
0
  5
2AA3
 10
63.5267
 20
30.5281
 30
0.000000
  70
    32
  0
VERTEX
  8
0
  5
2AA4
 10
63.5182
 20
30.5230
 30
0.000000
  70
    32
  0
VERTEX
  8
0
  5
2AA5
 10
63.5097
 20
30.5178
 30
0.000000
  70
    32
  0
VERTEX
  8
0
  5
2AA6
 10
63.5013
 20
30.5125
 30
0.000000
  70
    32
  0
VERTEX
  8
0
  5
2AA7
 10
63.4929
 20
30.5071
 30
0.000000
  70
    32
  0
VERTEX
  8
0
  5
2AA8
 10
63.4845
 20
30.5016
 30
0.000000
  70
    32
  0
VERTEX
  8
0
  5
2AA9
 10
63.4762
 20
30.4961
 30
0.000000
  70
    32
  0
VERTEX
  8
0
  5
2AAA
 10
63.4680
 20
30.4905
 30
0.000000
  70
    32
  0
VERTEX
  8
0
  5
2AAB
 10
63.4599
 20
30.4848
 30
0.000000
  70
    32
  0
VERTEX
  8
0
  5
2AAC
 10
63.4517
 20
30.4790
 30
0.000000
  70
    32
  0
VERTEX
  8
0
  5
2AAD
 10
63.4437
 20
30.4731
 30
0.000000
  70
    32
  0
VERTEX
  8
0
  5
2AAE
 10
63.4357
 20
30.4672
 30
0.000000
  70
    32
  0
VERTEX
  8
0
  5
2AAF
 10
63.4278
 20
30.4612
 30
0.000000
  70
    32
  0
VERTEX
  8
0
  5
2AB0
 10
63.4199
 20
30.4550
 30
0.000000
  70
    32
  0
VERTEX
  8
0
  5
2AB1
 10
63.4121
 20
30.4489
 30
0.000000
  70
    32
  0
VERTEX
  8
0
  5
2AB2
 10
63.4043
 20
30.4426
 30
0.000000
  70
    32
  0
VERTEX
  8
0
  5
2AB3
 10
63.3966
 20
30.4363
 30
0.000000
  70
    32
  0
VERTEX
  8
0
  5
2AB4
 10
63.3890
 20
30.4299
 30
0.000000
  70
    32
  0
VERTEX
  8
0
  5
2AB5
 10
63.3814
 20
30.4234
 30
0.000000
  70
    32
  0
VERTEX
  8
0
  5
2AB6
 10
63.3740
 20
30.4168
 30
0.000000
  70
    32
  0
VERTEX
  8
0
  5
2AB7
 10
63.3665
 20
30.4102
 30
0.000000
  70
    32
  0
VERTEX
  8
0
  5
2AB8
 10
63.3592
 20
30.4035
 30
0.000000
  70
    32
  0
VERTEX
  8
0
  5
2AB9
 10
63.3519
 20
30.3967
 30
0.000000
  70
    32
  0
VERTEX
  8
0
  5
2ABA
 10
63.3446
 20
30.3898
 30
0.000000
  70
    32
  0
VERTEX
  8
0
  5
2ABB
 10
63.3375
 20
30.3829
 30
0.000000
  70
    32
  0
VERTEX
  8
0
  5
2ABC
 10
63.3304
 20
30.3759
 30
0.000000
  70
    32
  0
VERTEX
  8
0
  5
2ABD
 10
63.3234
 20
30.3688
 30
0.000000
  70
    32
  0
VERTEX
  8
0
  5
2ABE
 10
63.3164
 20
30.3617
 30
0.000000
  70
    32
  0
VERTEX
  8
0
  5
2ABF
 10
63.3095
 20
30.3545
 30
0.000000
  70
    32
  0
VERTEX
  8
0
  5
2AC0
 10
63.3027
 20
30.3472
 30
0.000000
  70
    32
  0
VERTEX
  8
0
  5
2AC1
 10
63.2960
 20
30.3399
 30
0.000000
  70
    32
  0
VERTEX
  8
0
  5
2AC2
 10
63.2893
 20
30.3325
 30
0.000000
  70
    32
  0
VERTEX
  8
0
  5
2AC3
 10
63.2828
 20
30.3250
 30
0.000000
  70
    32
  0
VERTEX
  8
0
  5
2AC4
 10
63.2763
 20
30.3175
 30
0.000000
  70
    32
  0
VERTEX
  8
0
  5
2AC5
 10
63.2698
 20
30.3099
 30
0.000000
  70
    32
  0
VERTEX
  8
0
  5
2AC6
 10
63.2635
 20
30.3022
 30
0.000000
  70
    32
  0
VERTEX
  8
0
  5
2AC7
 10
63.2572
 20
30.2945
 30
0.000000
  70
    32
  0
VERTEX
  8
0
  5
2AC8
 10
63.2510
 20
30.2867
 30
0.000000
  70
    32
  0
VERTEX
  8
0
  5
2AC9
 10
63.2448
 20
30.2788
 30
0.000000
  70
    32
  0
VERTEX
  8
0
  5
2ACA
 10
63.2388
 20
30.2709
 30
0.000000
  70
    32
  0
VERTEX
  8
0
  5
2ACB
 10
63.2328
 20
30.2630
 30
0.000000
  70
    32
  0
VERTEX
  8
0
  5
2ACC
 10
63.2269
 20
30.2549
 30
0.000000
  70
    32
  0
VERTEX
  8
0
  5
2ACD
 10
63.2211
 20
30.2468
 30
0.000000
  70
    32
  0
VERTEX
  8
0
  5
2ACE
 10
63.2154
 20
30.2387
 30
0.000000
  70
    32
  0
VERTEX
  8
0
  5
2ACF
 10
63.2098
 20
30.2305
 30
0.000000
  70
    32
  0
VERTEX
  8
0
  5
2AD0
 10
63.2042
 20
30.2222
 30
0.000000
  70
    32
  0
VERTEX
  8
0
  5
2AD1
 10
63.1987
 20
30.2139
 30
0.000000
  70
    32
  0
VERTEX
  8
0
  5
2AD2
 10
63.1933
 20
30.2055
 30
0.000000
  70
    32
  0
VERTEX
  8
0
  5
2AD3
 10
63.1880
 20
30.1971
 30
0.000000
  70
    32
  0
VERTEX
  8
0
  5
2AD4
 10
63.1828
 20
30.1887
 30
0.000000
  70
    32
  0
VERTEX
  8
0
  5
2AD5
 10
63.1776
 20
30.1801
 30
0.000000
  70
    32
  0
VERTEX
  8
0
  5
2AD6
 10
63.1726
 20
30.1716
 30
0.000000
  70
    32
  0
VERTEX
  8
0
  5
2AD7
 10
63.1676
 20
30.1629
 30
0.000000
  70
    32
  0
VERTEX
  8
0
  5
2AD8
 10
63.1627
 20
30.1543
 30
0.000000
  70
    32
  0
VERTEX
  8
0
  5
2AD9
 10
63.1579
 20
30.1455
 30
0.000000
  70
    32
  0
VERTEX
  8
0
  5
2ADA
 10
63.1532
 20
30.1368
 30
0.000000
  70
    32
  0
VERTEX
  8
0
  5
2ADB
 10
63.1486
 20
30.1279
 30
0.000000
  70
    32
  0
VERTEX
  8
0
  5
2ADC
 10
63.1440
 20
30.1191
 30
0.000000
  70
    32
  0
VERTEX
  8
0
  5
2ADD
 10
63.1396
 20
30.1102
 30
0.000000
  70
    32
  0
VERTEX
  8
0
  5
2ADE
 10
63.1352
 20
30.1012
 30
0.000000
  70
    32
  0
VERTEX
  8
0
  5
2ADF
 10
63.1309
 20
30.0922
 30
0.000000
  70
    32
  0
VERTEX
  8
0
  5
2AE0
 10
63.1268
 20
30.0832
 30
0.000000
  70
    32
  0
VERTEX
  8
0
  5
2AE1
 10
63.1227
 20
30.0741
 30
0.000000
  70
    32
  0
VERTEX
  8
0
  5
2AE2
 10
63.1187
 20
30.0650
 30
0.000000
  70
    32
  0
VERTEX
  8
0
  5
2AE3
 10
63.1147
 20
30.0558
 30
0.000000
  70
    32
  0
VERTEX
  8
0
  5
2AE4
 10
63.1109
 20
30.0467
 30
0.000000
  70
    32
  0
VERTEX
  8
0
  5
2AE5
 10
63.1072
 20
30.0374
 30
0.000000
  70
    32
  0
VERTEX
  8
0
  5
2AE6
 10
63.1036
 20
30.0282
 30
0.000000
  70
    32
  0
VERTEX
  8
0
  5
2AE7
 10
63.1000
 20
30.0188
 30
0.000000
  70
    32
  0
VERTEX
  8
0
  5
2AE8
 10
63.0966
 20
30.0095
 30
0.000000
  70
    32
  0
VERTEX
  8
0
  5
2AE9
 10
63.0932
 20
30.0001
 30
0.000000
  70
    32
  0
VERTEX
  8
0
  5
2AEA
 10
63.0900
 20
29.9907
 30
0.000000
  70
    32
  0
VERTEX
  8
0
  5
2AEB
 10
63.0868
 20
29.9813
 30
0.000000
  70
    32
  0
VERTEX
  8
0
  5
2AEC
 10
63.0837
 20
29.9718
 30
0.000000
  70
    32
  0
VERTEX
  8
0
  5
2AED
 10
63.0807
 20
29.9623
 30
0.000000
  70
    32
  0
VERTEX
  8
0
  5
2AEE
 10
63.0778
 20
29.9528
 30
0.000000
  70
    32
  0
VERTEX
  8
0
  5
2AEF
 10
63.0751
 20
29.9432
 30
0.000000
  70
    32
  0
VERTEX
  8
0
  5
2AF0
 10
63.0724
 20
29.9337
 30
0.000000
  70
    32
  0
VERTEX
  8
0
  5
2AF1
 10
63.0698
 20
29.9241
 30
0.000000
  70
    32
  0
VERTEX
  8
0
  5
2AF2
 10
63.0673
 20
29.9144
 30
0.000000
  70
    32
  0
VERTEX
  8
0
  5
2AF3
 10
63.0649
 20
29.9048
 30
0.000000
  70
    32
  0
VERTEX
  8
0
  5
2AF4
 10
63.0625
 20
29.8951
 30
0.000000
  70
    32
  0
VERTEX
  8
0
  5
2AF5
 10
63.0603
 20
29.8854
 30
0.000000
  70
    32
  0
VERTEX
  8
0
  5
2AF6
 10
63.0582
 20
29.8756
 30
0.000000
  70
    32
  0
VERTEX
  8
0
  5
2AF7
 10
63.0562
 20
29.8659
 30
0.000000
  70
    32
  0
VERTEX
  8
0
  5
2AF8
 10
63.0543
 20
29.8561
 30
0.000000
  70
    32
  0
VERTEX
  8
0
  5
2AF9
 10
63.0524
 20
29.8463
 30
0.000000
  70
    32
  0
VERTEX
  8
0
  5
2AFA
 10
63.0507
 20
29.8365
 30
0.000000
  70
    32
  0
VERTEX
  8
0
  5
2AFB
 10
63.0491
 20
29.8267
 30
0.000000
  70
    32
  0
VERTEX
  8
0
  5
2AFC
 10
63.0476
 20
29.8169
 30
0.000000
  70
    32
  0
VERTEX
  8
0
  5
2AFD
 10
63.0461
 20
29.8070
 30
0.000000
  70
    32
  0
VERTEX
  8
0
  5
2AFE
 10
63.0448
 20
29.7972
 30
0.000000
  70
    32
  0
VERTEX
  8
0
  5
2AFF
 10
63.0436
 20
29.7873
 30
0.000000
  70
    32
  0
VERTEX
  8
0
  5
2B00
 10
63.0424
 20
29.7774
 30
0.000000
  70
    32
  0
VERTEX
  8
0
  5
2B01
 10
63.0414
 20
29.7675
 30
0.000000
  70
    32
  0
VERTEX
  8
0
  5
2B02
 10
63.0404
 20
29.7576
 30
0.000000
  70
    32
  0
VERTEX
  8
0
  5
2B03
 10
63.0396
 20
29.7477
 30
0.000000
  70
    32
  0
VERTEX
  8
0
  5
2B04
 10
63.0388
 20
29.7378
 30
0.000000
  70
    32
  0
VERTEX
  8
0
  5
2B05
 10
63.0382
 20
29.7278
 30
0.000000
  70
    32
  0
VERTEX
  8
0
  5
2B06
 10
63.0377
 20
29.7179
 30
0.000000
  70
    32
  0
VERTEX
  8
0
  5
2B07
 10
63.0372
 20
29.7079
 30
0.000000
  70
    32
  0
VERTEX
  8
0
  5
2B08
 10
63.0369
 20
29.6980
 30
0.000000
  70
    32
  0
VERTEX
  8
0
  5
2B09
 10
63.0366
 20
29.6880
 30
0.000000
  70
    32
  0
VERTEX
  8
0
  5
2B0A
 10
63.0365
 20
29.6781
 30
0.000000
  70
    32
  0
VERTEX
  8
0
  5
2B0B
 10
63.0364
 20
29.6681
 30
0.000000
  70
    32
  0
SEQEND
  8
0
  5
2B0C
  0
LINE
  5
2593
  8
0
 10
63.03641835657632
 20
23.295159798485489
 30
0.0
 11
63.03641835657632
 21
29.668131290257179
 31
0.0
  0
POLYLINE
  5
2594
  8
0
 10
63.036418356576334
 20
23.295159798485571
 30
0.0
 66
     1
 70
     8
  0
VERTEX
  8
0
  5
2B0D
 10
63.0364
 20
23.2952
 30
0.000000
  70
    32
  0
VERTEX
  8
0
  5
2B0E
 10
63.0365
 20
23.2852
 30
0.000000
  70
    32
  0
VERTEX
  8
0
  5
2B0F
 10
63.0366
 20
23.2753
 30
0.000000
  70
    32
  0
VERTEX
  8
0
  5
2B10
 10
63.0369
 20
23.2653
 30
0.000000
  70
    32
  0
VERTEX
  8
0
  5
2B11
 10
63.0372
 20
23.2554
 30
0.000000
  70
    32
  0
VERTEX
  8
0
  5
2B12
 10
63.0377
 20
23.2454
 30
0.000000
  70
    32
  0
VERTEX
  8
0
  5
2B13
 10
63.0382
 20
23.2355
 30
0.000000
  70
    32
  0
VERTEX
  8
0
  5
2B14
 10
63.0388
 20
23.2255
 30
0.000000
  70
    32
  0
VERTEX
  8
0
  5
2B15
 10
63.0396
 20
23.2156
 30
0.000000
  70
    32
  0
VERTEX
  8
0
  5
2B16
 10
63.0404
 20
23.2057
 30
0.000000
  70
    32
  0
VERTEX
  8
0
  5
2B17
 10
63.0414
 20
23.1958
 30
0.000000
  70
    32
  0
VERTEX
  8
0
  5
2B18
 10
63.0424
 20
23.1859
 30
0.000000
  70
    32
  0
VERTEX
  8
0
  5
2B19
 10
63.0436
 20
23.1760
 30
0.000000
  70
    32
  0
VERTEX
  8
0
  5
2B1A
 10
63.0448
 20
23.1661
 30
0.000000
  70
    32
  0
VERTEX
  8
0
  5
2B1B
 10
63.0461
 20
23.1563
 30
0.000000
  70
    32
  0
VERTEX
  8
0
  5
2B1C
 10
63.0476
 20
23.1464
 30
0.000000
  70
    32
  0
VERTEX
  8
0
  5
2B1D
 10
63.0491
 20
23.1366
 30
0.000000
  70
    32
  0
VERTEX
  8
0
  5
2B1E
 10
63.0507
 20
23.1268
 30
0.000000
  70
    32
  0
VERTEX
  8
0
  5
2B1F
 10
63.0524
 20
23.1169
 30
0.000000
  70
    32
  0
VERTEX
  8
0
  5
2B20
 10
63.0543
 20
23.1072
 30
0.000000
  70
    32
  0
VERTEX
  8
0
  5
2B21
 10
63.0562
 20
23.0974
 30
0.000000
  70
    32
  0
VERTEX
  8
0
  5
2B22
 10
63.0582
 20
23.0876
 30
0.000000
  70
    32
  0
VERTEX
  8
0
  5
2B23
 10
63.0603
 20
23.0779
 30
0.000000
  70
    32
  0
VERTEX
  8
0
  5
2B24
 10
63.0625
 20
23.0682
 30
0.000000
  70
    32
  0
VERTEX
  8
0
  5
2B25
 10
63.0649
 20
23.0585
 30
0.000000
  70
    32
  0
VERTEX
  8
0
  5
2B26
 10
63.0673
 20
23.0489
 30
0.000000
  70
    32
  0
VERTEX
  8
0
  5
2B27
 10
63.0698
 20
23.0392
 30
0.000000
  70
    32
  0
VERTEX
  8
0
  5
2B28
 10
63.0724
 20
23.0296
 30
0.000000
  70
    32
  0
VERTEX
  8
0
  5
2B29
 10
63.0751
 20
23.0200
 30
0.000000
  70
    32
  0
VERTEX
  8
0
  5
2B2A
 10
63.0778
 20
23.0105
 30
0.000000
  70
    32
  0
VERTEX
  8
0
  5
2B2B
 10
63.0807
 20
23.0010
 30
0.000000
  70
    32
  0
VERTEX
  8
0
  5
2B2C
 10
63.0837
 20
22.9915
 30
0.000000
  70
    32
  0
VERTEX
  8
0
  5
2B2D
 10
63.0868
 20
22.9820
 30
0.000000
  70
    32
  0
VERTEX
  8
0
  5
2B2E
 10
63.0900
 20
22.9726
 30
0.000000
  70
    32
  0
VERTEX
  8
0
  5
2B2F
 10
63.0932
 20
22.9632
 30
0.000000
  70
    32
  0
VERTEX
  8
0
  5
2B30
 10
63.0966
 20
22.9538
 30
0.000000
  70
    32
  0
VERTEX
  8
0
  5
2B31
 10
63.1000
 20
22.9444
 30
0.000000
  70
    32
  0
VERTEX
  8
0
  5
2B32
 10
63.1036
 20
22.9351
 30
0.000000
  70
    32
  0
VERTEX
  8
0
  5
2B33
 10
63.1072
 20
22.9259
 30
0.000000
  70
    32
  0
VERTEX
  8
0
  5
2B34
 10
63.1109
 20
22.9166
 30
0.000000
  70
    32
  0
VERTEX
  8
0
  5
2B35
 10
63.1147
 20
22.9074
 30
0.000000
  70
    32
  0
VERTEX
  8
0
  5
2B36
 10
63.1187
 20
22.8983
 30
0.000000
  70
    32
  0
VERTEX
  8
0
  5
2B37
 10
63.1227
 20
22.8892
 30
0.000000
  70
    32
  0
VERTEX
  8
0
  5
2B38
 10
63.1268
 20
22.8801
 30
0.000000
  70
    32
  0
VERTEX
  8
0
  5
2B39
 10
63.1309
 20
22.8711
 30
0.000000
  70
    32
  0
VERTEX
  8
0
  5
2B3A
 10
63.1352
 20
22.8621
 30
0.000000
  70
    32
  0
VERTEX
  8
0
  5
2B3B
 10
63.1396
 20
22.8531
 30
0.000000
  70
    32
  0
VERTEX
  8
0
  5
2B3C
 10
63.1440
 20
22.8442
 30
0.000000
  70
    32
  0
VERTEX
  8
0
  5
2B3D
 10
63.1486
 20
22.8353
 30
0.000000
  70
    32
  0
VERTEX
  8
0
  5
2B3E
 10
63.1532
 20
22.8265
 30
0.000000
  70
    32
  0
VERTEX
  8
0
  5
2B3F
 10
63.1579
 20
22.8178
 30
0.000000
  70
    32
  0
VERTEX
  8
0
  5
2B40
 10
63.1627
 20
22.8090
 30
0.000000
  70
    32
  0
VERTEX
  8
0
  5
2B41
 10
63.1676
 20
22.8004
 30
0.000000
  70
    32
  0
VERTEX
  8
0
  5
2B42
 10
63.1726
 20
22.7917
 30
0.000000
  70
    32
  0
VERTEX
  8
0
  5
2B43
 10
63.1776
 20
22.7832
 30
0.000000
  70
    32
  0
VERTEX
  8
0
  5
2B44
 10
63.1828
 20
22.7746
 30
0.000000
  70
    32
  0
VERTEX
  8
0
  5
2B45
 10
63.1880
 20
22.7662
 30
0.000000
  70
    32
  0
VERTEX
  8
0
  5
2B46
 10
63.1933
 20
22.7577
 30
0.000000
  70
    32
  0
VERTEX
  8
0
  5
2B47
 10
63.1987
 20
22.7494
 30
0.000000
  70
    32
  0
VERTEX
  8
0
  5
2B48
 10
63.2042
 20
22.7411
 30
0.000000
  70
    32
  0
VERTEX
  8
0
  5
2B49
 10
63.2098
 20
22.7328
 30
0.000000
  70
    32
  0
VERTEX
  8
0
  5
2B4A
 10
63.2154
 20
22.7246
 30
0.000000
  70
    32
  0
VERTEX
  8
0
  5
2B4B
 10
63.2211
 20
22.7165
 30
0.000000
  70
    32
  0
VERTEX
  8
0
  5
2B4C
 10
63.2269
 20
22.7084
 30
0.000000
  70
    32
  0
VERTEX
  8
0
  5
2B4D
 10
63.2328
 20
22.7003
 30
0.000000
  70
    32
  0
VERTEX
  8
0
  5
2B4E
 10
63.2388
 20
22.6924
 30
0.000000
  70
    32
  0
VERTEX
  8
0
  5
2B4F
 10
63.2448
 20
22.6845
 30
0.000000
  70
    32
  0
VERTEX
  8
0
  5
2B50
 10
63.2510
 20
22.6766
 30
0.000000
  70
    32
  0
VERTEX
  8
0
  5
2B51
 10
63.2572
 20
22.6688
 30
0.000000
  70
    32
  0
VERTEX
  8
0
  5
2B52
 10
63.2635
 20
22.6611
 30
0.000000
  70
    32
  0
VERTEX
  8
0
  5
2B53
 10
63.2698
 20
22.6534
 30
0.000000
  70
    32
  0
VERTEX
  8
0
  5
2B54
 10
63.2763
 20
22.6458
 30
0.000000
  70
    32
  0
VERTEX
  8
0
  5
2B55
 10
63.2828
 20
22.6383
 30
0.000000
  70
    32
  0
VERTEX
  8
0
  5
2B56
 10
63.2893
 20
22.6308
 30
0.000000
  70
    32
  0
VERTEX
  8
0
  5
2B57
 10
63.2960
 20
22.6234
 30
0.000000
  70
    32
  0
VERTEX
  8
0
  5
2B58
 10
63.3027
 20
22.6161
 30
0.000000
  70
    32
  0
VERTEX
  8
0
  5
2B59
 10
63.3095
 20
22.6088
 30
0.000000
  70
    32
  0
VERTEX
  8
0
  5
2B5A
 10
63.3164
 20
22.6016
 30
0.000000
  70
    32
  0
VERTEX
  8
0
  5
2B5B
 10
63.3234
 20
22.5944
 30
0.000000
  70
    32
  0
VERTEX
  8
0
  5
2B5C
 10
63.3304
 20
22.5874
 30
0.000000
  70
    32
  0
VERTEX
  8
0
  5
2B5D
 10
63.3375
 20
22.5804
 30
0.000000
  70
    32
  0
VERTEX
  8
0
  5
2B5E
 10
63.3446
 20
22.5735
 30
0.000000
  70
    32
  0
VERTEX
  8
0
  5
2B5F
 10
63.3519
 20
22.5666
 30
0.000000
  70
    32
  0
VERTEX
  8
0
  5
2B60
 10
63.3592
 20
22.5598
 30
0.000000
  70
    32
  0
VERTEX
  8
0
  5
2B61
 10
63.3665
 20
22.5531
 30
0.000000
  70
    32
  0
VERTEX
  8
0
  5
2B62
 10
63.3740
 20
22.5465
 30
0.000000
  70
    32
  0
VERTEX
  8
0
  5
2B63
 10
63.3814
 20
22.5399
 30
0.000000
  70
    32
  0
VERTEX
  8
0
  5
2B64
 10
63.3890
 20
22.5334
 30
0.000000
  70
    32
  0
VERTEX
  8
0
  5
2B65
 10
63.3966
 20
22.5270
 30
0.000000
  70
    32
  0
VERTEX
  8
0
  5
2B66
 10
63.4043
 20
22.5207
 30
0.000000
  70
    32
  0
VERTEX
  8
0
  5
2B67
 10
63.4121
 20
22.5144
 30
0.000000
  70
    32
  0
VERTEX
  8
0
  5
2B68
 10
63.4199
 20
22.5082
 30
0.000000
  70
    32
  0
VERTEX
  8
0
  5
2B69
 10
63.4278
 20
22.5021
 30
0.000000
  70
    32
  0
VERTEX
  8
0
  5
2B6A
 10
63.4357
 20
22.4961
 30
0.000000
  70
    32
  0
VERTEX
  8
0
  5
2B6B
 10
63.4437
 20
22.4902
 30
0.000000
  70
    32
  0
VERTEX
  8
0
  5
2B6C
 10
63.4517
 20
22.4843
 30
0.000000
  70
    32
  0
VERTEX
  8
0
  5
2B6D
 10
63.4599
 20
22.4785
 30
0.000000
  70
    32
  0
VERTEX
  8
0
  5
2B6E
 10
63.4680
 20
22.4728
 30
0.000000
  70
    32
  0
VERTEX
  8
0
  5
2B6F
 10
63.4762
 20
22.4672
 30
0.000000
  70
    32
  0
VERTEX
  8
0
  5
2B70
 10
63.4845
 20
22.4617
 30
0.000000
  70
    32
  0
VERTEX
  8
0
  5
2B71
 10
63.4929
 20
22.4562
 30
0.000000
  70
    32
  0
VERTEX
  8
0
  5
2B72
 10
63.5013
 20
22.4508
 30
0.000000
  70
    32
  0
VERTEX
  8
0
  5
2B73
 10
63.5097
 20
22.4455
 30
0.000000
  70
    32
  0
VERTEX
  8
0
  5
2B74
 10
63.5182
 20
22.4403
 30
0.000000
  70
    32
  0
VERTEX
  8
0
  5
2B75
 10
63.5267
 20
22.4352
 30
0.000000
  70
    32
  0
VERTEX
  8
0
  5
2B76
 10
63.5353
 20
22.4302
 30
0.000000
  70
    32
  0
VERTEX
  8
0
  5
2B77
 10
63.5440
 20
22.4252
 30
0.000000
  70
    32
  0
VERTEX
  8
0
  5
2B78
 10
63.5527
 20
22.4203
 30
0.000000
  70
    32
  0
VERTEX
  8
0
  5
2B79
 10
63.5614
 20
22.4156
 30
0.000000
  70
    32
  0
VERTEX
  8
0
  5
2B7A
 10
63.5702
 20
22.4109
 30
0.000000
  70
    32
  0
VERTEX
  8
0
  5
2B7B
 10
63.5790
 20
22.4063
 30
0.000000
  70
    32
  0
VERTEX
  8
0
  5
2B7C
 10
63.5879
 20
22.4018
 30
0.000000
  70
    32
  0
VERTEX
  8
0
  5
2B7D
 10
63.5969
 20
22.3973
 30
0.000000
  70
    32
  0
VERTEX
  8
0
  5
2B7E
 10
63.6058
 20
22.3930
 30
0.000000
  70
    32
  0
VERTEX
  8
0
  5
2B7F
 10
63.6148
 20
22.3887
 30
0.000000
  70
    32
  0
VERTEX
  8
0
  5
2B80
 10
63.6239
 20
22.3846
 30
0.000000
  70
    32
  0
VERTEX
  8
0
  5
2B81
 10
63.6330
 20
22.3805
 30
0.000000
  70
    32
  0
VERTEX
  8
0
  5
2B82
 10
63.6421
 20
22.3765
 30
0.000000
  70
    32
  0
VERTEX
  8
0
  5
2B83
 10
63.6513
 20
22.3726
 30
0.000000
  70
    32
  0
VERTEX
  8
0
  5
2B84
 10
63.6605
 20
22.3688
 30
0.000000
  70
    32
  0
VERTEX
  8
0
  5
2B85
 10
63.6698
 20
22.3651
 30
0.000000
  70
    32
  0
VERTEX
  8
0
  5
2B86
 10
63.6791
 20
22.3615
 30
0.000000
  70
    32
  0
VERTEX
  8
0
  5
2B87
 10
63.6884
 20
22.3580
 30
0.000000
  70
    32
  0
VERTEX
  8
0
  5
2B88
 10
63.6977
 20
22.3546
 30
0.000000
  70
    32
  0
VERTEX
  8
0
  5
2B89
 10
63.7071
 20
22.3513
 30
0.000000
  70
    32
  0
VERTEX
  8
0
  5
2B8A
 10
63.7166
 20
22.3480
 30
0.000000
  70
    32
  0
VERTEX
  8
0
  5
2B8B
 10
63.7260
 20
22.3449
 30
0.000000
  70
    32
  0
VERTEX
  8
0
  5
2B8C
 10
63.7355
 20
22.3418
 30
0.000000
  70
    32
  0
VERTEX
  8
0
  5
2B8D
 10
63.7450
 20
22.3389
 30
0.000000
  70
    32
  0
SEQEND
  8
0
  5
2B8E
  0
LINE
  5
2595
  8
0
 10
70.023368722022752
 20
20.422001112115971
 30
0.0
 11
63.745017762712678
 21
22.338855042522479
 31
0.0
  0
LINE
  5
2597
  8
0
 10
64.072738093461354
 20
13.73164554437119
 30
0.0
 11
70.023368722022752
 21
13.939161361380741
 31
0.0
  0
LINE
  5
2598
  8
0
 10
63.888469225320222
 20
13.73164554437119
 30
0.0
 11
64.072738093461354
 21
13.73164554437119
 31
0.0
  0
ARC
  5
2599
  8
0
 10
63.92336872202273
 20
14.731036371390269
 30
0.0
 40
1.0
 50
179.99999999999841
 51
267.9999999999996
  0
LINE
  5
259A
  8
0
 10
62.92336872202273
 20
20.167300380590689
 30
0.0
 11
62.92336872202273
 21
14.731036371390269
 31
0.0
  0
ARC
  5
259B
  8
0
 10
61.92336872202273
 20
20.167300380590689
 30
0.0
 40
1.000000000000036
 50
0.0
 51
73.000000000001805
  0
LINE
  5
259C
  8
0
 10
57.630997017300018
 20
22.525301863436681
 30
0.0
 11
62.215740426745441
 21
21.123605136553781
 31
0.0
  0
LINE
  5
25A0
  8
0
 10
62.215740426745441
 20
31.83968595218818
 30
0.0
 11
57.630997017300018
 21
30.437989225306179
 31
0.0
  0
ARC
  5
25A1
  8
0
 10
61.923368722021991
 20
32.795990708151798
 30
0.0
 40
1.0000000000007669
 50
287.00000000003268
 51
359.99999999996578
  0
LINE
  5
25A2
  8
0
 10
62.92336872202273
 20
38.232254717352191
 30
0.0
 11
62.92336872202273
 21
32.79599070815118
 31
0.0
  0
ARC
  5
25A3
  8
0
 10
63.923368722022019
 20
38.232254717352838
 30
0.0
 40
0.9999999999992827
 50
92.000000000042775
 51
180.0000000000374
  0
POLYLINE
  5
25A4
  8
0
 10
70.523368722022752
 20
20.261344914239846
 30
0.0
 66
     1
 70
     8
  0
VERTEX
  8
0
  5
2B8F
 10
70.5234
 20
20.2613
 30
0.000000
  70
    32
  0
VERTEX
  8
0
  5
2B90
 10
70.5233
 20
20.2615
 30
0.000000
  70
    32
  0
VERTEX
  8
0
  5
2B91
 10
70.5232
 20
20.2616
 30
0.000000
  70
    32
  0
VERTEX
  8
0
  5
2B92
 10
70.5230
 20
20.2617
 30
0.000000
  70
    32
  0
VERTEX
  8
0
  5
2B93
 10
70.5228
 20
20.2619
 30
0.000000
  70
    32
  0
VERTEX
  8
0
  5
2B94
 10
70.5224
 20
20.2621
 30
0.000000
  70
    32
  0
VERTEX
  8
0
  5
2B95
 10
70.5220
 20
20.2623
 30
0.000000
  70
    32
  0
VERTEX
  8
0
  5
2B96
 10
70.5215
 20
20.2626
 30
0.000000
  70
    32
  0
VERTEX
  8
0
  5
2B97
 10
70.5210
 20
20.2629
 30
0.000000
  70
    32
  0
VERTEX
  8
0
  5
2B98
 10
70.5203
 20
20.2632
 30
0.000000
  70
    32
  0
VERTEX
  8
0
  5
2B99
 10
70.5196
 20
20.2635
 30
0.000000
  70
    32
  0
VERTEX
  8
0
  5
2B9A
 10
70.5188
 20
20.2638
 30
0.000000
  70
    32
  0
VERTEX
  8
0
  5
2B9B
 10
70.5180
 20
20.2642
 30
0.000000
  70
    32
  0
VERTEX
  8
0
  5
2B9C
 10
70.5170
 20
20.2646
 30
0.000000
  70
    32
  0
VERTEX
  8
0
  5
2B9D
 10
70.5160
 20
20.2650
 30
0.000000
  70
    32
  0
VERTEX
  8
0
  5
2B9E
 10
70.5149
 20
20.2654
 30
0.000000
  70
    32
  0
VERTEX
  8
0
  5
2B9F
 10
70.5138
 20
20.2658
 30
0.000000
  70
    32
  0
VERTEX
  8
0
  5
2BA0
 10
70.5125
 20
20.2663
 30
0.000000
  70
    32
  0
VERTEX
  8
0
  5
2BA1
 10
70.5112
 20
20.2668
 30
0.000000
  70
    32
  0
VERTEX
  8
0
  5
2BA2
 10
70.5098
 20
20.2673
 30
0.000000
  70
    32
  0
VERTEX
  8
0
  5
2BA3
 10
70.5084
 20
20.2679
 30
0.000000
  70
    32
  0
VERTEX
  8
0
  5
2BA4
 10
70.5069
 20
20.2684
 30
0.000000
  70
    32
  0
VERTEX
  8
0
  5
2BA5
 10
70.5053
 20
20.2690
 30
0.000000
  70
    32
  0
VERTEX
  8
0
  5
2BA6
 10
70.5036
 20
20.2696
 30
0.000000
  70
    32
  0
VERTEX
  8
0
  5
2BA7
 10
70.5018
 20
20.2702
 30
0.000000
  70
    32
  0
VERTEX
  8
0
  5
2BA8
 10
70.5000
 20
20.2709
 30
0.000000
  70
    32
  0
VERTEX
  8
0
  5
2BA9
 10
70.4981
 20
20.2716
 30
0.000000
  70
    32
  0
VERTEX
  8
0
  5
2BAA
 10
70.4962
 20
20.2723
 30
0.000000
  70
    32
  0
VERTEX
  8
0
  5
2BAB
 10
70.4941
 20
20.2730
 30
0.000000
  70
    32
  0
VERTEX
  8
0
  5
2BAC
 10
70.4920
 20
20.2737
 30
0.000000
  70
    32
  0
VERTEX
  8
0
  5
2BAD
 10
70.4899
 20
20.2745
 30
0.000000
  70
    32
  0
VERTEX
  8
0
  5
2BAE
 10
70.4876
 20
20.2752
 30
0.000000
  70
    32
  0
VERTEX
  8
0
  5
2BAF
 10
70.4853
 20
20.2760
 30
0.000000
  70
    32
  0
VERTEX
  8
0
  5
2BB0
 10
70.4829
 20
20.2768
 30
0.000000
  70
    32
  0
VERTEX
  8
0
  5
2BB1
 10
70.4805
 20
20.2777
 30
0.000000
  70
    32
  0
VERTEX
  8
0
  5
2BB2
 10
70.4780
 20
20.2785
 30
0.000000
  70
    32
  0
VERTEX
  8
0
  5
2BB3
 10
70.4754
 20
20.2794
 30
0.000000
  70
    32
  0
VERTEX
  8
0
  5
2BB4
 10
70.4727
 20
20.2803
 30
0.000000
  70
    32
  0
VERTEX
  8
0
  5
2BB5
 10
70.4700
 20
20.2812
 30
0.000000
  70
    32
  0
VERTEX
  8
0
  5
2BB6
 10
70.4672
 20
20.2822
 30
0.000000
  70
    32
  0
VERTEX
  8
0
  5
2BB7
 10
70.4643
 20
20.2831
 30
0.000000
  70
    32
  0
VERTEX
  8
0
  5
2BB8
 10
70.4614
 20
20.2841
 30
0.000000
  70
    32
  0
VERTEX
  8
0
  5
2BB9
 10
70.4584
 20
20.2851
 30
0.000000
  70
    32
  0
VERTEX
  8
0
  5
2BBA
 10
70.4554
 20
20.2861
 30
0.000000
  70
    32
  0
VERTEX
  8
0
  5
2BBB
 10
70.4522
 20
20.2872
 30
0.000000
  70
    32
  0
VERTEX
  8
0
  5
2BBC
 10
70.4490
 20
20.2882
 30
0.000000
  70
    32
  0
VERTEX
  8
0
  5
2BBD
 10
70.4458
 20
20.2893
 30
0.000000
  70
    32
  0
VERTEX
  8
0
  5
2BBE
 10
70.4425
 20
20.2904
 30
0.000000
  70
    32
  0
VERTEX
  8
0
  5
2BBF
 10
70.4391
 20
20.2915
 30
0.000000
  70
    32
  0
VERTEX
  8
0
  5
2BC0
 10
70.4357
 20
20.2926
 30
0.000000
  70
    32
  0
VERTEX
  8
0
  5
2BC1
 10
70.4322
 20
20.2938
 30
0.000000
  70
    32
  0
VERTEX
  8
0
  5
2BC2
 10
70.4286
 20
20.2950
 30
0.000000
  70
    32
  0
VERTEX
  8
0
  5
2BC3
 10
70.4250
 20
20.2962
 30
0.000000
  70
    32
  0
VERTEX
  8
0
  5
2BC4
 10
70.4213
 20
20.2974
 30
0.000000
  70
    32
  0
VERTEX
  8
0
  5
2BC5
 10
70.4175
 20
20.2986
 30
0.000000
  70
    32
  0
VERTEX
  8
0
  5
2BC6
 10
70.4137
 20
20.2998
 30
0.000000
  70
    32
  0
VERTEX
  8
0
  5
2BC7
 10
70.4099
 20
20.3011
 30
0.000000
  70
    32
  0
VERTEX
  8
0
  5
2BC8
 10
70.4060
 20
20.3023
 30
0.000000
  70
    32
  0
VERTEX
  8
0
  5
2BC9
 10
70.4020
 20
20.3036
 30
0.000000
  70
    32
  0
VERTEX
  8
0
  5
2BCA
 10
70.3979
 20
20.3049
 30
0.000000
  70
    32
  0
VERTEX
  8
0
  5
2BCB
 10
70.3938
 20
20.3063
 30
0.000000
  70
    32
  0
VERTEX
  8
0
  5
2BCC
 10
70.3897
 20
20.3076
 30
0.000000
  70
    32
  0
VERTEX
  8
0
  5
2BCD
 10
70.3855
 20
20.3090
 30
0.000000
  70
    32
  0
VERTEX
  8
0
  5
2BCE
 10
70.3812
 20
20.3103
 30
0.000000
  70
    32
  0
VERTEX
  8
0
  5
2BCF
 10
70.3769
 20
20.3117
 30
0.000000
  70
    32
  0
VERTEX
  8
0
  5
2BD0
 10
70.3726
 20
20.3131
 30
0.000000
  70
    32
  0
VERTEX
  8
0
  5
2BD1
 10
70.3681
 20
20.3145
 30
0.000000
  70
    32
  0
VERTEX
  8
0
  5
2BD2
 10
70.3637
 20
20.3160
 30
0.000000
  70
    32
  0
VERTEX
  8
0
  5
2BD3
 10
70.3591
 20
20.3174
 30
0.000000
  70
    32
  0
VERTEX
  8
0
  5
2BD4
 10
70.3546
 20
20.3189
 30
0.000000
  70
    32
  0
VERTEX
  8
0
  5
2BD5
 10
70.3500
 20
20.3203
 30
0.000000
  70
    32
  0
VERTEX
  8
0
  5
2BD6
 10
70.3453
 20
20.3218
 30
0.000000
  70
    32
  0
VERTEX
  8
0
  5
2BD7
 10
70.3406
 20
20.3233
 30
0.000000
  70
    32
  0
VERTEX
  8
0
  5
2BD8
 10
70.3358
 20
20.3249
 30
0.000000
  70
    32
  0
VERTEX
  8
0
  5
2BD9
 10
70.3310
 20
20.3264
 30
0.000000
  70
    32
  0
VERTEX
  8
0
  5
2BDA
 10
70.3261
 20
20.3279
 30
0.000000
  70
    32
  0
VERTEX
  8
0
  5
2BDB
 10
70.3212
 20
20.3295
 30
0.000000
  70
    32
  0
VERTEX
  8
0
  5
2BDC
 10
70.3163
 20
20.3311
 30
0.000000
  70
    32
  0
VERTEX
  8
0
  5
2BDD
 10
70.3113
 20
20.3326
 30
0.000000
  70
    32
  0
VERTEX
  8
0
  5
2BDE
 10
70.3062
 20
20.3342
 30
0.000000
  70
    32
  0
VERTEX
  8
0
  5
2BDF
 10
70.3012
 20
20.3358
 30
0.000000
  70
    32
  0
VERTEX
  8
0
  5
2BE0
 10
70.2960
 20
20.3375
 30
0.000000
  70
    32
  0
VERTEX
  8
0
  5
2BE1
 10
70.2909
 20
20.3391
 30
0.000000
  70
    32
  0
VERTEX
  8
0
  5
2BE2
 10
70.2857
 20
20.3407
 30
0.000000
  70
    32
  0
VERTEX
  8
0
  5
2BE3
 10
70.2804
 20
20.3424
 30
0.000000
  70
    32
  0
VERTEX
  8
0
  5
2BE4
 10
70.2751
 20
20.3440
 30
0.000000
  70
    32
  0
VERTEX
  8
0
  5
2BE5
 10
70.2698
 20
20.3457
 30
0.000000
  70
    32
  0
VERTEX
  8
0
  5
2BE6
 10
70.2645
 20
20.3474
 30
0.000000
  70
    32
  0
VERTEX
  8
0
  5
2BE7
 10
70.2591
 20
20.3491
 30
0.000000
  70
    32
  0
VERTEX
  8
0
  5
2BE8
 10
70.2536
 20
20.3508
 30
0.000000
  70
    32
  0
VERTEX
  8
0
  5
2BE9
 10
70.2482
 20
20.3525
 30
0.000000
  70
    32
  0
VERTEX
  8
0
  5
2BEA
 10
70.2427
 20
20.3542
 30
0.000000
  70
    32
  0
VERTEX
  8
0
  5
2BEB
 10
70.2371
 20
20.3560
 30
0.000000
  70
    32
  0
VERTEX
  8
0
  5
2BEC
 10
70.2316
 20
20.3577
 30
0.000000
  70
    32
  0
VERTEX
  8
0
  5
2BED
 10
70.2260
 20
20.3595
 30
0.000000
  70
    32
  0
VERTEX
  8
0
  5
2BEE
 10
70.2204
 20
20.3612
 30
0.000000
  70
    32
  0
VERTEX
  8
0
  5
2BEF
 10
70.2147
 20
20.3630
 30
0.000000
  70
    32
  0
VERTEX
  8
0
  5
2BF0
 10
70.2090
 20
20.3647
 30
0.000000
  70
    32
  0
VERTEX
  8
0
  5
2BF1
 10
70.2033
 20
20.3665
 30
0.000000
  70
    32
  0
VERTEX
  8
0
  5
2BF2
 10
70.1976
 20
20.3683
 30
0.000000
  70
    32
  0
VERTEX
  8
0
  5
2BF3
 10
70.1918
 20
20.3701
 30
0.000000
  70
    32
  0
VERTEX
  8
0
  5
2BF4
 10
70.1860
 20
20.3719
 30
0.000000
  70
    32
  0
VERTEX
  8
0
  5
2BF5
 10
70.1802
 20
20.3737
 30
0.000000
  70
    32
  0
VERTEX
  8
0
  5
2BF6
 10
70.1744
 20
20.3755
 30
0.000000
  70
    32
  0
VERTEX
  8
0
  5
2BF7
 10
70.1685
 20
20.3773
 30
0.000000
  70
    32
  0
VERTEX
  8
0
  5
2BF8
 10
70.1626
 20
20.3792
 30
0.000000
  70
    32
  0
VERTEX
  8
0
  5
2BF9
 10
70.1567
 20
20.3810
 30
0.000000
  70
    32
  0
VERTEX
  8
0
  5
2BFA
 10
70.1508
 20
20.3828
 30
0.000000
  70
    32
  0
VERTEX
  8
0
  5
2BFB
 10
70.1449
 20
20.3847
 30
0.000000
  70
    32
  0
VERTEX
  8
0
  5
2BFC
 10
70.1389
 20
20.3865
 30
0.000000
  70
    32
  0
VERTEX
  8
0
  5
2BFD
 10
70.1329
 20
20.3884
 30
0.000000
  70
    32
  0
VERTEX
  8
0
  5
2BFE
 10
70.1269
 20
20.3902
 30
0.000000
  70
    32
  0
VERTEX
  8
0
  5
2BFF
 10
70.1209
 20
20.3921
 30
0.000000
  70
    32
  0
VERTEX
  8
0
  5
2C00
 10
70.1149
 20
20.3939
 30
0.000000
  70
    32
  0
VERTEX
  8
0
  5
2C01
 10
70.1088
 20
20.3958
 30
0.000000
  70
    32
  0
VERTEX
  8
0
  5
2C02
 10
70.1028
 20
20.3976
 30
0.000000
  70
    32
  0
VERTEX
  8
0
  5
2C03
 10
70.0967
 20
20.3995
 30
0.000000
  70
    32
  0
VERTEX
  8
0
  5
2C04
 10
70.0907
 20
20.4014
 30
0.000000
  70
    32
  0
VERTEX
  8
0
  5
2C05
 10
70.0846
 20
20.4033
 30
0.000000
  70
    32
  0
VERTEX
  8
0
  5
2C06
 10
70.0785
 20
20.4051
 30
0.000000
  70
    32
  0
VERTEX
  8
0
  5
2C07
 10
70.0724
 20
20.4070
 30
0.000000
  70
    32
  0
VERTEX
  8
0
  5
2C08
 10
70.0663
 20
20.4089
 30
0.000000
  70
    32
  0
VERTEX
  8
0
  5
2C09
 10
70.0602
 20
20.4107
 30
0.000000
  70
    32
  0
VERTEX
  8
0
  5
2C0A
 10
70.0540
 20
20.4126
 30
0.000000
  70
    32
  0
VERTEX
  8
0
  5
2C0B
 10
70.0479
 20
20.4145
 30
0.000000
  70
    32
  0
VERTEX
  8
0
  5
2C0C
 10
70.0418
 20
20.4164
 30
0.000000
  70
    32
  0
VERTEX
  8
0
  5
2C0D
 10
70.0356
 20
20.4183
 30
0.000000
  70
    32
  0
VERTEX
  8
0
  5
2C0E
 10
70.0295
 20
20.4201
 30
0.000000
  70
    32
  0
VERTEX
  8
0
  5
2C0F
 10
70.0234
 20
20.4220
 30
0.000000
  70
    32
  0
SEQEND
  8
0
  5
2C10
  0
LINE
  5
25A5
  8
0
 10
70.523368722022752
 20
20.261344914239832
 30
0.0
 11
70.523368722022752
 21
13.95751162320818
 31
0.0
  0
POLYLINE
  5
25A6
  8
0
 10
70.023368722022752
 20
13.939161361380723
 30
0.0
 66
     1
 70
     8
  0
VERTEX
  8
0
  5
2C11
 10
70.0234
 20
13.9392
 30
0.000000
  70
    32
  0
VERTEX
  8
0
  5
2C12
 10
70.0295
 20
13.9394
 30
0.000000
  70
    32
  0
VERTEX
  8
0
  5
2C13
 10
70.0356
 20
13.9396
 30
0.000000
  70
    32
  0
VERTEX
  8
0
  5
2C14
 10
70.0418
 20
13.9398
 30
0.000000
  70
    32
  0
VERTEX
  8
0
  5
2C15
 10
70.0479
 20
13.9400
 30
0.000000
  70
    32
  0
VERTEX
  8
0
  5
2C16
 10
70.0540
 20
13.9402
 30
0.000000
  70
    32
  0
VERTEX
  8
0
  5
2C17
 10
70.0602
 20
13.9404
 30
0.000000
  70
    32
  0
VERTEX
  8
0
  5
2C18
 10
70.0663
 20
13.9407
 30
0.000000
  70
    32
  0
VERTEX
  8
0
  5
2C19
 10
70.0724
 20
13.9409
 30
0.000000
  70
    32
  0
VERTEX
  8
0
  5
2C1A
 10
70.0785
 20
13.9411
 30
0.000000
  70
    32
  0
VERTEX
  8
0
  5
2C1B
 10
70.0846
 20
13.9413
 30
0.000000
  70
    32
  0
VERTEX
  8
0
  5
2C1C
 10
70.0907
 20
13.9415
 30
0.000000
  70
    32
  0
VERTEX
  8
0
  5
2C1D
 10
70.0967
 20
13.9417
 30
0.000000
  70
    32
  0
VERTEX
  8
0
  5
2C1E
 10
70.1028
 20
13.9419
 30
0.000000
  70
    32
  0
VERTEX
  8
0
  5
2C1F
 10
70.1088
 20
13.9422
 30
0.000000
  70
    32
  0
VERTEX
  8
0
  5
2C20
 10
70.1149
 20
13.9424
 30
0.000000
  70
    32
  0
VERTEX
  8
0
  5
2C21
 10
70.1209
 20
13.9426
 30
0.000000
  70
    32
  0
VERTEX
  8
0
  5
2C22
 10
70.1269
 20
13.9428
 30
0.000000
  70
    32
  0
VERTEX
  8
0
  5
2C23
 10
70.1329
 20
13.9430
 30
0.000000
  70
    32
  0
VERTEX
  8
0
  5
2C24
 10
70.1389
 20
13.9432
 30
0.000000
  70
    32
  0
VERTEX
  8
0
  5
2C25
 10
70.1449
 20
13.9434
 30
0.000000
  70
    32
  0
VERTEX
  8
0
  5
2C26
 10
70.1508
 20
13.9436
 30
0.000000
  70
    32
  0
VERTEX
  8
0
  5
2C27
 10
70.1567
 20
13.9438
 30
0.000000
  70
    32
  0
VERTEX
  8
0
  5
2C28
 10
70.1626
 20
13.9441
 30
0.000000
  70
    32
  0
VERTEX
  8
0
  5
2C29
 10
70.1685
 20
13.9443
 30
0.000000
  70
    32
  0
VERTEX
  8
0
  5
2C2A
 10
70.1744
 20
13.9445
 30
0.000000
  70
    32
  0
VERTEX
  8
0
  5
2C2B
 10
70.1802
 20
13.9447
 30
0.000000
  70
    32
  0
VERTEX
  8
0
  5
2C2C
 10
70.1860
 20
13.9449
 30
0.000000
  70
    32
  0
VERTEX
  8
0
  5
2C2D
 10
70.1918
 20
13.9451
 30
0.000000
  70
    32
  0
VERTEX
  8
0
  5
2C2E
 10
70.1976
 20
13.9453
 30
0.000000
  70
    32
  0
VERTEX
  8
0
  5
2C2F
 10
70.2033
 20
13.9455
 30
0.000000
  70
    32
  0
VERTEX
  8
0
  5
2C30
 10
70.2090
 20
13.9457
 30
0.000000
  70
    32
  0
VERTEX
  8
0
  5
2C31
 10
70.2147
 20
13.9459
 30
0.000000
  70
    32
  0
VERTEX
  8
0
  5
2C32
 10
70.2204
 20
13.9461
 30
0.000000
  70
    32
  0
VERTEX
  8
0
  5
2C33
 10
70.2260
 20
13.9463
 30
0.000000
  70
    32
  0
VERTEX
  8
0
  5
2C34
 10
70.2316
 20
13.9465
 30
0.000000
  70
    32
  0
VERTEX
  8
0
  5
2C35
 10
70.2371
 20
13.9467
 30
0.000000
  70
    32
  0
VERTEX
  8
0
  5
2C36
 10
70.2427
 20
13.9469
 30
0.000000
  70
    32
  0
VERTEX
  8
0
  5
2C37
 10
70.2482
 20
13.9471
 30
0.000000
  70
    32
  0
VERTEX
  8
0
  5
2C38
 10
70.2536
 20
13.9473
 30
0.000000
  70
    32
  0
VERTEX
  8
0
  5
2C39
 10
70.2591
 20
13.9475
 30
0.000000
  70
    32
  0
VERTEX
  8
0
  5
2C3A
 10
70.2645
 20
13.9477
 30
0.000000
  70
    32
  0
VERTEX
  8
0
  5
2C3B
 10
70.2698
 20
13.9479
 30
0.000000
  70
    32
  0
VERTEX
  8
0
  5
2C3C
 10
70.2751
 20
13.9481
 30
0.000000
  70
    32
  0
VERTEX
  8
0
  5
2C3D
 10
70.2804
 20
13.9483
 30
0.000000
  70
    32
  0
VERTEX
  8
0
  5
2C3E
 10
70.2857
 20
13.9484
 30
0.000000
  70
    32
  0
VERTEX
  8
0
  5
2C3F
 10
70.2909
 20
13.9486
 30
0.000000
  70
    32
  0
VERTEX
  8
0
  5
2C40
 10
70.2960
 20
13.9488
 30
0.000000
  70
    32
  0
VERTEX
  8
0
  5
2C41
 10
70.3012
 20
13.9490
 30
0.000000
  70
    32
  0
VERTEX
  8
0
  5
2C42
 10
70.3062
 20
13.9492
 30
0.000000
  70
    32
  0
VERTEX
  8
0
  5
2C43
 10
70.3113
 20
13.9494
 30
0.000000
  70
    32
  0
VERTEX
  8
0
  5
2C44
 10
70.3163
 20
13.9495
 30
0.000000
  70
    32
  0
VERTEX
  8
0
  5
2C45
 10
70.3212
 20
13.9497
 30
0.000000
  70
    32
  0
VERTEX
  8
0
  5
2C46
 10
70.3261
 20
13.9499
 30
0.000000
  70
    32
  0
VERTEX
  8
0
  5
2C47
 10
70.3310
 20
13.9501
 30
0.000000
  70
    32
  0
VERTEX
  8
0
  5
2C48
 10
70.3358
 20
13.9503
 30
0.000000
  70
    32
  0
VERTEX
  8
0
  5
2C49
 10
70.3406
 20
13.9504
 30
0.000000
  70
    32
  0
VERTEX
  8
0
  5
2C4A
 10
70.3453
 20
13.9506
 30
0.000000
  70
    32
  0
VERTEX
  8
0
  5
2C4B
 10
70.3500
 20
13.9508
 30
0.000000
  70
    32
  0
VERTEX
  8
0
  5
2C4C
 10
70.3546
 20
13.9509
 30
0.000000
  70
    32
  0
VERTEX
  8
0
  5
2C4D
 10
70.3591
 20
13.9511
 30
0.000000
  70
    32
  0
VERTEX
  8
0
  5
2C4E
 10
70.3637
 20
13.9513
 30
0.000000
  70
    32
  0
VERTEX
  8
0
  5
2C4F
 10
70.3681
 20
13.9514
 30
0.000000
  70
    32
  0
VERTEX
  8
0
  5
2C50
 10
70.3726
 20
13.9516
 30
0.000000
  70
    32
  0
VERTEX
  8
0
  5
2C51
 10
70.3769
 20
13.9518
 30
0.000000
  70
    32
  0
VERTEX
  8
0
  5
2C52
 10
70.3812
 20
13.9519
 30
0.000000
  70
    32
  0
VERTEX
  8
0
  5
2C53
 10
70.3855
 20
13.9521
 30
0.000000
  70
    32
  0
VERTEX
  8
0
  5
2C54
 10
70.3897
 20
13.9522
 30
0.000000
  70
    32
  0
VERTEX
  8
0
  5
2C55
 10
70.3938
 20
13.9524
 30
0.000000
  70
    32
  0
VERTEX
  8
0
  5
2C56
 10
70.3979
 20
13.9525
 30
0.000000
  70
    32
  0
VERTEX
  8
0
  5
2C57
 10
70.4020
 20
13.9527
 30
0.000000
  70
    32
  0
VERTEX
  8
0
  5
2C58
 10
70.4060
 20
13.9528
 30
0.000000
  70
    32
  0
VERTEX
  8
0
  5
2C59
 10
70.4099
 20
13.9530
 30
0.000000
  70
    32
  0
VERTEX
  8
0
  5
2C5A
 10
70.4137
 20
13.9531
 30
0.000000
  70
    32
  0
VERTEX
  8
0
  5
2C5B
 10
70.4175
 20
13.9533
 30
0.000000
  70
    32
  0
VERTEX
  8
0
  5
2C5C
 10
70.4213
 20
13.9534
 30
0.000000
  70
    32
  0
VERTEX
  8
0
  5
2C5D
 10
70.4250
 20
13.9535
 30
0.000000
  70
    32
  0
VERTEX
  8
0
  5
2C5E
 10
70.4286
 20
13.9537
 30
0.000000
  70
    32
  0
VERTEX
  8
0
  5
2C5F
 10
70.4322
 20
13.9538
 30
0.000000
  70
    32
  0
VERTEX
  8
0
  5
2C60
 10
70.4357
 20
13.9539
 30
0.000000
  70
    32
  0
VERTEX
  8
0
  5
2C61
 10
70.4391
 20
13.9541
 30
0.000000
  70
    32
  0
VERTEX
  8
0
  5
2C62
 10
70.4425
 20
13.9542
 30
0.000000
  70
    32
  0
VERTEX
  8
0
  5
2C63
 10
70.4458
 20
13.9543
 30
0.000000
  70
    32
  0
VERTEX
  8
0
  5
2C64
 10
70.4490
 20
13.9544
 30
0.000000
  70
    32
  0
VERTEX
  8
0
  5
2C65
 10
70.4522
 20
13.9546
 30
0.000000
  70
    32
  0
VERTEX
  8
0
  5
2C66
 10
70.4554
 20
13.9547
 30
0.000000
  70
    32
  0
VERTEX
  8
0
  5
2C67
 10
70.4584
 20
13.9548
 30
0.000000
  70
    32
  0
VERTEX
  8
0
  5
2C68
 10
70.4614
 20
13.9549
 30
0.000000
  70
    32
  0
VERTEX
  8
0
  5
2C69
 10
70.4643
 20
13.9550
 30
0.000000
  70
    32
  0
VERTEX
  8
0
  5
2C6A
 10
70.4672
 20
13.9551
 30
0.000000
  70
    32
  0
VERTEX
  8
0
  5
2C6B
 10
70.4700
 20
13.9552
 30
0.000000
  70
    32
  0
VERTEX
  8
0
  5
2C6C
 10
70.4727
 20
13.9553
 30
0.000000
  70
    32
  0
VERTEX
  8
0
  5
2C6D
 10
70.4754
 20
13.9554
 30
0.000000
  70
    32
  0
VERTEX
  8
0
  5
2C6E
 10
70.4780
 20
13.9555
 30
0.000000
  70
    32
  0
VERTEX
  8
0
  5
2C6F
 10
70.4805
 20
13.9556
 30
0.000000
  70
    32
  0
VERTEX
  8
0
  5
2C70
 10
70.4829
 20
13.9557
 30
0.000000
  70
    32
  0
VERTEX
  8
0
  5
2C71
 10
70.4853
 20
13.9558
 30
0.000000
  70
    32
  0
VERTEX
  8
0
  5
2C72
 10
70.4876
 20
13.9559
 30
0.000000
  70
    32
  0
VERTEX
  8
0
  5
2C73
 10
70.4899
 20
13.9560
 30
0.000000
  70
    32
  0
VERTEX
  8
0
  5
2C74
 10
70.4920
 20
13.9561
 30
0.000000
  70
    32
  0
VERTEX
  8
0
  5
2C75
 10
70.4941
 20
13.9562
 30
0.000000
  70
    32
  0
VERTEX
  8
0
  5
2C76
 10
70.4962
 20
13.9563
 30
0.000000
  70
    32
  0
VERTEX
  8
0
  5
2C77
 10
70.4981
 20
13.9563
 30
0.000000
  70
    32
  0
VERTEX
  8
0
  5
2C78
 10
70.5000
 20
13.9564
 30
0.000000
  70
    32
  0
VERTEX
  8
0
  5
2C79
 10
70.5018
 20
13.9565
 30
0.000000
  70
    32
  0
VERTEX
  8
0
  5
2C7A
 10
70.5036
 20
13.9566
 30
0.000000
  70
    32
  0
VERTEX
  8
0
  5
2C7B
 10
70.5053
 20
13.9566
 30
0.000000
  70
    32
  0
VERTEX
  8
0
  5
2C7C
 10
70.5069
 20
13.9567
 30
0.000000
  70
    32
  0
VERTEX
  8
0
  5
2C7D
 10
70.5084
 20
13.9568
 30
0.000000
  70
    32
  0
VERTEX
  8
0
  5
2C7E
 10
70.5098
 20
13.9568
 30
0.000000
  70
    32
  0
VERTEX
  8
0
  5
2C7F
 10
70.5112
 20
13.9569
 30
0.000000
  70
    32
  0
VERTEX
  8
0
  5
2C80
 10
70.5125
 20
13.9569
 30
0.000000
  70
    32
  0
VERTEX
  8
0
  5
2C81
 10
70.5138
 20
13.9570
 30
0.000000
  70
    32
  0
VERTEX
  8
0
  5
2C82
 10
70.5149
 20
13.9570
 30
0.000000
  70
    32
  0
VERTEX
  8
0
  5
2C83
 10
70.5160
 20
13.9571
 30
0.000000
  70
    32
  0
VERTEX
  8
0
  5
2C84
 10
70.5170
 20
13.9571
 30
0.000000
  70
    32
  0
VERTEX
  8
0
  5
2C85
 10
70.5180
 20
13.9572
 30
0.000000
  70
    32
  0
VERTEX
  8
0
  5
2C86
 10
70.5188
 20
13.9572
 30
0.000000
  70
    32
  0
VERTEX
  8
0
  5
2C87
 10
70.5196
 20
13.9573
 30
0.000000
  70
    32
  0
VERTEX
  8
0
  5
2C88
 10
70.5203
 20
13.9573
 30
0.000000
  70
    32
  0
VERTEX
  8
0
  5
2C89
 10
70.5210
 20
13.9573
 30
0.000000
  70
    32
  0
VERTEX
  8
0
  5
2C8A
 10
70.5215
 20
13.9574
 30
0.000000
  70
    32
  0
VERTEX
  8
0
  5
2C8B
 10
70.5220
 20
13.9574
 30
0.000000
  70
    32
  0
VERTEX
  8
0
  5
2C8C
 10
70.5224
 20
13.9574
 30
0.000000
  70
    32
  0
VERTEX
  8
0
  5
2C8D
 10
70.5228
 20
13.9574
 30
0.000000
  70
    32
  0
VERTEX
  8
0
  5
2C8E
 10
70.5230
 20
13.9575
 30
0.000000
  70
    32
  0
VERTEX
  8
0
  5
2C8F
 10
70.5232
 20
13.9575
 30
0.000000
  70
    32
  0
VERTEX
  8
0
  5
2C90
 10
70.5233
 20
13.9575
 30
0.000000
  70
    32
  0
VERTEX
  8
0
  5
2C91
 10
70.5234
 20
13.9575
 30
0.000000
  70
    32
  0
SEQEND
  8
0
  5
2C92
  0
LINE
  5
25A7
  8
0
 10
56.923368722022751
 20
29.481684469343179
 30
0.0
 11
56.923368722022751
 21
23.481606619399692
 31
0.0
  0
POLYLINE
  5
25AA
  8
0
 10
70.523368722022724
 20
39.005779465534424
 30
0.0
 66
     1
 70
     8
  0
VERTEX
  8
0
  5
2C93
 10
70.5234
 20
39.0058
 30
0.000000
  70
    32
  0
VERTEX
  8
0
  5
2C94
 10
70.5233
 20
39.0058
 30
0.000000
  70
    32
  0
VERTEX
  8
0
  5
2C95
 10
70.5232
 20
39.0058
 30
0.000000
  70
    32
  0
VERTEX
  8
0
  5
2C96
 10
70.5230
 20
39.0058
 30
0.000000
  70
    32
  0
VERTEX
  8
0
  5
2C97
 10
70.5228
 20
39.0058
 30
0.000000
  70
    32
  0
VERTEX
  8
0
  5
2C98
 10
70.5224
 20
39.0059
 30
0.000000
  70
    32
  0
VERTEX
  8
0
  5
2C99
 10
70.5220
 20
39.0059
 30
0.000000
  70
    32
  0
VERTEX
  8
0
  5
2C9A
 10
70.5215
 20
39.0059
 30
0.000000
  70
    32
  0
VERTEX
  8
0
  5
2C9B
 10
70.5210
 20
39.0060
 30
0.000000
  70
    32
  0
VERTEX
  8
0
  5
2C9C
 10
70.5203
 20
39.0060
 30
0.000000
  70
    32
  0
VERTEX
  8
0
  5
2C9D
 10
70.5196
 20
39.0060
 30
0.000000
  70
    32
  0
VERTEX
  8
0
  5
2C9E
 10
70.5188
 20
39.0061
 30
0.000000
  70
    32
  0
VERTEX
  8
0
  5
2C9F
 10
70.5180
 20
39.0061
 30
0.000000
  70
    32
  0
VERTEX
  8
0
  5
2CA0
 10
70.5170
 20
39.0061
 30
0.000000
  70
    32
  0
VERTEX
  8
0
  5
2CA1
 10
70.5160
 20
39.0062
 30
0.000000
  70
    32
  0
VERTEX
  8
0
  5
2CA2
 10
70.5149
 20
39.0062
 30
0.000000
  70
    32
  0
VERTEX
  8
0
  5
2CA3
 10
70.5138
 20
39.0063
 30
0.000000
  70
    32
  0
VERTEX
  8
0
  5
2CA4
 10
70.5125
 20
39.0063
 30
0.000000
  70
    32
  0
VERTEX
  8
0
  5
2CA5
 10
70.5112
 20
39.0064
 30
0.000000
  70
    32
  0
VERTEX
  8
0
  5
2CA6
 10
70.5098
 20
39.0065
 30
0.000000
  70
    32
  0
VERTEX
  8
0
  5
2CA7
 10
70.5084
 20
39.0065
 30
0.000000
  70
    32
  0
VERTEX
  8
0
  5
2CA8
 10
70.5069
 20
39.0066
 30
0.000000
  70
    32
  0
VERTEX
  8
0
  5
2CA9
 10
70.5053
 20
39.0067
 30
0.000000
  70
    32
  0
VERTEX
  8
0
  5
2CAA
 10
70.5036
 20
39.0067
 30
0.000000
  70
    32
  0
VERTEX
  8
0
  5
2CAB
 10
70.5018
 20
39.0068
 30
0.000000
  70
    32
  0
VERTEX
  8
0
  5
2CAC
 10
70.5000
 20
39.0069
 30
0.000000
  70
    32
  0
VERTEX
  8
0
  5
2CAD
 10
70.4981
 20
39.0069
 30
0.000000
  70
    32
  0
VERTEX
  8
0
  5
2CAE
 10
70.4962
 20
39.0070
 30
0.000000
  70
    32
  0
VERTEX
  8
0
  5
2CAF
 10
70.4941
 20
39.0071
 30
0.000000
  70
    32
  0
VERTEX
  8
0
  5
2CB0
 10
70.4920
 20
39.0072
 30
0.000000
  70
    32
  0
VERTEX
  8
0
  5
2CB1
 10
70.4899
 20
39.0073
 30
0.000000
  70
    32
  0
VERTEX
  8
0
  5
2CB2
 10
70.4876
 20
39.0074
 30
0.000000
  70
    32
  0
VERTEX
  8
0
  5
2CB3
 10
70.4853
 20
39.0075
 30
0.000000
  70
    32
  0
VERTEX
  8
0
  5
2CB4
 10
70.4829
 20
39.0075
 30
0.000000
  70
    32
  0
VERTEX
  8
0
  5
2CB5
 10
70.4805
 20
39.0076
 30
0.000000
  70
    32
  0
VERTEX
  8
0
  5
2CB6
 10
70.4780
 20
39.0077
 30
0.000000
  70
    32
  0
VERTEX
  8
0
  5
2CB7
 10
70.4754
 20
39.0078
 30
0.000000
  70
    32
  0
VERTEX
  8
0
  5
2CB8
 10
70.4727
 20
39.0079
 30
0.000000
  70
    32
  0
VERTEX
  8
0
  5
2CB9
 10
70.4700
 20
39.0081
 30
0.000000
  70
    32
  0
VERTEX
  8
0
  5
2CBA
 10
70.4672
 20
39.0082
 30
0.000000
  70
    32
  0
VERTEX
  8
0
  5
2CBB
 10
70.4643
 20
39.0083
 30
0.000000
  70
    32
  0
VERTEX
  8
0
  5
2CBC
 10
70.4614
 20
39.0084
 30
0.000000
  70
    32
  0
VERTEX
  8
0
  5
2CBD
 10
70.4584
 20
39.0085
 30
0.000000
  70
    32
  0
VERTEX
  8
0
  5
2CBE
 10
70.4554
 20
39.0086
 30
0.000000
  70
    32
  0
VERTEX
  8
0
  5
2CBF
 10
70.4522
 20
39.0087
 30
0.000000
  70
    32
  0
VERTEX
  8
0
  5
2CC0
 10
70.4490
 20
39.0089
 30
0.000000
  70
    32
  0
VERTEX
  8
0
  5
2CC1
 10
70.4458
 20
39.0090
 30
0.000000
  70
    32
  0
VERTEX
  8
0
  5
2CC2
 10
70.4425
 20
39.0091
 30
0.000000
  70
    32
  0
VERTEX
  8
0
  5
2CC3
 10
70.4391
 20
39.0092
 30
0.000000
  70
    32
  0
VERTEX
  8
0
  5
2CC4
 10
70.4357
 20
39.0094
 30
0.000000
  70
    32
  0
VERTEX
  8
0
  5
2CC5
 10
70.4322
 20
39.0095
 30
0.000000
  70
    32
  0
VERTEX
  8
0
  5
2CC6
 10
70.4286
 20
39.0096
 30
0.000000
  70
    32
  0
VERTEX
  8
0
  5
2CC7
 10
70.4250
 20
39.0098
 30
0.000000
  70
    32
  0
VERTEX
  8
0
  5
2CC8
 10
70.4213
 20
39.0099
 30
0.000000
  70
    32
  0
VERTEX
  8
0
  5
2CC9
 10
70.4175
 20
39.0100
 30
0.000000
  70
    32
  0
VERTEX
  8
0
  5
2CCA
 10
70.4137
 20
39.0102
 30
0.000000
  70
    32
  0
VERTEX
  8
0
  5
2CCB
 10
70.4099
 20
39.0103
 30
0.000000
  70
    32
  0
VERTEX
  8
0
  5
2CCC
 10
70.4060
 20
39.0105
 30
0.000000
  70
    32
  0
VERTEX
  8
0
  5
2CCD
 10
70.4020
 20
39.0106
 30
0.000000
  70
    32
  0
VERTEX
  8
0
  5
2CCE
 10
70.3979
 20
39.0108
 30
0.000000
  70
    32
  0
VERTEX
  8
0
  5
2CCF
 10
70.3938
 20
39.0109
 30
0.000000
  70
    32
  0
VERTEX
  8
0
  5
2CD0
 10
70.3897
 20
39.0111
 30
0.000000
  70
    32
  0
VERTEX
  8
0
  5
2CD1
 10
70.3855
 20
39.0112
 30
0.000000
  70
    32
  0
VERTEX
  8
0
  5
2CD2
 10
70.3812
 20
39.0114
 30
0.000000
  70
    32
  0
VERTEX
  8
0
  5
2CD3
 10
70.3769
 20
39.0115
 30
0.000000
  70
    32
  0
VERTEX
  8
0
  5
2CD4
 10
70.3726
 20
39.0117
 30
0.000000
  70
    32
  0
VERTEX
  8
0
  5
2CD5
 10
70.3681
 20
39.0119
 30
0.000000
  70
    32
  0
VERTEX
  8
0
  5
2CD6
 10
70.3637
 20
39.0120
 30
0.000000
  70
    32
  0
VERTEX
  8
0
  5
2CD7
 10
70.3591
 20
39.0122
 30
0.000000
  70
    32
  0
VERTEX
  8
0
  5
2CD8
 10
70.3546
 20
39.0124
 30
0.000000
  70
    32
  0
VERTEX
  8
0
  5
2CD9
 10
70.3500
 20
39.0125
 30
0.000000
  70
    32
  0
VERTEX
  8
0
  5
2CDA
 10
70.3453
 20
39.0127
 30
0.000000
  70
    32
  0
VERTEX
  8
0
  5
2CDB
 10
70.3406
 20
39.0129
 30
0.000000
  70
    32
  0
VERTEX
  8
0
  5
2CDC
 10
70.3358
 20
39.0130
 30
0.000000
  70
    32
  0
VERTEX
  8
0
  5
2CDD
 10
70.3310
 20
39.0132
 30
0.000000
  70
    32
  0
VERTEX
  8
0
  5
2CDE
 10
70.3261
 20
39.0134
 30
0.000000
  70
    32
  0
VERTEX
  8
0
  5
2CDF
 10
70.3212
 20
39.0136
 30
0.000000
  70
    32
  0
VERTEX
  8
0
  5
2CE0
 10
70.3163
 20
39.0137
 30
0.000000
  70
    32
  0
VERTEX
  8
0
  5
2CE1
 10
70.3113
 20
39.0139
 30
0.000000
  70
    32
  0
VERTEX
  8
0
  5
2CE2
 10
70.3062
 20
39.0141
 30
0.000000
  70
    32
  0
VERTEX
  8
0
  5
2CE3
 10
70.3012
 20
39.0143
 30
0.000000
  70
    32
  0
VERTEX
  8
0
  5
2CE4
 10
70.2960
 20
39.0145
 30
0.000000
  70
    32
  0
VERTEX
  8
0
  5
2CE5
 10
70.2909
 20
39.0147
 30
0.000000
  70
    32
  0
VERTEX
  8
0
  5
2CE6
 10
70.2857
 20
39.0148
 30
0.000000
  70
    32
  0
VERTEX
  8
0
  5
2CE7
 10
70.2804
 20
39.0150
 30
0.000000
  70
    32
  0
VERTEX
  8
0
  5
2CE8
 10
70.2751
 20
39.0152
 30
0.000000
  70
    32
  0
VERTEX
  8
0
  5
2CE9
 10
70.2698
 20
39.0154
 30
0.000000
  70
    32
  0
VERTEX
  8
0
  5
2CEA
 10
70.2645
 20
39.0156
 30
0.000000
  70
    32
  0
VERTEX
  8
0
  5
2CEB
 10
70.2591
 20
39.0158
 30
0.000000
  70
    32
  0
VERTEX
  8
0
  5
2CEC
 10
70.2536
 20
39.0160
 30
0.000000
  70
    32
  0
VERTEX
  8
0
  5
2CED
 10
70.2482
 20
39.0162
 30
0.000000
  70
    32
  0
VERTEX
  8
0
  5
2CEE
 10
70.2427
 20
39.0164
 30
0.000000
  70
    32
  0
VERTEX
  8
0
  5
2CEF
 10
70.2371
 20
39.0166
 30
0.000000
  70
    32
  0
VERTEX
  8
0
  5
2CF0
 10
70.2316
 20
39.0168
 30
0.000000
  70
    32
  0
VERTEX
  8
0
  5
2CF1
 10
70.2260
 20
39.0170
 30
0.000000
  70
    32
  0
VERTEX
  8
0
  5
2CF2
 10
70.2204
 20
39.0172
 30
0.000000
  70
    32
  0
VERTEX
  8
0
  5
2CF3
 10
70.2147
 20
39.0174
 30
0.000000
  70
    32
  0
VERTEX
  8
0
  5
2CF4
 10
70.2090
 20
39.0176
 30
0.000000
  70
    32
  0
VERTEX
  8
0
  5
2CF5
 10
70.2033
 20
39.0178
 30
0.000000
  70
    32
  0
VERTEX
  8
0
  5
2CF6
 10
70.1976
 20
39.0180
 30
0.000000
  70
    32
  0
VERTEX
  8
0
  5
2CF7
 10
70.1918
 20
39.0182
 30
0.000000
  70
    32
  0
VERTEX
  8
0
  5
2CF8
 10
70.1860
 20
39.0184
 30
0.000000
  70
    32
  0
VERTEX
  8
0
  5
2CF9
 10
70.1802
 20
39.0186
 30
0.000000
  70
    32
  0
VERTEX
  8
0
  5
2CFA
 10
70.1744
 20
39.0188
 30
0.000000
  70
    32
  0
VERTEX
  8
0
  5
2CFB
 10
70.1685
 20
39.0190
 30
0.000000
  70
    32
  0
VERTEX
  8
0
  5
2CFC
 10
70.1626
 20
39.0192
 30
0.000000
  70
    32
  0
VERTEX
  8
0
  5
2CFD
 10
70.1567
 20
39.0194
 30
0.000000
  70
    32
  0
VERTEX
  8
0
  5
2CFE
 10
70.1508
 20
39.0197
 30
0.000000
  70
    32
  0
VERTEX
  8
0
  5
2CFF
 10
70.1449
 20
39.0199
 30
0.000000
  70
    32
  0
VERTEX
  8
0
  5
2D00
 10
70.1389
 20
39.0201
 30
0.000000
  70
    32
  0
VERTEX
  8
0
  5
2D01
 10
70.1329
 20
39.0203
 30
0.000000
  70
    32
  0
VERTEX
  8
0
  5
2D02
 10
70.1269
 20
39.0205
 30
0.000000
  70
    32
  0
VERTEX
  8
0
  5
2D03
 10
70.1209
 20
39.0207
 30
0.000000
  70
    32
  0
VERTEX
  8
0
  5
2D04
 10
70.1149
 20
39.0209
 30
0.000000
  70
    32
  0
VERTEX
  8
0
  5
2D05
 10
70.1088
 20
39.0211
 30
0.000000
  70
    32
  0
VERTEX
  8
0
  5
2D06
 10
70.1028
 20
39.0213
 30
0.000000
  70
    32
  0
VERTEX
  8
0
  5
2D07
 10
70.0967
 20
39.0216
 30
0.000000
  70
    32
  0
VERTEX
  8
0
  5
2D08
 10
70.0907
 20
39.0218
 30
0.000000
  70
    32
  0
VERTEX
  8
0
  5
2D09
 10
70.0846
 20
39.0220
 30
0.000000
  70
    32
  0
VERTEX
  8
0
  5
2D0A
 10
70.0785
 20
39.0222
 30
0.000000
  70
    32
  0
VERTEX
  8
0
  5
2D0B
 10
70.0724
 20
39.0224
 30
0.000000
  70
    32
  0
VERTEX
  8
0
  5
2D0C
 10
70.0663
 20
39.0226
 30
0.000000
  70
    32
  0
VERTEX
  8
0
  5
2D0D
 10
70.0602
 20
39.0228
 30
0.000000
  70
    32
  0
VERTEX
  8
0
  5
2D0E
 10
70.0540
 20
39.0231
 30
0.000000
  70
    32
  0
VERTEX
  8
0
  5
2D0F
 10
70.0479
 20
39.0233
 30
0.000000
  70
    32
  0
VERTEX
  8
0
  5
2D10
 10
70.0418
 20
39.0235
 30
0.000000
  70
    32
  0
VERTEX
  8
0
  5
2D11
 10
70.0356
 20
39.0237
 30
0.000000
  70
    32
  0
VERTEX
  8
0
  5
2D12
 10
70.0295
 20
39.0239
 30
0.000000
  70
    32
  0
VERTEX
  8
0
  5
2D13
 10
70.0234
 20
39.0241
 30
0.000000
  70
    32
  0
SEQEND
  8
0
  5
2D14
  0
LINE
  5
25AB
  8
0
 10
70.523368722022752
 20
39.005779465534431
 30
0.0
 11
70.523368722022752
 21
32.701946174502382
 31
0.0
  0
POLYLINE
  5
25AC
  8
0
 10
70.023368722022752
 20
32.54128997662631
 30
0.0
 66
     1
 70
     8
  0
VERTEX
  8
0
  5
2D15
 10
70.0234
 20
32.5413
 30
0.000000
  70
    32
  0
VERTEX
  8
0
  5
2D16
 10
70.0295
 20
32.5432
 30
0.000000
  70
    32
  0
VERTEX
  8
0
  5
2D17
 10
70.0356
 20
32.5450
 30
0.000000
  70
    32
  0
VERTEX
  8
0
  5
2D18
 10
70.0418
 20
32.5469
 30
0.000000
  70
    32
  0
VERTEX
  8
0
  5
2D19
 10
70.0479
 20
32.5488
 30
0.000000
  70
    32
  0
VERTEX
  8
0
  5
2D1A
 10
70.0540
 20
32.5507
 30
0.000000
  70
    32
  0
VERTEX
  8
0
  5
2D1B
 10
70.0602
 20
32.5525
 30
0.000000
  70
    32
  0
VERTEX
  8
0
  5
2D1C
 10
70.0663
 20
32.5544
 30
0.000000
  70
    32
  0
VERTEX
  8
0
  5
2D1D
 10
70.0724
 20
32.5563
 30
0.000000
  70
    32
  0
VERTEX
  8
0
  5
2D1E
 10
70.0785
 20
32.5582
 30
0.000000
  70
    32
  0
VERTEX
  8
0
  5
2D1F
 10
70.0846
 20
32.5600
 30
0.000000
  70
    32
  0
VERTEX
  8
0
  5
2D20
 10
70.0907
 20
32.5619
 30
0.000000
  70
    32
  0
VERTEX
  8
0
  5
2D21
 10
70.0967
 20
32.5638
 30
0.000000
  70
    32
  0
VERTEX
  8
0
  5
2D22
 10
70.1028
 20
32.5656
 30
0.000000
  70
    32
  0
VERTEX
  8
0
  5
2D23
 10
70.1088
 20
32.5675
 30
0.000000
  70
    32
  0
VERTEX
  8
0
  5
2D24
 10
70.1149
 20
32.5694
 30
0.000000
  70
    32
  0
VERTEX
  8
0
  5
2D25
 10
70.1209
 20
32.5712
 30
0.000000
  70
    32
  0
VERTEX
  8
0
  5
2D26
 10
70.1269
 20
32.5731
 30
0.000000
  70
    32
  0
VERTEX
  8
0
  5
2D27
 10
70.1329
 20
32.5749
 30
0.000000
  70
    32
  0
VERTEX
  8
0
  5
2D28
 10
70.1389
 20
32.5768
 30
0.000000
  70
    32
  0
VERTEX
  8
0
  5
2D29
 10
70.1449
 20
32.5786
 30
0.000000
  70
    32
  0
VERTEX
  8
0
  5
2D2A
 10
70.1508
 20
32.5805
 30
0.000000
  70
    32
  0
VERTEX
  8
0
  5
2D2B
 10
70.1567
 20
32.5823
 30
0.000000
  70
    32
  0
VERTEX
  8
0
  5
2D2C
 10
70.1626
 20
32.5841
 30
0.000000
  70
    32
  0
VERTEX
  8
0
  5
2D2D
 10
70.1685
 20
32.5859
 30
0.000000
  70
    32
  0
VERTEX
  8
0
  5
2D2E
 10
70.1744
 20
32.5878
 30
0.000000
  70
    32
  0
VERTEX
  8
0
  5
2D2F
 10
70.1802
 20
32.5896
 30
0.000000
  70
    32
  0
VERTEX
  8
0
  5
2D30
 10
70.1860
 20
32.5914
 30
0.000000
  70
    32
  0
VERTEX
  8
0
  5
2D31
 10
70.1918
 20
32.5932
 30
0.000000
  70
    32
  0
VERTEX
  8
0
  5
2D32
 10
70.1976
 20
32.5950
 30
0.000000
  70
    32
  0
VERTEX
  8
0
  5
2D33
 10
70.2033
 20
32.5968
 30
0.000000
  70
    32
  0
VERTEX
  8
0
  5
2D34
 10
70.2090
 20
32.5985
 30
0.000000
  70
    32
  0
VERTEX
  8
0
  5
2D35
 10
70.2147
 20
32.6003
 30
0.000000
  70
    32
  0
VERTEX
  8
0
  5
2D36
 10
70.2204
 20
32.6021
 30
0.000000
  70
    32
  0
VERTEX
  8
0
  5
2D37
 10
70.2260
 20
32.6038
 30
0.000000
  70
    32
  0
VERTEX
  8
0
  5
2D38
 10
70.2316
 20
32.6056
 30
0.000000
  70
    32
  0
VERTEX
  8
0
  5
2D39
 10
70.2371
 20
32.6073
 30
0.000000
  70
    32
  0
VERTEX
  8
0
  5
2D3A
 10
70.2427
 20
32.6091
 30
0.000000
  70
    32
  0
VERTEX
  8
0
  5
2D3B
 10
70.2482
 20
32.6108
 30
0.000000
  70
    32
  0
VERTEX
  8
0
  5
2D3C
 10
70.2536
 20
32.6125
 30
0.000000
  70
    32
  0
VERTEX
  8
0
  5
2D3D
 10
70.2591
 20
32.6142
 30
0.000000
  70
    32
  0
VERTEX
  8
0
  5
2D3E
 10
70.2645
 20
32.6159
 30
0.000000
  70
    32
  0
VERTEX
  8
0
  5
2D3F
 10
70.2698
 20
32.6176
 30
0.000000
  70
    32
  0
VERTEX
  8
0
  5
2D40
 10
70.2751
 20
32.6192
 30
0.000000
  70
    32
  0
VERTEX
  8
0
  5
2D41
 10
70.2804
 20
32.6209
 30
0.000000
  70
    32
  0
VERTEX
  8
0
  5
2D42
 10
70.2857
 20
32.6226
 30
0.000000
  70
    32
  0
VERTEX
  8
0
  5
2D43
 10
70.2909
 20
32.6242
 30
0.000000
  70
    32
  0
VERTEX
  8
0
  5
2D44
 10
70.2960
 20
32.6258
 30
0.000000
  70
    32
  0
VERTEX
  8
0
  5
2D45
 10
70.3012
 20
32.6274
 30
0.000000
  70
    32
  0
VERTEX
  8
0
  5
2D46
 10
70.3062
 20
32.6291
 30
0.000000
  70
    32
  0
VERTEX
  8
0
  5
2D47
 10
70.3113
 20
32.6306
 30
0.000000
  70
    32
  0
VERTEX
  8
0
  5
2D48
 10
70.3163
 20
32.6322
 30
0.000000
  70
    32
  0
VERTEX
  8
0
  5
2D49
 10
70.3212
 20
32.6338
 30
0.000000
  70
    32
  0
VERTEX
  8
0
  5
2D4A
 10
70.3261
 20
32.6354
 30
0.000000
  70
    32
  0
VERTEX
  8
0
  5
2D4B
 10
70.3310
 20
32.6369
 30
0.000000
  70
    32
  0
VERTEX
  8
0
  5
2D4C
 10
70.3358
 20
32.6384
 30
0.000000
  70
    32
  0
VERTEX
  8
0
  5
2D4D
 10
70.3406
 20
32.6399
 30
0.000000
  70
    32
  0
VERTEX
  8
0
  5
2D4E
 10
70.3453
 20
32.6415
 30
0.000000
  70
    32
  0
VERTEX
  8
0
  5
2D4F
 10
70.3500
 20
32.6429
 30
0.000000
  70
    32
  0
VERTEX
  8
0
  5
2D50
 10
70.3546
 20
32.6444
 30
0.000000
  70
    32
  0
VERTEX
  8
0
  5
2D51
 10
70.3591
 20
32.6459
 30
0.000000
  70
    32
  0
VERTEX
  8
0
  5
2D52
 10
70.3637
 20
32.6473
 30
0.000000
  70
    32
  0
VERTEX
  8
0
  5
2D53
 10
70.3681
 20
32.6488
 30
0.000000
  70
    32
  0
VERTEX
  8
0
  5
2D54
 10
70.3726
 20
32.6502
 30
0.000000
  70
    32
  0
VERTEX
  8
0
  5
2D55
 10
70.3769
 20
32.6516
 30
0.000000
  70
    32
  0
VERTEX
  8
0
  5
2D56
 10
70.3812
 20
32.6530
 30
0.000000
  70
    32
  0
VERTEX
  8
0
  5
2D57
 10
70.3855
 20
32.6543
 30
0.000000
  70
    32
  0
VERTEX
  8
0
  5
2D58
 10
70.3897
 20
32.6557
 30
0.000000
  70
    32
  0
VERTEX
  8
0
  5
2D59
 10
70.3938
 20
32.6570
 30
0.000000
  70
    32
  0
VERTEX
  8
0
  5
2D5A
 10
70.3979
 20
32.6584
 30
0.000000
  70
    32
  0
VERTEX
  8
0
  5
2D5B
 10
70.4020
 20
32.6597
 30
0.000000
  70
    32
  0
VERTEX
  8
0
  5
2D5C
 10
70.4060
 20
32.6609
 30
0.000000
  70
    32
  0
VERTEX
  8
0
  5
2D5D
 10
70.4099
 20
32.6622
 30
0.000000
  70
    32
  0
VERTEX
  8
0
  5
2D5E
 10
70.4137
 20
32.6635
 30
0.000000
  70
    32
  0
VERTEX
  8
0
  5
2D5F
 10
70.4175
 20
32.6647
 30
0.000000
  70
    32
  0
VERTEX
  8
0
  5
2D60
 10
70.4213
 20
32.6659
 30
0.000000
  70
    32
  0
VERTEX
  8
0
  5
2D61
 10
70.4250
 20
32.6671
 30
0.000000
  70
    32
  0
VERTEX
  8
0
  5
2D62
 10
70.4286
 20
32.6683
 30
0.000000
  70
    32
  0
VERTEX
  8
0
  5
2D63
 10
70.4322
 20
32.6695
 30
0.000000
  70
    32
  0
VERTEX
  8
0
  5
2D64
 10
70.4357
 20
32.6706
 30
0.000000
  70
    32
  0
VERTEX
  8
0
  5
2D65
 10
70.4391
 20
32.6718
 30
0.000000
  70
    32
  0
VERTEX
  8
0
  5
2D66
 10
70.4425
 20
32.6729
 30
0.000000
  70
    32
  0
VERTEX
  8
0
  5
2D67
 10
70.4458
 20
32.6740
 30
0.000000
  70
    32
  0
VERTEX
  8
0
  5
2D68
 10
70.4490
 20
32.6751
 30
0.000000
  70
    32
  0
VERTEX
  8
0
  5
2D69
 10
70.4522
 20
32.6761
 30
0.000000
  70
    32
  0
VERTEX
  8
0
  5
2D6A
 10
70.4554
 20
32.6772
 30
0.000000
  70
    32
  0
VERTEX
  8
0
  5
2D6B
 10
70.4584
 20
32.6782
 30
0.000000
  70
    32
  0
VERTEX
  8
0
  5
2D6C
 10
70.4614
 20
32.6792
 30
0.000000
  70
    32
  0
VERTEX
  8
0
  5
2D6D
 10
70.4643
 20
32.6801
 30
0.000000
  70
    32
  0
VERTEX
  8
0
  5
2D6E
 10
70.4672
 20
32.6811
 30
0.000000
  70
    32
  0
VERTEX
  8
0
  5
2D6F
 10
70.4700
 20
32.6820
 30
0.000000
  70
    32
  0
VERTEX
  8
0
  5
2D70
 10
70.4727
 20
32.6830
 30
0.000000
  70
    32
  0
VERTEX
  8
0
  5
2D71
 10
70.4754
 20
32.6839
 30
0.000000
  70
    32
  0
VERTEX
  8
0
  5
2D72
 10
70.4780
 20
32.6847
 30
0.000000
  70
    32
  0
VERTEX
  8
0
  5
2D73
 10
70.4805
 20
32.6856
 30
0.000000
  70
    32
  0
VERTEX
  8
0
  5
2D74
 10
70.4829
 20
32.6864
 30
0.000000
  70
    32
  0
VERTEX
  8
0
  5
2D75
 10
70.4853
 20
32.6873
 30
0.000000
  70
    32
  0
VERTEX
  8
0
  5
2D76
 10
70.4876
 20
32.6881
 30
0.000000
  70
    32
  0
VERTEX
  8
0
  5
2D77
 10
70.4899
 20
32.6888
 30
0.000000
  70
    32
  0
VERTEX
  8
0
  5
2D78
 10
70.4920
 20
32.6896
 30
0.000000
  70
    32
  0
VERTEX
  8
0
  5
2D79
 10
70.4941
 20
32.6903
 30
0.000000
  70
    32
  0
VERTEX
  8
0
  5
2D7A
 10
70.4962
 20
32.6910
 30
0.000000
  70
    32
  0
VERTEX
  8
0
  5
2D7B
 10
70.4981
 20
32.6917
 30
0.000000
  70
    32
  0
VERTEX
  8
0
  5
2D7C
 10
70.5000
 20
32.6924
 30
0.000000
  70
    32
  0
VERTEX
  8
0
  5
2D7D
 10
70.5018
 20
32.6931
 30
0.000000
  70
    32
  0
VERTEX
  8
0
  5
2D7E
 10
70.5036
 20
32.6937
 30
0.000000
  70
    32
  0
VERTEX
  8
0
  5
2D7F
 10
70.5053
 20
32.6943
 30
0.000000
  70
    32
  0
VERTEX
  8
0
  5
2D80
 10
70.5069
 20
32.6949
 30
0.000000
  70
    32
  0
VERTEX
  8
0
  5
2D81
 10
70.5084
 20
32.6954
 30
0.000000
  70
    32
  0
VERTEX
  8
0
  5
2D82
 10
70.5098
 20
32.6960
 30
0.000000
  70
    32
  0
VERTEX
  8
0
  5
2D83
 10
70.5112
 20
32.6965
 30
0.000000
  70
    32
  0
VERTEX
  8
0
  5
2D84
 10
70.5125
 20
32.6970
 30
0.000000
  70
    32
  0
VERTEX
  8
0
  5
2D85
 10
70.5138
 20
32.6975
 30
0.000000
  70
    32
  0
VERTEX
  8
0
  5
2D86
 10
70.5149
 20
32.6979
 30
0.000000
  70
    32
  0
VERTEX
  8
0
  5
2D87
 10
70.5160
 20
32.6983
 30
0.000000
  70
    32
  0
VERTEX
  8
0
  5
2D88
 10
70.5170
 20
32.6987
 30
0.000000
  70
    32
  0
VERTEX
  8
0
  5
2D89
 10
70.5180
 20
32.6991
 30
0.000000
  70
    32
  0
VERTEX
  8
0
  5
2D8A
 10
70.5188
 20
32.6995
 30
0.000000
  70
    32
  0
VERTEX
  8
0
  5
2D8B
 10
70.5196
 20
32.6998
 30
0.000000
  70
    32
  0
VERTEX
  8
0
  5
2D8C
 10
70.5203
 20
32.7001
 30
0.000000
  70
    32
  0
VERTEX
  8
0
  5
2D8D
 10
70.5210
 20
32.7004
 30
0.000000
  70
    32
  0
VERTEX
  8
0
  5
2D8E
 10
70.5215
 20
32.7007
 30
0.000000
  70
    32
  0
VERTEX
  8
0
  5
2D8F
 10
70.5220
 20
32.7009
 30
0.000000
  70
    32
  0
VERTEX
  8
0
  5
2D90
 10
70.5224
 20
32.7012
 30
0.000000
  70
    32
  0
VERTEX
  8
0
  5
2D91
 10
70.5228
 20
32.7014
 30
0.000000
  70
    32
  0
VERTEX
  8
0
  5
2D92
 10
70.5230
 20
32.7015
 30
0.000000
  70
    32
  0
VERTEX
  8
0
  5
2D93
 10
70.5232
 20
32.7017
 30
0.000000
  70
    32
  0
VERTEX
  8
0
  5
2D94
 10
70.5233
 20
32.7018
 30
0.000000
  70
    32
  0
VERTEX
  8
0
  5
2D95
 10
70.5234
 20
32.7019
 30
0.000000
  70
    32
  0
SEQEND
  8
0
  5
2D96
  0
LINE
  5
25AD
  8
0
 10
73.923368722022744
 20
38.84670238253176
 30
0.0
 11
70.523368722022752
 21
38.965595938289709
 31
0.0
  0
LINE
  5
25AE
  8
0
 10
73.923368722022744
 20
38.84670238253176
 30
0.0
 11
73.923368722022744
 21
14.116588706210759
 31
0.0
  0
LINE
  5
25AF
  8
0
 10
70.523368722022752
 20
13.99769515045276
 30
0.0
 11
73.923368722022744
 21
14.116588706210759
 31
0.0
  0
LINE
  5
25B0
  8
0
 10
68.923368722022744
 20
20.75784396911974
 30
0.0
 11
68.923368722022744
 21
32.20544711962259
 31
0.0
  0
ARC
  5
25CA
  8
2
 10
75.42336872202273
 20
20.98164554437113
 30
0.0
 40
0.5
 50
0.0
 51
90.0
  0
ARC
  5
25CB
  8
2
 10
75.42336872202273
 20
31.981645544371158
 30
0.0
 40
0.5
 50
270.0
 51
0.0
  0
LINE
  5
25D3
  8
2
 10
73.92336872202273
 20
21.48164554437113
 30
0.0
 11
75.42336872202273
 21
21.48164554437113
 31
0.0
  0
LINE
  5
25D4
  8
2
 10
75.42336872202273
 20
31.481645544371158
 30
0.0
 11
73.92336872202273
 21
31.481645544371158
 31
0.0
  0
LINE
  5
25D7
  8
2
 10
68.92336872202273
 20
23.481645544371158
 30
0.0
 11
73.92336872202273
 21
23.481645544371158
 31
0.0
  0
LINE
  5
25D8
  8
2
 10
73.92336872202273
 20
29.481645544371158
 30
0.0
 11
68.92336872202273
 21
29.481645544371158
 31
0.0
  0
ARC
  5
25DA
  8
0
 10
75.423368722022758
 20
97.981645544371133
 30
0.0
 40
0.5
 50
270.0
 51
0.0
  0
ARC
  5
25DB
  8
0
 10
75.423368722022758
 20
108.9816455443711
 30
0.0
 40
0.5
 50
0.0
 51
90.0
  0
LINE
  5
25DC
  8
0
 10
75.923368722022758
 20
97.981645544371133
 30
0.0
 11
75.923368722022758
 21
108.9816455443711
 31
0.0
  0
LINE
  5
25DD
  8
0
 10
73.923368722022744
 20
97.481645544371133
 30
0.0
 11
75.423368722022758
 21
97.481645544371133
 31
0.0
  0
LINE
  5
25DE
  8
0
 10
75.423368722022758
 20
109.4816455443711
 30
0.0
 11
73.923368722022744
 21
109.4816455443711
 31
0.0
  0
LINE
  5
25DF
  8
0
 10
73.923368722022786
 20
91.116588706210536
 30
0.0
 11
73.923368722022744
 21
115.8467023825316
 31
0.0
  0
LINE
  5
25E1
  8
0
 10
68.92336872202273
 20
90.941745241860616
 30
0.0
 11
68.92336872202273
 21
116.02154584688149
 31
0.0
  0
LINE
  5
25E3
  8
0
 10
68.923368722022744
 20
116.02154584688149
 30
0.0
 11
70.523368722022752
 21
115.9655959382896
 31
0.0
  0
LINE
  5
25E4
  8
0
 10
70.523368722022752
 20
115.9655959382896
 30
0.0
 11
73.923368722022744
 21
115.8467023825315
 31
0.0
  0
LINE
  5
25E7
  8
0
 10
73.923368722022744
 20
91.116588706210536
 30
0.0
 11
70.523368722022752
 21
90.997695150452586
 31
0.0
  0
LINE
  5
25E8
  8
0
 10
70.523368722022752
 20
90.997695150452586
 30
0.0
 11
68.923368722022744
 21
90.941745241860573
 31
0.0
  0
LINE
  5
25ED
  8
0
 10
68.923368722022744
 20
109.2475112733629
 30
0.0
 11
63.621804445842109
 21
107.6244360462198
 31
0.0
  0
ARC
  5
25EE
  8
0
 10
63.923368722022019
 20
91.731036371389493
 30
0.0
 40
0.9999999999992756
 50
179.99999999996251
 51
267.9999999999572
  0
LINE
  5
25EF
  8
0
 10
62.92336872202273
 20
91.731036371390118
 30
0.0
 11
62.92336872202273
 21
97.167300380591143
 31
0.0
  0
ARC
  5
25F0
  8
0
 10
61.923368722021991
 20
97.167300380590518
 30
0.0
 40
1.0000000000007669
 50
0.0000000000358258
 51
72.999999999969333
  0
LINE
  5
25F1
  8
0
 10
62.215740426745441
 20
98.123605136554147
 30
0.0
 11
57.630997017300018
 21
99.525301863436155
 31
0.0
  0
ARC
  5
25F2
  8
0
 10
57.923368722023497
 20
100.4816066193997
 30
0.0
 40
1.0000000000007589
 50
180.00000000003581
 51
252.99999999996939
  0
LINE
  5
25F3
  8
0
 10
56.923368722022751
 20
100.4816066193991
 30
0.0
 11
56.923368722022751
 21
106.4816844693426
 31
0.0
  0
ARC
  5
25F4
  8
0
 10
57.923368722022502
 20
106.4816844693428
 30
0.0
 40
0.9999999999997659
 50
106.9999999999899
 51
180.0000000000081
  0
LINE
  5
25F5
  8
0
 10
57.630997017300018
 20
107.4379892253056
 30
0.0
 11
62.215740426745441
 21
108.8396859521885
 31
0.0
  0
ARC
  5
25F6
  8
0
 10
61.92336872202273
 20
109.79599070815161
 30
0.0
 40
1.0000000000000291
 50
286.99999999999869
 51
0.0
  0
LINE
  5
25F7
  8
0
 10
62.92336872202273
 20
109.79599070815161
 30
0.0
 11
62.92336872202273
 21
115.23225471735211
 31
0.0
  0
ARC
  5
25F8
  8
0
 10
63.92336872202273
 20
115.23225471735211
 30
0.0
 40
1.0
 50
92.000000000000412
 51
180.00000000000159
  0
LINE
  5
25F9
  8
0
 10
63.948627133459951
 20
116.2316455443711
 30
0.0
 11
63.888469225320222
 21
116.2316455443711
 31
0.0
  0
ARC
  5
25FB
  8
0
 10
63.914973154351593
 20
106.6685559459259
 30
0.0
 40
0.9998273139832448
 50
107.0507920790909
 51
180.02433518066491
  0
LINE
  5
25FC
  8
0
 10
62.915145930550182
 20
106.6681312902568
 30
0.0
 11
62.915145930550182
 21
100.2951597984851
 31
0.0
  0
ARC
  5
25FD
  8
0
 10
63.914973154352282
 20
100.29473514281651
 30
0.0
 40
0.9998273139838959
 50
179.9756648193611
 51
252.94920792088021
  0
LINE
  5
25FE
  8
0
 10
63.621804445842109
 20
99.338855042522155
 30
0.0
 11
68.923368722022744
 21
97.715779815379392
 31
0.0
  0
LINE
  5
25FF
  8
0
 10
70.523368722022752
 20
90.957511623207935
 30
0.0
 11
70.523368722022752
 21
90.997695150452586
 31
0.0
  0
LINE
  5
2601
  8
0
 10
63.948627133459951
 20
90.731645544371133
 30
0.0
 11
63.888469225318801
 21
90.731645544371133
 31
0.0
  0
LINE
  5
2602
  8
0
 10
70.523368722022752
 20
115.9655959382896
 30
0.0
 11
70.523368722022752
 21
116.0057794655341
 31
0.0
  0
LINE
  5
2603
  8
0
 10
64.072738093461354
 20
116.2316455443711
 30
0.0
 11
70.023368722022752
 21
116.0241297273616
 31
0.0
  0
POLYLINE
  5
2604
  8
0
 10
70.523368722022724
 20
116.00577946553416
 30
0.0
 66
     1
 70
     8
  0
VERTEX
  8
0
  5
2D97
 10
70.5234
 20
116.006
 30
0.000000
  70
    32
  0
VERTEX
  8
0
  5
2D98
 10
70.5233
 20
116.006
 30
0.000000
  70
    32
  0
VERTEX
  8
0
  5
2D99
 10
70.5232
 20
116.006
 30
0.000000
  70
    32
  0
VERTEX
  8
0
  5
2D9A
 10
70.5230
 20
116.006
 30
0.000000
  70
    32
  0
VERTEX
  8
0
  5
2D9B
 10
70.5228
 20
116.006
 30
0.000000
  70
    32
  0
VERTEX
  8
0
  5
2D9C
 10
70.5224
 20
116.006
 30
0.000000
  70
    32
  0
VERTEX
  8
0
  5
2D9D
 10
70.5220
 20
116.006
 30
0.000000
  70
    32
  0
VERTEX
  8
0
  5
2D9E
 10
70.5215
 20
116.006
 30
0.000000
  70
    32
  0
VERTEX
  8
0
  5
2D9F
 10
70.5210
 20
116.006
 30
0.000000
  70
    32
  0
VERTEX
  8
0
  5
2DA0
 10
70.5203
 20
116.006
 30
0.000000
  70
    32
  0
VERTEX
  8
0
  5
2DA1
 10
70.5196
 20
116.006
 30
0.000000
  70
    32
  0
VERTEX
  8
0
  5
2DA2
 10
70.5188
 20
116.006
 30
0.000000
  70
    32
  0
VERTEX
  8
0
  5
2DA3
 10
70.5180
 20
116.006
 30
0.000000
  70
    32
  0
VERTEX
  8
0
  5
2DA4
 10
70.5170
 20
116.006
 30
0.000000
  70
    32
  0
VERTEX
  8
0
  5
2DA5
 10
70.5160
 20
116.006
 30
0.000000
  70
    32
  0
VERTEX
  8
0
  5
2DA6
 10
70.5149
 20
116.006
 30
0.000000
  70
    32
  0
VERTEX
  8
0
  5
2DA7
 10
70.5138
 20
116.006
 30
0.000000
  70
    32
  0
VERTEX
  8
0
  5
2DA8
 10
70.5125
 20
116.006
 30
0.000000
  70
    32
  0
VERTEX
  8
0
  5
2DA9
 10
70.5112
 20
116.006
 30
0.000000
  70
    32
  0
VERTEX
  8
0
  5
2DAA
 10
70.5098
 20
116.006
 30
0.000000
  70
    32
  0
VERTEX
  8
0
  5
2DAB
 10
70.5084
 20
116.007
 30
0.000000
  70
    32
  0
VERTEX
  8
0
  5
2DAC
 10
70.5069
 20
116.007
 30
0.000000
  70
    32
  0
VERTEX
  8
0
  5
2DAD
 10
70.5053
 20
116.007
 30
0.000000
  70
    32
  0
VERTEX
  8
0
  5
2DAE
 10
70.5036
 20
116.007
 30
0.000000
  70
    32
  0
VERTEX
  8
0
  5
2DAF
 10
70.5018
 20
116.007
 30
0.000000
  70
    32
  0
VERTEX
  8
0
  5
2DB0
 10
70.5000
 20
116.007
 30
0.000000
  70
    32
  0
VERTEX
  8
0
  5
2DB1
 10
70.4981
 20
116.007
 30
0.000000
  70
    32
  0
VERTEX
  8
0
  5
2DB2
 10
70.4962
 20
116.007
 30
0.000000
  70
    32
  0
VERTEX
  8
0
  5
2DB3
 10
70.4941
 20
116.007
 30
0.000000
  70
    32
  0
VERTEX
  8
0
  5
2DB4
 10
70.4920
 20
116.007
 30
0.000000
  70
    32
  0
VERTEX
  8
0
  5
2DB5
 10
70.4899
 20
116.007
 30
0.000000
  70
    32
  0
VERTEX
  8
0
  5
2DB6
 10
70.4876
 20
116.007
 30
0.000000
  70
    32
  0
VERTEX
  8
0
  5
2DB7
 10
70.4853
 20
116.007
 30
0.000000
  70
    32
  0
VERTEX
  8
0
  5
2DB8
 10
70.4829
 20
116.008
 30
0.000000
  70
    32
  0
VERTEX
  8
0
  5
2DB9
 10
70.4805
 20
116.008
 30
0.000000
  70
    32
  0
VERTEX
  8
0
  5
2DBA
 10
70.4780
 20
116.008
 30
0.000000
  70
    32
  0
VERTEX
  8
0
  5
2DBB
 10
70.4754
 20
116.008
 30
0.000000
  70
    32
  0
VERTEX
  8
0
  5
2DBC
 10
70.4727
 20
116.008
 30
0.000000
  70
    32
  0
VERTEX
  8
0
  5
2DBD
 10
70.4700
 20
116.008
 30
0.000000
  70
    32
  0
VERTEX
  8
0
  5
2DBE
 10
70.4672
 20
116.008
 30
0.000000
  70
    32
  0
VERTEX
  8
0
  5
2DBF
 10
70.4643
 20
116.008
 30
0.000000
  70
    32
  0
VERTEX
  8
0
  5
2DC0
 10
70.4614
 20
116.008
 30
0.000000
  70
    32
  0
VERTEX
  8
0
  5
2DC1
 10
70.4584
 20
116.008
 30
0.000000
  70
    32
  0
VERTEX
  8
0
  5
2DC2
 10
70.4554
 20
116.009
 30
0.000000
  70
    32
  0
VERTEX
  8
0
  5
2DC3
 10
70.4522
 20
116.009
 30
0.000000
  70
    32
  0
VERTEX
  8
0
  5
2DC4
 10
70.4490
 20
116.009
 30
0.000000
  70
    32
  0
VERTEX
  8
0
  5
2DC5
 10
70.4458
 20
116.009
 30
0.000000
  70
    32
  0
VERTEX
  8
0
  5
2DC6
 10
70.4425
 20
116.009
 30
0.000000
  70
    32
  0
VERTEX
  8
0
  5
2DC7
 10
70.4391
 20
116.009
 30
0.000000
  70
    32
  0
VERTEX
  8
0
  5
2DC8
 10
70.4357
 20
116.009
 30
0.000000
  70
    32
  0
VERTEX
  8
0
  5
2DC9
 10
70.4322
 20
116.009
 30
0.000000
  70
    32
  0
VERTEX
  8
0
  5
2DCA
 10
70.4286
 20
116.010
 30
0.000000
  70
    32
  0
VERTEX
  8
0
  5
2DCB
 10
70.4250
 20
116.010
 30
0.000000
  70
    32
  0
VERTEX
  8
0
  5
2DCC
 10
70.4213
 20
116.010
 30
0.000000
  70
    32
  0
VERTEX
  8
0
  5
2DCD
 10
70.4175
 20
116.010
 30
0.000000
  70
    32
  0
VERTEX
  8
0
  5
2DCE
 10
70.4137
 20
116.010
 30
0.000000
  70
    32
  0
VERTEX
  8
0
  5
2DCF
 10
70.4099
 20
116.010
 30
0.000000
  70
    32
  0
VERTEX
  8
0
  5
2DD0
 10
70.4060
 20
116.010
 30
0.000000
  70
    32
  0
VERTEX
  8
0
  5
2DD1
 10
70.4020
 20
116.011
 30
0.000000
  70
    32
  0
VERTEX
  8
0
  5
2DD2
 10
70.3979
 20
116.011
 30
0.000000
  70
    32
  0
VERTEX
  8
0
  5
2DD3
 10
70.3938
 20
116.011
 30
0.000000
  70
    32
  0
VERTEX
  8
0
  5
2DD4
 10
70.3897
 20
116.011
 30
0.000000
  70
    32
  0
VERTEX
  8
0
  5
2DD5
 10
70.3855
 20
116.011
 30
0.000000
  70
    32
  0
VERTEX
  8
0
  5
2DD6
 10
70.3812
 20
116.011
 30
0.000000
  70
    32
  0
VERTEX
  8
0
  5
2DD7
 10
70.3769
 20
116.012
 30
0.000000
  70
    32
  0
VERTEX
  8
0
  5
2DD8
 10
70.3726
 20
116.012
 30
0.000000
  70
    32
  0
VERTEX
  8
0
  5
2DD9
 10
70.3681
 20
116.012
 30
0.000000
  70
    32
  0
VERTEX
  8
0
  5
2DDA
 10
70.3637
 20
116.012
 30
0.000000
  70
    32
  0
VERTEX
  8
0
  5
2DDB
 10
70.3591
 20
116.012
 30
0.000000
  70
    32
  0
VERTEX
  8
0
  5
2DDC
 10
70.3546
 20
116.012
 30
0.000000
  70
    32
  0
VERTEX
  8
0
  5
2DDD
 10
70.3500
 20
116.013
 30
0.000000
  70
    32
  0
VERTEX
  8
0
  5
2DDE
 10
70.3453
 20
116.013
 30
0.000000
  70
    32
  0
VERTEX
  8
0
  5
2DDF
 10
70.3406
 20
116.013
 30
0.000000
  70
    32
  0
VERTEX
  8
0
  5
2DE0
 10
70.3358
 20
116.013
 30
0.000000
  70
    32
  0
VERTEX
  8
0
  5
2DE1
 10
70.3310
 20
116.013
 30
0.000000
  70
    32
  0
VERTEX
  8
0
  5
2DE2
 10
70.3261
 20
116.013
 30
0.000000
  70
    32
  0
VERTEX
  8
0
  5
2DE3
 10
70.3212
 20
116.014
 30
0.000000
  70
    32
  0
VERTEX
  8
0
  5
2DE4
 10
70.3163
 20
116.014
 30
0.000000
  70
    32
  0
VERTEX
  8
0
  5
2DE5
 10
70.3113
 20
116.014
 30
0.000000
  70
    32
  0
VERTEX
  8
0
  5
2DE6
 10
70.3062
 20
116.014
 30
0.000000
  70
    32
  0
VERTEX
  8
0
  5
2DE7
 10
70.3012
 20
116.014
 30
0.000000
  70
    32
  0
VERTEX
  8
0
  5
2DE8
 10
70.2960
 20
116.014
 30
0.000000
  70
    32
  0
VERTEX
  8
0
  5
2DE9
 10
70.2909
 20
116.015
 30
0.000000
  70
    32
  0
VERTEX
  8
0
  5
2DEA
 10
70.2857
 20
116.015
 30
0.000000
  70
    32
  0
VERTEX
  8
0
  5
2DEB
 10
70.2804
 20
116.015
 30
0.000000
  70
    32
  0
VERTEX
  8
0
  5
2DEC
 10
70.2751
 20
116.015
 30
0.000000
  70
    32
  0
VERTEX
  8
0
  5
2DED
 10
70.2698
 20
116.015
 30
0.000000
  70
    32
  0
VERTEX
  8
0
  5
2DEE
 10
70.2645
 20
116.016
 30
0.000000
  70
    32
  0
VERTEX
  8
0
  5
2DEF
 10
70.2591
 20
116.016
 30
0.000000
  70
    32
  0
VERTEX
  8
0
  5
2DF0
 10
70.2536
 20
116.016
 30
0.000000
  70
    32
  0
VERTEX
  8
0
  5
2DF1
 10
70.2482
 20
116.016
 30
0.000000
  70
    32
  0
VERTEX
  8
0
  5
2DF2
 10
70.2427
 20
116.016
 30
0.000000
  70
    32
  0
VERTEX
  8
0
  5
2DF3
 10
70.2371
 20
116.017
 30
0.000000
  70
    32
  0
VERTEX
  8
0
  5
2DF4
 10
70.2316
 20
116.017
 30
0.000000
  70
    32
  0
VERTEX
  8
0
  5
2DF5
 10
70.2260
 20
116.017
 30
0.000000
  70
    32
  0
VERTEX
  8
0
  5
2DF6
 10
70.2204
 20
116.017
 30
0.000000
  70
    32
  0
VERTEX
  8
0
  5
2DF7
 10
70.2147
 20
116.017
 30
0.000000
  70
    32
  0
VERTEX
  8
0
  5
2DF8
 10
70.2090
 20
116.018
 30
0.000000
  70
    32
  0
VERTEX
  8
0
  5
2DF9
 10
70.2033
 20
116.018
 30
0.000000
  70
    32
  0
VERTEX
  8
0
  5
2DFA
 10
70.1976
 20
116.018
 30
0.000000
  70
    32
  0
VERTEX
  8
0
  5
2DFB
 10
70.1918
 20
116.018
 30
0.000000
  70
    32
  0
VERTEX
  8
0
  5
2DFC
 10
70.1860
 20
116.018
 30
0.000000
  70
    32
  0
VERTEX
  8
0
  5
2DFD
 10
70.1802
 20
116.019
 30
0.000000
  70
    32
  0
VERTEX
  8
0
  5
2DFE
 10
70.1744
 20
116.019
 30
0.000000
  70
    32
  0
VERTEX
  8
0
  5
2DFF
 10
70.1685
 20
116.019
 30
0.000000
  70
    32
  0
VERTEX
  8
0
  5
2E00
 10
70.1626
 20
116.019
 30
0.000000
  70
    32
  0
VERTEX
  8
0
  5
2E01
 10
70.1567
 20
116.019
 30
0.000000
  70
    32
  0
VERTEX
  8
0
  5
2E02
 10
70.1508
 20
116.020
 30
0.000000
  70
    32
  0
VERTEX
  8
0
  5
2E03
 10
70.1449
 20
116.020
 30
0.000000
  70
    32
  0
VERTEX
  8
0
  5
2E04
 10
70.1389
 20
116.020
 30
0.000000
  70
    32
  0
VERTEX
  8
0
  5
2E05
 10
70.1329
 20
116.020
 30
0.000000
  70
    32
  0
VERTEX
  8
0
  5
2E06
 10
70.1269
 20
116.020
 30
0.000000
  70
    32
  0
VERTEX
  8
0
  5
2E07
 10
70.1209
 20
116.021
 30
0.000000
  70
    32
  0
VERTEX
  8
0
  5
2E08
 10
70.1149
 20
116.021
 30
0.000000
  70
    32
  0
VERTEX
  8
0
  5
2E09
 10
70.1088
 20
116.021
 30
0.000000
  70
    32
  0
VERTEX
  8
0
  5
2E0A
 10
70.1028
 20
116.021
 30
0.000000
  70
    32
  0
VERTEX
  8
0
  5
2E0B
 10
70.0967
 20
116.022
 30
0.000000
  70
    32
  0
VERTEX
  8
0
  5
2E0C
 10
70.0907
 20
116.022
 30
0.000000
  70
    32
  0
VERTEX
  8
0
  5
2E0D
 10
70.0846
 20
116.022
 30
0.000000
  70
    32
  0
VERTEX
  8
0
  5
2E0E
 10
70.0785
 20
116.022
 30
0.000000
  70
    32
  0
VERTEX
  8
0
  5
2E0F
 10
70.0724
 20
116.022
 30
0.000000
  70
    32
  0
VERTEX
  8
0
  5
2E10
 10
70.0663
 20
116.023
 30
0.000000
  70
    32
  0
VERTEX
  8
0
  5
2E11
 10
70.0602
 20
116.023
 30
0.000000
  70
    32
  0
VERTEX
  8
0
  5
2E12
 10
70.0540
 20
116.023
 30
0.000000
  70
    32
  0
VERTEX
  8
0
  5
2E13
 10
70.0479
 20
116.023
 30
0.000000
  70
    32
  0
VERTEX
  8
0
  5
2E14
 10
70.0418
 20
116.023
 30
0.000000
  70
    32
  0
VERTEX
  8
0
  5
2E15
 10
70.0356
 20
116.024
 30
0.000000
  70
    32
  0
VERTEX
  8
0
  5
2E16
 10
70.0295
 20
116.024
 30
0.000000
  70
    32
  0
VERTEX
  8
0
  5
2E17
 10
70.0234
 20
116.024
 30
0.000000
  70
    32
  0
SEQEND
  8
0
  5
2E18
  0
LINE
  5
2605
  8
0
 10
64.072738093461354
 20
116.2316455443711
 30
0.0
 11
63.948627133459951
 21
116.2316455443711
 31
0.0
  0
LINE
  5
2609
  8
0
 10
70.023368722022752
 20
90.939161361380513
 30
0.0
 11
64.072738093461354
 21
90.731645544371133
 31
0.0
  0
LINE
  5
260A
  8
0
 10
64.072738093461354
 20
90.731645544371133
 30
0.0
 11
63.948627133459951
 21
90.731645544371133
 31
0.0
  0
POLYLINE
  5
260B
  8
0
 10
70.023368722022752
 20
90.939161361380485
 30
0.0
 66
     1
 70
     8
  0
VERTEX
  8
0
  5
2E19
 10
70.0234
 20
90.9392
 30
0.000000
  70
    32
  0
VERTEX
  8
0
  5
2E1A
 10
70.0295
 20
90.9394
 30
0.000000
  70
    32
  0
VERTEX
  8
0
  5
2E1B
 10
70.0356
 20
90.9396
 30
0.000000
  70
    32
  0
VERTEX
  8
0
  5
2E1C
 10
70.0418
 20
90.9398
 30
0.000000
  70
    32
  0
VERTEX
  8
0
  5
2E1D
 10
70.0479
 20
90.9400
 30
0.000000
  70
    32
  0
VERTEX
  8
0
  5
2E1E
 10
70.0540
 20
90.9402
 30
0.000000
  70
    32
  0
VERTEX
  8
0
  5
2E1F
 10
70.0602
 20
90.9404
 30
0.000000
  70
    32
  0
VERTEX
  8
0
  5
2E20
 10
70.0663
 20
90.9407
 30
0.000000
  70
    32
  0
VERTEX
  8
0
  5
2E21
 10
70.0724
 20
90.9409
 30
0.000000
  70
    32
  0
VERTEX
  8
0
  5
2E22
 10
70.0785
 20
90.9411
 30
0.000000
  70
    32
  0
VERTEX
  8
0
  5
2E23
 10
70.0846
 20
90.9413
 30
0.000000
  70
    32
  0
VERTEX
  8
0
  5
2E24
 10
70.0907
 20
90.9415
 30
0.000000
  70
    32
  0
VERTEX
  8
0
  5
2E25
 10
70.0967
 20
90.9417
 30
0.000000
  70
    32
  0
VERTEX
  8
0
  5
2E26
 10
70.1028
 20
90.9419
 30
0.000000
  70
    32
  0
VERTEX
  8
0
  5
2E27
 10
70.1088
 20
90.9422
 30
0.000000
  70
    32
  0
VERTEX
  8
0
  5
2E28
 10
70.1149
 20
90.9424
 30
0.000000
  70
    32
  0
VERTEX
  8
0
  5
2E29
 10
70.1209
 20
90.9426
 30
0.000000
  70
    32
  0
VERTEX
  8
0
  5
2E2A
 10
70.1269
 20
90.9428
 30
0.000000
  70
    32
  0
VERTEX
  8
0
  5
2E2B
 10
70.1329
 20
90.9430
 30
0.000000
  70
    32
  0
VERTEX
  8
0
  5
2E2C
 10
70.1389
 20
90.9432
 30
0.000000
  70
    32
  0
VERTEX
  8
0
  5
2E2D
 10
70.1449
 20
90.9434
 30
0.000000
  70
    32
  0
VERTEX
  8
0
  5
2E2E
 10
70.1508
 20
90.9436
 30
0.000000
  70
    32
  0
VERTEX
  8
0
  5
2E2F
 10
70.1567
 20
90.9438
 30
0.000000
  70
    32
  0
VERTEX
  8
0
  5
2E30
 10
70.1626
 20
90.9441
 30
0.000000
  70
    32
  0
VERTEX
  8
0
  5
2E31
 10
70.1685
 20
90.9443
 30
0.000000
  70
    32
  0
VERTEX
  8
0
  5
2E32
 10
70.1744
 20
90.9445
 30
0.000000
  70
    32
  0
VERTEX
  8
0
  5
2E33
 10
70.1802
 20
90.9447
 30
0.000000
  70
    32
  0
VERTEX
  8
0
  5
2E34
 10
70.1860
 20
90.9449
 30
0.000000
  70
    32
  0
VERTEX
  8
0
  5
2E35
 10
70.1918
 20
90.9451
 30
0.000000
  70
    32
  0
VERTEX
  8
0
  5
2E36
 10
70.1976
 20
90.9453
 30
0.000000
  70
    32
  0
VERTEX
  8
0
  5
2E37
 10
70.2033
 20
90.9455
 30
0.000000
  70
    32
  0
VERTEX
  8
0
  5
2E38
 10
70.2090
 20
90.9457
 30
0.000000
  70
    32
  0
VERTEX
  8
0
  5
2E39
 10
70.2147
 20
90.9459
 30
0.000000
  70
    32
  0
VERTEX
  8
0
  5
2E3A
 10
70.2204
 20
90.9461
 30
0.000000
  70
    32
  0
VERTEX
  8
0
  5
2E3B
 10
70.2260
 20
90.9463
 30
0.000000
  70
    32
  0
VERTEX
  8
0
  5
2E3C
 10
70.2316
 20
90.9465
 30
0.000000
  70
    32
  0
VERTEX
  8
0
  5
2E3D
 10
70.2371
 20
90.9467
 30
0.000000
  70
    32
  0
VERTEX
  8
0
  5
2E3E
 10
70.2427
 20
90.9469
 30
0.000000
  70
    32
  0
VERTEX
  8
0
  5
2E3F
 10
70.2482
 20
90.9471
 30
0.000000
  70
    32
  0
VERTEX
  8
0
  5
2E40
 10
70.2536
 20
90.9473
 30
0.000000
  70
    32
  0
VERTEX
  8
0
  5
2E41
 10
70.2591
 20
90.9475
 30
0.000000
  70
    32
  0
VERTEX
  8
0
  5
2E42
 10
70.2645
 20
90.9477
 30
0.000000
  70
    32
  0
VERTEX
  8
0
  5
2E43
 10
70.2698
 20
90.9479
 30
0.000000
  70
    32
  0
VERTEX
  8
0
  5
2E44
 10
70.2751
 20
90.9481
 30
0.000000
  70
    32
  0
VERTEX
  8
0
  5
2E45
 10
70.2804
 20
90.9483
 30
0.000000
  70
    32
  0
VERTEX
  8
0
  5
2E46
 10
70.2857
 20
90.9484
 30
0.000000
  70
    32
  0
VERTEX
  8
0
  5
2E47
 10
70.2909
 20
90.9486
 30
0.000000
  70
    32
  0
VERTEX
  8
0
  5
2E48
 10
70.2960
 20
90.9488
 30
0.000000
  70
    32
  0
VERTEX
  8
0
  5
2E49
 10
70.3012
 20
90.9490
 30
0.000000
  70
    32
  0
VERTEX
  8
0
  5
2E4A
 10
70.3062
 20
90.9492
 30
0.000000
  70
    32
  0
VERTEX
  8
0
  5
2E4B
 10
70.3113
 20
90.9494
 30
0.000000
  70
    32
  0
VERTEX
  8
0
  5
2E4C
 10
70.3163
 20
90.9495
 30
0.000000
  70
    32
  0
VERTEX
  8
0
  5
2E4D
 10
70.3212
 20
90.9497
 30
0.000000
  70
    32
  0
VERTEX
  8
0
  5
2E4E
 10
70.3261
 20
90.9499
 30
0.000000
  70
    32
  0
VERTEX
  8
0
  5
2E4F
 10
70.3310
 20
90.9501
 30
0.000000
  70
    32
  0
VERTEX
  8
0
  5
2E50
 10
70.3358
 20
90.9503
 30
0.000000
  70
    32
  0
VERTEX
  8
0
  5
2E51
 10
70.3406
 20
90.9504
 30
0.000000
  70
    32
  0
VERTEX
  8
0
  5
2E52
 10
70.3453
 20
90.9506
 30
0.000000
  70
    32
  0
VERTEX
  8
0
  5
2E53
 10
70.3500
 20
90.9508
 30
0.000000
  70
    32
  0
VERTEX
  8
0
  5
2E54
 10
70.3546
 20
90.9509
 30
0.000000
  70
    32
  0
VERTEX
  8
0
  5
2E55
 10
70.3591
 20
90.9511
 30
0.000000
  70
    32
  0
VERTEX
  8
0
  5
2E56
 10
70.3637
 20
90.9513
 30
0.000000
  70
    32
  0
VERTEX
  8
0
  5
2E57
 10
70.3681
 20
90.9514
 30
0.000000
  70
    32
  0
VERTEX
  8
0
  5
2E58
 10
70.3726
 20
90.9516
 30
0.000000
  70
    32
  0
VERTEX
  8
0
  5
2E59
 10
70.3769
 20
90.9518
 30
0.000000
  70
    32
  0
VERTEX
  8
0
  5
2E5A
 10
70.3812
 20
90.9519
 30
0.000000
  70
    32
  0
VERTEX
  8
0
  5
2E5B
 10
70.3855
 20
90.9521
 30
0.000000
  70
    32
  0
VERTEX
  8
0
  5
2E5C
 10
70.3897
 20
90.9522
 30
0.000000
  70
    32
  0
VERTEX
  8
0
  5
2E5D
 10
70.3938
 20
90.9524
 30
0.000000
  70
    32
  0
VERTEX
  8
0
  5
2E5E
 10
70.3979
 20
90.9525
 30
0.000000
  70
    32
  0
VERTEX
  8
0
  5
2E5F
 10
70.4020
 20
90.9527
 30
0.000000
  70
    32
  0
VERTEX
  8
0
  5
2E60
 10
70.4060
 20
90.9528
 30
0.000000
  70
    32
  0
VERTEX
  8
0
  5
2E61
 10
70.4099
 20
90.9530
 30
0.000000
  70
    32
  0
VERTEX
  8
0
  5
2E62
 10
70.4137
 20
90.9531
 30
0.000000
  70
    32
  0
VERTEX
  8
0
  5
2E63
 10
70.4175
 20
90.9533
 30
0.000000
  70
    32
  0
VERTEX
  8
0
  5
2E64
 10
70.4213
 20
90.9534
 30
0.000000
  70
    32
  0
VERTEX
  8
0
  5
2E65
 10
70.4250
 20
90.9535
 30
0.000000
  70
    32
  0
VERTEX
  8
0
  5
2E66
 10
70.4286
 20
90.9537
 30
0.000000
  70
    32
  0
VERTEX
  8
0
  5
2E67
 10
70.4322
 20
90.9538
 30
0.000000
  70
    32
  0
VERTEX
  8
0
  5
2E68
 10
70.4357
 20
90.9539
 30
0.000000
  70
    32
  0
VERTEX
  8
0
  5
2E69
 10
70.4391
 20
90.9541
 30
0.000000
  70
    32
  0
VERTEX
  8
0
  5
2E6A
 10
70.4425
 20
90.9542
 30
0.000000
  70
    32
  0
VERTEX
  8
0
  5
2E6B
 10
70.4458
 20
90.9543
 30
0.000000
  70
    32
  0
VERTEX
  8
0
  5
2E6C
 10
70.4490
 20
90.9544
 30
0.000000
  70
    32
  0
VERTEX
  8
0
  5
2E6D
 10
70.4522
 20
90.9546
 30
0.000000
  70
    32
  0
VERTEX
  8
0
  5
2E6E
 10
70.4554
 20
90.9547
 30
0.000000
  70
    32
  0
VERTEX
  8
0
  5
2E6F
 10
70.4584
 20
90.9548
 30
0.000000
  70
    32
  0
VERTEX
  8
0
  5
2E70
 10
70.4614
 20
90.9549
 30
0.000000
  70
    32
  0
VERTEX
  8
0
  5
2E71
 10
70.4643
 20
90.9550
 30
0.000000
  70
    32
  0
VERTEX
  8
0
  5
2E72
 10
70.4672
 20
90.9551
 30
0.000000
  70
    32
  0
VERTEX
  8
0
  5
2E73
 10
70.4700
 20
90.9552
 30
0.000000
  70
    32
  0
VERTEX
  8
0
  5
2E74
 10
70.4727
 20
90.9553
 30
0.000000
  70
    32
  0
VERTEX
  8
0
  5
2E75
 10
70.4754
 20
90.9554
 30
0.000000
  70
    32
  0
VERTEX
  8
0
  5
2E76
 10
70.4780
 20
90.9555
 30
0.000000
  70
    32
  0
VERTEX
  8
0
  5
2E77
 10
70.4805
 20
90.9556
 30
0.000000
  70
    32
  0
VERTEX
  8
0
  5
2E78
 10
70.4829
 20
90.9557
 30
0.000000
  70
    32
  0
VERTEX
  8
0
  5
2E79
 10
70.4853
 20
90.9558
 30
0.000000
  70
    32
  0
VERTEX
  8
0
  5
2E7A
 10
70.4876
 20
90.9559
 30
0.000000
  70
    32
  0
VERTEX
  8
0
  5
2E7B
 10
70.4899
 20
90.9560
 30
0.000000
  70
    32
  0
VERTEX
  8
0
  5
2E7C
 10
70.4920
 20
90.9561
 30
0.000000
  70
    32
  0
VERTEX
  8
0
  5
2E7D
 10
70.4941
 20
90.9562
 30
0.000000
  70
    32
  0
VERTEX
  8
0
  5
2E7E
 10
70.4962
 20
90.9563
 30
0.000000
  70
    32
  0
VERTEX
  8
0
  5
2E7F
 10
70.4981
 20
90.9563
 30
0.000000
  70
    32
  0
VERTEX
  8
0
  5
2E80
 10
70.5000
 20
90.9564
 30
0.000000
  70
    32
  0
VERTEX
  8
0
  5
2E81
 10
70.5018
 20
90.9565
 30
0.000000
  70
    32
  0
VERTEX
  8
0
  5
2E82
 10
70.5036
 20
90.9566
 30
0.000000
  70
    32
  0
VERTEX
  8
0
  5
2E83
 10
70.5053
 20
90.9566
 30
0.000000
  70
    32
  0
VERTEX
  8
0
  5
2E84
 10
70.5069
 20
90.9567
 30
0.000000
  70
    32
  0
VERTEX
  8
0
  5
2E85
 10
70.5084
 20
90.9568
 30
0.000000
  70
    32
  0
VERTEX
  8
0
  5
2E86
 10
70.5098
 20
90.9568
 30
0.000000
  70
    32
  0
VERTEX
  8
0
  5
2E87
 10
70.5112
 20
90.9569
 30
0.000000
  70
    32
  0
VERTEX
  8
0
  5
2E88
 10
70.5125
 20
90.9569
 30
0.000000
  70
    32
  0
VERTEX
  8
0
  5
2E89
 10
70.5138
 20
90.9570
 30
0.000000
  70
    32
  0
VERTEX
  8
0
  5
2E8A
 10
70.5149
 20
90.9570
 30
0.000000
  70
    32
  0
VERTEX
  8
0
  5
2E8B
 10
70.5160
 20
90.9571
 30
0.000000
  70
    32
  0
VERTEX
  8
0
  5
2E8C
 10
70.5170
 20
90.9571
 30
0.000000
  70
    32
  0
VERTEX
  8
0
  5
2E8D
 10
70.5180
 20
90.9572
 30
0.000000
  70
    32
  0
VERTEX
  8
0
  5
2E8E
 10
70.5188
 20
90.9572
 30
0.000000
  70
    32
  0
VERTEX
  8
0
  5
2E8F
 10
70.5196
 20
90.9573
 30
0.000000
  70
    32
  0
VERTEX
  8
0
  5
2E90
 10
70.5203
 20
90.9573
 30
0.000000
  70
    32
  0
VERTEX
  8
0
  5
2E91
 10
70.5210
 20
90.9573
 30
0.000000
  70
    32
  0
VERTEX
  8
0
  5
2E92
 10
70.5215
 20
90.9574
 30
0.000000
  70
    32
  0
VERTEX
  8
0
  5
2E93
 10
70.5220
 20
90.9574
 30
0.000000
  70
    32
  0
VERTEX
  8
0
  5
2E94
 10
70.5224
 20
90.9574
 30
0.000000
  70
    32
  0
VERTEX
  8
0
  5
2E95
 10
70.5228
 20
90.9574
 30
0.000000
  70
    32
  0
VERTEX
  8
0
  5
2E96
 10
70.5230
 20
90.9575
 30
0.000000
  70
    32
  0
VERTEX
  8
0
  5
2E97
 10
70.5232
 20
90.9575
 30
0.000000
  70
    32
  0
VERTEX
  8
0
  5
2E98
 10
70.5233
 20
90.9575
 30
0.000000
  70
    32
  0
VERTEX
  8
0
  5
2E99
 10
70.5234
 20
90.9575
 30
0.000000
  70
    32
  0
SEQEND
  8
0
  5
2E9A
  0
ARC
  5
2623
  8
2
 10
75.42336872202273
 20
97.981645544371133
 30
0.0
 40
0.5
 50
0.0
 51
90.0
  0
ARC
  5
2624
  8
2
 10
75.42336872202273
 20
108.9816455443711
 30
0.0
 40
0.5
 50
270.0
 51
0.0
  0
LINE
  5
262C
  8
2
 10
73.92336872202273
 20
98.481645544371133
 30
0.0
 11
75.42336872202273
 21
98.481645544371133
 31
0.0
  0
LINE
  5
262D
  8
2
 10
75.42336872202273
 20
108.4816455443711
 30
0.0
 11
73.92336872202273
 21
108.4816455443711
 31
0.0
  0
LINE
  5
2630
  8
2
 10
68.92336872202273
 20
100.4816455443711
 30
0.0
 11
73.92336872202273
 21
100.4816455443711
 31
0.0
  0
LINE
  5
2631
  8
2
 10
73.92336872202273
 20
106.4816455443711
 30
0.0
 11
68.92336872202273
 21
106.4816455443711
 31
0.0
  0
CIRCLE
  5
2633
  8
0
 10
105.9233687220227
 20
65.981645544371133
 30
0.0
 40
5.0
  0
CIRCLE
  5
2634
  8
0
 10
105.9233687220227
 20
65.981645544371133
 30
0.0
 40
6.0
  0
LINE
  5
2635
  8
0
 10
112.1790748505918
 20
59.194391342620548
 30
0.0
 11
118.40731911594121
 21
59.19439134262052
 31
0.0
  0
LINE
  5
2636
  8
0
 10
112.1790748505918
 20
59.194391342620548
 30
0.0
 11
111.6892344510146
 21
59.110538895767661
 31
0.0
  0
LINE
  5
2637
  8
0
 10
111.6892344510146
 20
59.110538895767661
 30
0.0
 11
100.157502993031
 21
59.110538895767661
 31
0.0
  0
LINE
  5
2638
  8
0
 10
100.157502993031
 20
59.110538895767661
 30
0.0
 11
99.667662593453798
 21
59.19439134262052
 31
0.0
  0
LINE
  5
2639
  8
0
 10
93.439418328104196
 20
59.19439134262052
 30
0.0
 11
99.667662593453798
 21
59.19439134262052
 31
0.0
  0
LINE
  5
263A
  8
0
 10
93.558311883862132
 20
59.372577792182852
 30
0.0
 11
93.439418328104196
 21
59.19439134262052
 31
0.0
  0
LINE
  5
263B
  8
0
 10
93.558311883862132
 20
59.372577792182852
 30
0.0
 11
118.2884255601831
 21
59.372577792182852
 31
0.0
  0
LINE
  5
263C
  8
0
 10
118.40731911594121
 20
59.19439134262052
 30
0.0
 11
118.2884255601831
 21
59.372577792182852
 31
0.0
  0
LINE
  5
263D
  8
0
 10
93.583778675414194
 20
73.307041696912165
 30
0.0
 11
118.26295876863109
 21
73.307041696912165
 31
0.0
  0
LINE
  5
263E
  8
0
 10
93.583778675414194
 20
73.307041696912165
 30
0.0
 11
93.409733224523308
 21
73.481645544371133
 31
0.0
  0
LINE
  5
263F
  8
0
 10
93.409733224523308
 20
73.481645544371133
 30
0.0
 11
118.43700421952209
 21
73.481645544371133
 31
0.0
  0
LINE
  5
2640
  8
0
 10
118.43700421952209
 20
73.481645544371133
 30
0.0
 11
118.26295876863109
 21
73.307041696912165
 31
0.0
  0
LINE
  5
2641
  8
0
 10
93.558311883862132
 20
59.372577792182852
 30
0.0
 11
93.583778675414194
 21
73.307041696912165
 31
0.0
  0
LINE
  5
2642
  8
0
 10
118.26295876863109
 20
73.307041696912165
 30
0.0
 11
118.2884255601831
 21
59.372577792182852
 31
0.0
  0
LINE
  5
2643
  8
0
 10
118.4631697647104
 20
59.164850111804981
 30
0.0
 11
118.43700421952209
 21
73.481645544371133
 31
0.0
  0
CIRCLE
  5
2644
  8
0
 10
105.9233687220227
 20
65.981645544371133
 30
0.0
 40
3.0
  0
LINE
  5
2645
  8
0
 10
93.409733224523308
 20
73.481645544371133
 30
0.0
 11
93.383567679334988
 21
59.164850111805151
 31
0.0
  0
LINE
  5
2646
  8
0
 10
118.6733687220227
 20
56.481645544371133
 30
0.0
 11
93.173368722022744
 21
56.481645544371133
 31
0.0
  0
POLYLINE
  5
2647
  8
0
 10
118.44750264318569
 20
56.981645544371617
 30
0.0
 66
     1
 70
     8
  0
VERTEX
  8
0
  5
2E9B
 10
118.448
 20
56.9816
 30
0.000000
  70
    32
  0
VERTEX
  8
0
  5
2E9C
 10
118.448
 20
56.9755
 30
0.000000
  70
    32
  0
VERTEX
  8
0
  5
2E9D
 10
118.448
 20
56.9694
 30
0.000000
  70
    32
  0
VERTEX
  8
0
  5
2E9E
 10
118.448
 20
56.9632
 30
0.000000
  70
    32
  0
VERTEX
  8
0
  5
2E9F
 10
118.448
 20
56.9571
 30
0.000000
  70
    32
  0
VERTEX
  8
0
  5
2EA0
 10
118.448
 20
56.9510
 30
0.000000
  70
    32
  0
VERTEX
  8
0
  5
2EA1
 10
118.448
 20
56.9449
 30
0.000000
  70
    32
  0
VERTEX
  8
0
  5
2EA2
 10
118.448
 20
56.9387
 30
0.000000
  70
    32
  0
VERTEX
  8
0
  5
2EA3
 10
118.448
 20
56.9326
 30
0.000000
  70
    32
  0
VERTEX
  8
0
  5
2EA4
 10
118.448
 20
56.9265
 30
0.000000
  70
    32
  0
VERTEX
  8
0
  5
2EA5
 10
118.448
 20
56.9204
 30
0.000000
  70
    32
  0
VERTEX
  8
0
  5
2EA6
 10
118.448
 20
56.9144
 30
0.000000
  70
    32
  0
VERTEX
  8
0
  5
2EA7
 10
118.448
 20
56.9083
 30
0.000000
  70
    32
  0
VERTEX
  8
0
  5
2EA8
 10
118.448
 20
56.9022
 30
0.000000
  70
    32
  0
VERTEX
  8
0
  5
2EA9
 10
118.448
 20
56.8962
 30
0.000000
  70
    32
  0
VERTEX
  8
0
  5
2EAA
 10
118.448
 20
56.8901
 30
0.000000
  70
    32
  0
VERTEX
  8
0
  5
2EAB
 10
118.448
 20
56.8841
 30
0.000000
  70
    32
  0
VERTEX
  8
0
  5
2EAC
 10
118.448
 20
56.8781
 30
0.000000
  70
    32
  0
VERTEX
  8
0
  5
2EAD
 10
118.448
 20
56.8721
 30
0.000000
  70
    32
  0
VERTEX
  8
0
  5
2EAE
 10
118.448
 20
56.8661
 30
0.000000
  70
    32
  0
VERTEX
  8
0
  5
2EAF
 10
118.448
 20
56.8602
 30
0.000000
  70
    32
  0
VERTEX
  8
0
  5
2EB0
 10
118.448
 20
56.8542
 30
0.000000
  70
    32
  0
VERTEX
  8
0
  5
2EB1
 10
118.448
 20
56.8483
 30
0.000000
  70
    32
  0
VERTEX
  8
0
  5
2EB2
 10
118.448
 20
56.8424
 30
0.000000
  70
    32
  0
VERTEX
  8
0
  5
2EB3
 10
118.449
 20
56.8365
 30
0.000000
  70
    32
  0
VERTEX
  8
0
  5
2EB4
 10
118.449
 20
56.8306
 30
0.000000
  70
    32
  0
VERTEX
  8
0
  5
2EB5
 10
118.449
 20
56.8248
 30
0.000000
  70
    32
  0
VERTEX
  8
0
  5
2EB6
 10
118.449
 20
56.8190
 30
0.000000
  70
    32
  0
VERTEX
  8
0
  5
2EB7
 10
118.449
 20
56.8132
 30
0.000000
  70
    32
  0
VERTEX
  8
0
  5
2EB8
 10
118.449
 20
56.8074
 30
0.000000
  70
    32
  0
VERTEX
  8
0
  5
2EB9
 10
118.449
 20
56.8017
 30
0.000000
  70
    32
  0
VERTEX
  8
0
  5
2EBA
 10
118.449
 20
56.7960
 30
0.000000
  70
    32
  0
VERTEX
  8
0
  5
2EBB
 10
118.449
 20
56.7903
 30
0.000000
  70
    32
  0
VERTEX
  8
0
  5
2EBC
 10
118.449
 20
56.7846
 30
0.000000
  70
    32
  0
VERTEX
  8
0
  5
2EBD
 10
118.449
 20
56.7790
 30
0.000000
  70
    32
  0
VERTEX
  8
0
  5
2EBE
 10
118.449
 20
56.7734
 30
0.000000
  70
    32
  0
VERTEX
  8
0
  5
2EBF
 10
118.450
 20
56.7679
 30
0.000000
  70
    32
  0
VERTEX
  8
0
  5
2EC0
 10
118.450
 20
56.7623
 30
0.000000
  70
    32
  0
VERTEX
  8
0
  5
2EC1
 10
118.450
 20
56.7568
 30
0.000000
  70
    32
  0
VERTEX
  8
0
  5
2EC2
 10
118.450
 20
56.7514
 30
0.000000
  70
    32
  0
VERTEX
  8
0
  5
2EC3
 10
118.450
 20
56.7459
 30
0.000000
  70
    32
  0
VERTEX
  8
0
  5
2EC4
 10
118.450
 20
56.7406
 30
0.000000
  70
    32
  0
VERTEX
  8
0
  5
2EC5
 10
118.450
 20
56.7352
 30
0.000000
  70
    32
  0
VERTEX
  8
0
  5
2EC6
 10
118.450
 20
56.7299
 30
0.000000
  70
    32
  0
VERTEX
  8
0
  5
2EC7
 10
118.450
 20
56.7246
 30
0.000000
  70
    32
  0
VERTEX
  8
0
  5
2EC8
 10
118.451
 20
56.7194
 30
0.000000
  70
    32
  0
VERTEX
  8
0
  5
2EC9
 10
118.451
 20
56.7141
 30
0.000000
  70
    32
  0
VERTEX
  8
0
  5
2ECA
 10
118.451
 20
56.7090
 30
0.000000
  70
    32
  0
VERTEX
  8
0
  5
2ECB
 10
118.451
 20
56.7039
 30
0.000000
  70
    32
  0
VERTEX
  8
0
  5
2ECC
 10
118.451
 20
56.6988
 30
0.000000
  70
    32
  0
VERTEX
  8
0
  5
2ECD
 10
118.451
 20
56.6937
 30
0.000000
  70
    32
  0
VERTEX
  8
0
  5
2ECE
 10
118.451
 20
56.6887
 30
0.000000
  70
    32
  0
VERTEX
  8
0
  5
2ECF
 10
118.451
 20
56.6838
 30
0.000000
  70
    32
  0
VERTEX
  8
0
  5
2ED0
 10
118.452
 20
56.6789
 30
0.000000
  70
    32
  0
VERTEX
  8
0
  5
2ED1
 10
118.452
 20
56.6740
 30
0.000000
  70
    32
  0
VERTEX
  8
0
  5
2ED2
 10
118.452
 20
56.6692
 30
0.000000
  70
    32
  0
VERTEX
  8
0
  5
2ED3
 10
118.452
 20
56.6644
 30
0.000000
  70
    32
  0
VERTEX
  8
0
  5
2ED4
 10
118.452
 20
56.6597
 30
0.000000
  70
    32
  0
VERTEX
  8
0
  5
2ED5
 10
118.452
 20
56.6551
 30
0.000000
  70
    32
  0
VERTEX
  8
0
  5
2ED6
 10
118.452
 20
56.6504
 30
0.000000
  70
    32
  0
VERTEX
  8
0
  5
2ED7
 10
118.453
 20
56.6459
 30
0.000000
  70
    32
  0
VERTEX
  8
0
  5
2ED8
 10
118.453
 20
56.6413
 30
0.000000
  70
    32
  0
VERTEX
  8
0
  5
2ED9
 10
118.453
 20
56.6369
 30
0.000000
  70
    32
  0
VERTEX
  8
0
  5
2EDA
 10
118.453
 20
56.6325
 30
0.000000
  70
    32
  0
VERTEX
  8
0
  5
2EDB
 10
118.453
 20
56.6281
 30
0.000000
  70
    32
  0
VERTEX
  8
0
  5
2EDC
 10
118.453
 20
56.6238
 30
0.000000
  70
    32
  0
VERTEX
  8
0
  5
2EDD
 10
118.454
 20
56.6195
 30
0.000000
  70
    32
  0
VERTEX
  8
0
  5
2EDE
 10
118.454
 20
56.6153
 30
0.000000
  70
    32
  0
VERTEX
  8
0
  5
2EDF
 10
118.454
 20
56.6112
 30
0.000000
  70
    32
  0
VERTEX
  8
0
  5
2EE0
 10
118.454
 20
56.6071
 30
0.000000
  70
    32
  0
VERTEX
  8
0
  5
2EE1
 10
118.454
 20
56.6030
 30
0.000000
  70
    32
  0
VERTEX
  8
0
  5
2EE2
 10
118.454
 20
56.5991
 30
0.000000
  70
    32
  0
VERTEX
  8
0
  5
2EE3
 10
118.455
 20
56.5951
 30
0.000000
  70
    32
  0
VERTEX
  8
0
  5
2EE4
 10
118.455
 20
56.5913
 30
0.000000
  70
    32
  0
VERTEX
  8
0
  5
2EE5
 10
118.455
 20
56.5875
 30
0.000000
  70
    32
  0
VERTEX
  8
0
  5
2EE6
 10
118.455
 20
56.5837
 30
0.000000
  70
    32
  0
VERTEX
  8
0
  5
2EE7
 10
118.455
 20
56.5800
 30
0.000000
  70
    32
  0
VERTEX
  8
0
  5
2EE8
 10
118.455
 20
56.5764
 30
0.000000
  70
    32
  0
VERTEX
  8
0
  5
2EE9
 10
118.456
 20
56.5729
 30
0.000000
  70
    32
  0
VERTEX
  8
0
  5
2EEA
 10
118.456
 20
56.5694
 30
0.000000
  70
    32
  0
VERTEX
  8
0
  5
2EEB
 10
118.456
 20
56.5659
 30
0.000000
  70
    32
  0
VERTEX
  8
0
  5
2EEC
 10
118.456
 20
56.5625
 30
0.000000
  70
    32
  0
VERTEX
  8
0
  5
2EED
 10
118.456
 20
56.5592
 30
0.000000
  70
    32
  0
VERTEX
  8
0
  5
2EEE
 10
118.457
 20
56.5560
 30
0.000000
  70
    32
  0
VERTEX
  8
0
  5
2EEF
 10
118.457
 20
56.5528
 30
0.000000
  70
    32
  0
VERTEX
  8
0
  5
2EF0
 10
118.457
 20
56.5497
 30
0.000000
  70
    32
  0
VERTEX
  8
0
  5
2EF1
 10
118.457
 20
56.5466
 30
0.000000
  70
    32
  0
VERTEX
  8
0
  5
2EF2
 10
118.457
 20
56.5436
 30
0.000000
  70
    32
  0
VERTEX
  8
0
  5
2EF3
 10
118.458
 20
56.5407
 30
0.000000
  70
    32
  0
VERTEX
  8
0
  5
2EF4
 10
118.458
 20
56.5378
 30
0.000000
  70
    32
  0
VERTEX
  8
0
  5
2EF5
 10
118.458
 20
56.5350
 30
0.000000
  70
    32
  0
VERTEX
  8
0
  5
2EF6
 10
118.458
 20
56.5323
 30
0.000000
  70
    32
  0
VERTEX
  8
0
  5
2EF7
 10
118.458
 20
56.5297
 30
0.000000
  70
    32
  0
VERTEX
  8
0
  5
2EF8
 10
118.459
 20
56.5271
 30
0.000000
  70
    32
  0
VERTEX
  8
0
  5
2EF9
 10
118.459
 20
56.5245
 30
0.000000
  70
    32
  0
VERTEX
  8
0
  5
2EFA
 10
118.459
 20
56.5221
 30
0.000000
  70
    32
  0
VERTEX
  8
0
  5
2EFB
 10
118.459
 20
56.5197
 30
0.000000
  70
    32
  0
VERTEX
  8
0
  5
2EFC
 10
118.459
 20
56.5174
 30
0.000000
  70
    32
  0
VERTEX
  8
0
  5
2EFD
 10
118.460
 20
56.5151
 30
0.000000
  70
    32
  0
VERTEX
  8
0
  5
2EFE
 10
118.460
 20
56.5130
 30
0.000000
  70
    32
  0
VERTEX
  8
0
  5
2EFF
 10
118.460
 20
56.5109
 30
0.000000
  70
    32
  0
VERTEX
  8
0
  5
2F00
 10
118.460
 20
56.5088
 30
0.000000
  70
    32
  0
VERTEX
  8
0
  5
2F01
 10
118.460
 20
56.5069
 30
0.000000
  70
    32
  0
VERTEX
  8
0
  5
2F02
 10
118.461
 20
56.5050
 30
0.000000
  70
    32
  0
VERTEX
  8
0
  5
2F03
 10
118.461
 20
56.5032
 30
0.000000
  70
    32
  0
VERTEX
  8
0
  5
2F04
 10
118.461
 20
56.5014
 30
0.000000
  70
    32
  0
VERTEX
  8
0
  5
2F05
 10
118.461
 20
56.4998
 30
0.000000
  70
    32
  0
VERTEX
  8
0
  5
2F06
 10
118.461
 20
56.4982
 30
0.000000
  70
    32
  0
VERTEX
  8
0
  5
2F07
 10
118.462
 20
56.4966
 30
0.000000
  70
    32
  0
VERTEX
  8
0
  5
2F08
 10
118.462
 20
56.4952
 30
0.000000
  70
    32
  0
VERTEX
  8
0
  5
2F09
 10
118.462
 20
56.4938
 30
0.000000
  70
    32
  0
VERTEX
  8
0
  5
2F0A
 10
118.462
 20
56.4925
 30
0.000000
  70
    32
  0
VERTEX
  8
0
  5
2F0B
 10
118.462
 20
56.4913
 30
0.000000
  70
    32
  0
VERTEX
  8
0
  5
2F0C
 10
118.463
 20
56.4901
 30
0.000000
  70
    32
  0
VERTEX
  8
0
  5
2F0D
 10
118.463
 20
56.4890
 30
0.000000
  70
    32
  0
VERTEX
  8
0
  5
2F0E
 10
118.463
 20
56.4880
 30
0.000000
  70
    32
  0
VERTEX
  8
0
  5
2F0F
 10
118.463
 20
56.4871
 30
0.000000
  70
    32
  0
VERTEX
  8
0
  5
2F10
 10
118.463
 20
56.4862
 30
0.000000
  70
    32
  0
VERTEX
  8
0
  5
2F11
 10
118.464
 20
56.4854
 30
0.000000
  70
    32
  0
VERTEX
  8
0
  5
2F12
 10
118.464
 20
56.4847
 30
0.000000
  70
    32
  0
VERTEX
  8
0
  5
2F13
 10
118.464
 20
56.4841
 30
0.000000
  70
    32
  0
VERTEX
  8
0
  5
2F14
 10
118.464
 20
56.4835
 30
0.000000
  70
    32
  0
VERTEX
  8
0
  5
2F15
 10
118.465
 20
56.4830
 30
0.000000
  70
    32
  0
VERTEX
  8
0
  5
2F16
 10
118.465
 20
56.4826
 30
0.000000
  70
    32
  0
VERTEX
  8
0
  5
2F17
 10
118.465
 20
56.4822
 30
0.000000
  70
    32
  0
VERTEX
  8
0
  5
2F18
 10
118.465
 20
56.4820
 30
0.000000
  70
    32
  0
VERTEX
  8
0
  5
2F19
 10
118.465
 20
56.4818
 30
0.000000
  70
    32
  0
VERTEX
  8
0
  5
2F1A
 10
118.466
 20
56.4817
 30
0.000000
  70
    32
  0
VERTEX
  8
0
  5
2F1B
 10
118.466
 20
56.4816
 30
0.000000
  70
    32
  0
SEQEND
  8
0
  5
2F1C
  0
LINE
  5
2648
  8
0
 10
118.4475026431857
 20
56.981645544371617
 30
0.0
 11
118.4434586027126
 21
59.19439134262052
 31
0.0
  0
LINE
  5
2649
  8
0
 10
118.6733687220227
 20
56.481645544371133
 30
0.0
 11
118.6733687220227
 21
58.849823736604101
 31
0.0
  0
LINE
  5
264A
  8
0
 10
118.6733687220227
 20
58.849823736604101
 30
0.0
 11
118.4434586027126
 21
59.19439134262052
 31
0.0
  0
LINE
  5
264B
  8
0
 10
112.1790748505918
 20
59.194391342620548
 30
0.0
 11
112.14366935215411
 21
56.981645544371617
 31
0.0
  0
LINE
  5
264D
  8
0
 10
118.40731911594121
 20
59.19439134262052
 30
0.0
 11
118.4434586027126
 21
59.19439134262052
 31
0.0
  0
POLYLINE
  5
264E
  8
0
 10
111.98301315427797
 20
56.48164554437114
 30
0.0
 66
     1
 70
     8
  0
VERTEX
  8
0
  5
2F1D
 10
111.983
 20
56.4816
 30
0.000000
  70
    32
  0
VERTEX
  8
0
  5
2F1E
 10
111.985
 20
56.4817
 30
0.000000
  70
    32
  0
VERTEX
  8
0
  5
2F1F
 10
111.987
 20
56.4818
 30
0.000000
  70
    32
  0
VERTEX
  8
0
  5
2F20
 10
111.989
 20
56.4820
 30
0.000000
  70
    32
  0
VERTEX
  8
0
  5
2F21
 10
111.991
 20
56.4822
 30
0.000000
  70
    32
  0
VERTEX
  8
0
  5
2F22
 10
111.992
 20
56.4826
 30
0.000000
  70
    32
  0
VERTEX
  8
0
  5
2F23
 10
111.994
 20
56.4830
 30
0.000000
  70
    32
  0
VERTEX
  8
0
  5
2F24
 10
111.996
 20
56.4835
 30
0.000000
  70
    32
  0
VERTEX
  8
0
  5
2F25
 10
111.998
 20
56.4841
 30
0.000000
  70
    32
  0
VERTEX
  8
0
  5
2F26
 10
112.000
 20
56.4847
 30
0.000000
  70
    32
  0
VERTEX
  8
0
  5
2F27
 10
112.002
 20
56.4854
 30
0.000000
  70
    32
  0
VERTEX
  8
0
  5
2F28
 10
112.004
 20
56.4862
 30
0.000000
  70
    32
  0
VERTEX
  8
0
  5
2F29
 10
112.005
 20
56.4871
 30
0.000000
  70
    32
  0
VERTEX
  8
0
  5
2F2A
 10
112.007
 20
56.4880
 30
0.000000
  70
    32
  0
VERTEX
  8
0
  5
2F2B
 10
112.009
 20
56.4890
 30
0.000000
  70
    32
  0
VERTEX
  8
0
  5
2F2C
 10
112.011
 20
56.4901
 30
0.000000
  70
    32
  0
VERTEX
  8
0
  5
2F2D
 10
112.013
 20
56.4913
 30
0.000000
  70
    32
  0
VERTEX
  8
0
  5
2F2E
 10
112.015
 20
56.4925
 30
0.000000
  70
    32
  0
VERTEX
  8
0
  5
2F2F
 10
112.017
 20
56.4938
 30
0.000000
  70
    32
  0
VERTEX
  8
0
  5
2F30
 10
112.019
 20
56.4952
 30
0.000000
  70
    32
  0
VERTEX
  8
0
  5
2F31
 10
112.020
 20
56.4966
 30
0.000000
  70
    32
  0
VERTEX
  8
0
  5
2F32
 10
112.022
 20
56.4982
 30
0.000000
  70
    32
  0
VERTEX
  8
0
  5
2F33
 10
112.024
 20
56.4998
 30
0.000000
  70
    32
  0
VERTEX
  8
0
  5
2F34
 10
112.026
 20
56.5014
 30
0.000000
  70
    32
  0
VERTEX
  8
0
  5
2F35
 10
112.028
 20
56.5032
 30
0.000000
  70
    32
  0
VERTEX
  8
0
  5
2F36
 10
112.029
 20
56.5050
 30
0.000000
  70
    32
  0
VERTEX
  8
0
  5
2F37
 10
112.031
 20
56.5069
 30
0.000000
  70
    32
  0
VERTEX
  8
0
  5
2F38
 10
112.033
 20
56.5088
 30
0.000000
  70
    32
  0
VERTEX
  8
0
  5
2F39
 10
112.035
 20
56.5109
 30
0.000000
  70
    32
  0
VERTEX
  8
0
  5
2F3A
 10
112.037
 20
56.5130
 30
0.000000
  70
    32
  0
VERTEX
  8
0
  5
2F3B
 10
112.038
 20
56.5151
 30
0.000000
  70
    32
  0
VERTEX
  8
0
  5
2F3C
 10
112.040
 20
56.5174
 30
0.000000
  70
    32
  0
VERTEX
  8
0
  5
2F3D
 10
112.042
 20
56.5197
 30
0.000000
  70
    32
  0
VERTEX
  8
0
  5
2F3E
 10
112.044
 20
56.5221
 30
0.000000
  70
    32
  0
VERTEX
  8
0
  5
2F3F
 10
112.046
 20
56.5245
 30
0.000000
  70
    32
  0
VERTEX
  8
0
  5
2F40
 10
112.047
 20
56.5271
 30
0.000000
  70
    32
  0
VERTEX
  8
0
  5
2F41
 10
112.049
 20
56.5297
 30
0.000000
  70
    32
  0
VERTEX
  8
0
  5
2F42
 10
112.051
 20
56.5323
 30
0.000000
  70
    32
  0
VERTEX
  8
0
  5
2F43
 10
112.053
 20
56.5350
 30
0.000000
  70
    32
  0
VERTEX
  8
0
  5
2F44
 10
112.054
 20
56.5378
 30
0.000000
  70
    32
  0
VERTEX
  8
0
  5
2F45
 10
112.056
 20
56.5407
 30
0.000000
  70
    32
  0
VERTEX
  8
0
  5
2F46
 10
112.058
 20
56.5436
 30
0.000000
  70
    32
  0
VERTEX
  8
0
  5
2F47
 10
112.059
 20
56.5466
 30
0.000000
  70
    32
  0
VERTEX
  8
0
  5
2F48
 10
112.061
 20
56.5497
 30
0.000000
  70
    32
  0
VERTEX
  8
0
  5
2F49
 10
112.063
 20
56.5528
 30
0.000000
  70
    32
  0
VERTEX
  8
0
  5
2F4A
 10
112.064
 20
56.5560
 30
0.000000
  70
    32
  0
VERTEX
  8
0
  5
2F4B
 10
112.066
 20
56.5592
 30
0.000000
  70
    32
  0
VERTEX
  8
0
  5
2F4C
 10
112.068
 20
56.5625
 30
0.000000
  70
    32
  0
VERTEX
  8
0
  5
2F4D
 10
112.069
 20
56.5659
 30
0.000000
  70
    32
  0
VERTEX
  8
0
  5
2F4E
 10
112.071
 20
56.5694
 30
0.000000
  70
    32
  0
VERTEX
  8
0
  5
2F4F
 10
112.072
 20
56.5729
 30
0.000000
  70
    32
  0
VERTEX
  8
0
  5
2F50
 10
112.074
 20
56.5764
 30
0.000000
  70
    32
  0
VERTEX
  8
0
  5
2F51
 10
112.076
 20
56.5800
 30
0.000000
  70
    32
  0
VERTEX
  8
0
  5
2F52
 10
112.077
 20
56.5837
 30
0.000000
  70
    32
  0
VERTEX
  8
0
  5
2F53
 10
112.079
 20
56.5875
 30
0.000000
  70
    32
  0
VERTEX
  8
0
  5
2F54
 10
112.080
 20
56.5913
 30
0.000000
  70
    32
  0
VERTEX
  8
0
  5
2F55
 10
112.082
 20
56.5951
 30
0.000000
  70
    32
  0
VERTEX
  8
0
  5
2F56
 10
112.083
 20
56.5991
 30
0.000000
  70
    32
  0
VERTEX
  8
0
  5
2F57
 10
112.085
 20
56.6030
 30
0.000000
  70
    32
  0
VERTEX
  8
0
  5
2F58
 10
112.086
 20
56.6071
 30
0.000000
  70
    32
  0
VERTEX
  8
0
  5
2F59
 10
112.088
 20
56.6112
 30
0.000000
  70
    32
  0
VERTEX
  8
0
  5
2F5A
 10
112.089
 20
56.6153
 30
0.000000
  70
    32
  0
VERTEX
  8
0
  5
2F5B
 10
112.090
 20
56.6195
 30
0.000000
  70
    32
  0
VERTEX
  8
0
  5
2F5C
 10
112.092
 20
56.6238
 30
0.000000
  70
    32
  0
VERTEX
  8
0
  5
2F5D
 10
112.093
 20
56.6281
 30
0.000000
  70
    32
  0
VERTEX
  8
0
  5
2F5E
 10
112.095
 20
56.6325
 30
0.000000
  70
    32
  0
VERTEX
  8
0
  5
2F5F
 10
112.096
 20
56.6369
 30
0.000000
  70
    32
  0
VERTEX
  8
0
  5
2F60
 10
112.097
 20
56.6413
 30
0.000000
  70
    32
  0
VERTEX
  8
0
  5
2F61
 10
112.099
 20
56.6459
 30
0.000000
  70
    32
  0
VERTEX
  8
0
  5
2F62
 10
112.100
 20
56.6504
 30
0.000000
  70
    32
  0
VERTEX
  8
0
  5
2F63
 10
112.101
 20
56.6551
 30
0.000000
  70
    32
  0
VERTEX
  8
0
  5
2F64
 10
112.103
 20
56.6597
 30
0.000000
  70
    32
  0
VERTEX
  8
0
  5
2F65
 10
112.104
 20
56.6644
 30
0.000000
  70
    32
  0
VERTEX
  8
0
  5
2F66
 10
112.105
 20
56.6692
 30
0.000000
  70
    32
  0
VERTEX
  8
0
  5
2F67
 10
112.106
 20
56.6740
 30
0.000000
  70
    32
  0
VERTEX
  8
0
  5
2F68
 10
112.108
 20
56.6789
 30
0.000000
  70
    32
  0
VERTEX
  8
0
  5
2F69
 10
112.109
 20
56.6838
 30
0.000000
  70
    32
  0
VERTEX
  8
0
  5
2F6A
 10
112.110
 20
56.6887
 30
0.000000
  70
    32
  0
VERTEX
  8
0
  5
2F6B
 10
112.111
 20
56.6937
 30
0.000000
  70
    32
  0
VERTEX
  8
0
  5
2F6C
 10
112.112
 20
56.6988
 30
0.000000
  70
    32
  0
VERTEX
  8
0
  5
2F6D
 10
112.113
 20
56.7039
 30
0.000000
  70
    32
  0
VERTEX
  8
0
  5
2F6E
 10
112.115
 20
56.7090
 30
0.000000
  70
    32
  0
VERTEX
  8
0
  5
2F6F
 10
112.116
 20
56.7141
 30
0.000000
  70
    32
  0
VERTEX
  8
0
  5
2F70
 10
112.117
 20
56.7194
 30
0.000000
  70
    32
  0
VERTEX
  8
0
  5
2F71
 10
112.118
 20
56.7246
 30
0.000000
  70
    32
  0
VERTEX
  8
0
  5
2F72
 10
112.119
 20
56.7299
 30
0.000000
  70
    32
  0
VERTEX
  8
0
  5
2F73
 10
112.120
 20
56.7352
 30
0.000000
  70
    32
  0
VERTEX
  8
0
  5
2F74
 10
112.121
 20
56.7406
 30
0.000000
  70
    32
  0
VERTEX
  8
0
  5
2F75
 10
112.122
 20
56.7459
 30
0.000000
  70
    32
  0
VERTEX
  8
0
  5
2F76
 10
112.123
 20
56.7514
 30
0.000000
  70
    32
  0
VERTEX
  8
0
  5
2F77
 10
112.124
 20
56.7568
 30
0.000000
  70
    32
  0
VERTEX
  8
0
  5
2F78
 10
112.125
 20
56.7623
 30
0.000000
  70
    32
  0
VERTEX
  8
0
  5
2F79
 10
112.126
 20
56.7679
 30
0.000000
  70
    32
  0
VERTEX
  8
0
  5
2F7A
 10
112.126
 20
56.7734
 30
0.000000
  70
    32
  0
VERTEX
  8
0
  5
2F7B
 10
112.127
 20
56.7790
 30
0.000000
  70
    32
  0
VERTEX
  8
0
  5
2F7C
 10
112.128
 20
56.7846
 30
0.000000
  70
    32
  0
VERTEX
  8
0
  5
2F7D
 10
112.129
 20
56.7903
 30
0.000000
  70
    32
  0
VERTEX
  8
0
  5
2F7E
 10
112.130
 20
56.7960
 30
0.000000
  70
    32
  0
VERTEX
  8
0
  5
2F7F
 10
112.131
 20
56.8017
 30
0.000000
  70
    32
  0
VERTEX
  8
0
  5
2F80
 10
112.131
 20
56.8074
 30
0.000000
  70
    32
  0
VERTEX
  8
0
  5
2F81
 10
112.132
 20
56.8132
 30
0.000000
  70
    32
  0
VERTEX
  8
0
  5
2F82
 10
112.133
 20
56.8190
 30
0.000000
  70
    32
  0
VERTEX
  8
0
  5
2F83
 10
112.133
 20
56.8248
 30
0.000000
  70
    32
  0
VERTEX
  8
0
  5
2F84
 10
112.134
 20
56.8306
 30
0.000000
  70
    32
  0
VERTEX
  8
0
  5
2F85
 10
112.135
 20
56.8365
 30
0.000000
  70
    32
  0
VERTEX
  8
0
  5
2F86
 10
112.135
 20
56.8424
 30
0.000000
  70
    32
  0
VERTEX
  8
0
  5
2F87
 10
112.136
 20
56.8483
 30
0.000000
  70
    32
  0
VERTEX
  8
0
  5
2F88
 10
112.137
 20
56.8542
 30
0.000000
  70
    32
  0
VERTEX
  8
0
  5
2F89
 10
112.137
 20
56.8602
 30
0.000000
  70
    32
  0
VERTEX
  8
0
  5
2F8A
 10
112.138
 20
56.8661
 30
0.000000
  70
    32
  0
VERTEX
  8
0
  5
2F8B
 10
112.138
 20
56.8721
 30
0.000000
  70
    32
  0
VERTEX
  8
0
  5
2F8C
 10
112.139
 20
56.8781
 30
0.000000
  70
    32
  0
VERTEX
  8
0
  5
2F8D
 10
112.139
 20
56.8841
 30
0.000000
  70
    32
  0
VERTEX
  8
0
  5
2F8E
 10
112.140
 20
56.8901
 30
0.000000
  70
    32
  0
VERTEX
  8
0
  5
2F8F
 10
112.140
 20
56.8962
 30
0.000000
  70
    32
  0
VERTEX
  8
0
  5
2F90
 10
112.140
 20
56.9022
 30
0.000000
  70
    32
  0
VERTEX
  8
0
  5
2F91
 10
112.141
 20
56.9083
 30
0.000000
  70
    32
  0
VERTEX
  8
0
  5
2F92
 10
112.141
 20
56.9144
 30
0.000000
  70
    32
  0
VERTEX
  8
0
  5
2F93
 10
112.142
 20
56.9204
 30
0.000000
  70
    32
  0
VERTEX
  8
0
  5
2F94
 10
112.142
 20
56.9265
 30
0.000000
  70
    32
  0
VERTEX
  8
0
  5
2F95
 10
112.142
 20
56.9326
 30
0.000000
  70
    32
  0
VERTEX
  8
0
  5
2F96
 10
112.142
 20
56.9387
 30
0.000000
  70
    32
  0
VERTEX
  8
0
  5
2F97
 10
112.143
 20
56.9449
 30
0.000000
  70
    32
  0
VERTEX
  8
0
  5
2F98
 10
112.143
 20
56.9510
 30
0.000000
  70
    32
  0
VERTEX
  8
0
  5
2F99
 10
112.143
 20
56.9571
 30
0.000000
  70
    32
  0
VERTEX
  8
0
  5
2F9A
 10
112.143
 20
56.9632
 30
0.000000
  70
    32
  0
VERTEX
  8
0
  5
2F9B
 10
112.143
 20
56.9694
 30
0.000000
  70
    32
  0
VERTEX
  8
0
  5
2F9C
 10
112.144
 20
56.9755
 30
0.000000
  70
    32
  0
VERTEX
  8
0
  5
2F9D
 10
112.144
 20
56.9816
 30
0.000000
  70
    32
  0
SEQEND
  8
0
  5
2F9E
  0
LINE
  5
2652
  8
0
 10
111.6892344510146
 20
59.110538895767661
 30
0.0
 11
110.0661592238714
 21
58.832695685326712
 31
0.0
  0
POLYLINE
  5
2654
  8
0
 10
99.703068091891566
 20
56.981645544371617
 30
0.0
 66
     1
 70
     8
  0
VERTEX
  8
0
  5
2F9F
 10
99.7031
 20
56.9816
 30
0.000000
  70
    32
  0
VERTEX
  8
0
  5
2FA0
 10
99.7032
 20
56.9755
 30
0.000000
  70
    32
  0
VERTEX
  8
0
  5
2FA1
 10
99.7033
 20
56.9694
 30
0.000000
  70
    32
  0
VERTEX
  8
0
  5
2FA2
 10
99.7035
 20
56.9632
 30
0.000000
  70
    32
  0
VERTEX
  8
0
  5
2FA3
 10
99.7036
 20
56.9571
 30
0.000000
  70
    32
  0
VERTEX
  8
0
  5
2FA4
 10
99.7038
 20
56.9510
 30
0.000000
  70
    32
  0
VERTEX
  8
0
  5
2FA5
 10
99.7041
 20
56.9449
 30
0.000000
  70
    32
  0
VERTEX
  8
0
  5
2FA6
 10
99.7043
 20
56.9387
 30
0.000000
  70
    32
  0
VERTEX
  8
0
  5
2FA7
 10
99.7046
 20
56.9326
 30
0.000000
  70
    32
  0
VERTEX
  8
0
  5
2FA8
 10
99.7049
 20
56.9265
 30
0.000000
  70
    32
  0
VERTEX
  8
0
  5
2FA9
 10
99.7052
 20
56.9204
 30
0.000000
  70
    32
  0
VERTEX
  8
0
  5
2FAA
 10
99.7055
 20
56.9144
 30
0.000000
  70
    32
  0
VERTEX
  8
0
  5
2FAB
 10
99.7059
 20
56.9083
 30
0.000000
  70
    32
  0
VERTEX
  8
0
  5
2FAC
 10
99.7063
 20
56.9022
 30
0.000000
  70
    32
  0
VERTEX
  8
0
  5
2FAD
 10
99.7067
 20
56.8962
 30
0.000000
  70
    32
  0
VERTEX
  8
0
  5
2FAE
 10
99.7071
 20
56.8901
 30
0.000000
  70
    32
  0
VERTEX
  8
0
  5
2FAF
 10
99.7076
 20
56.8841
 30
0.000000
  70
    32
  0
VERTEX
  8
0
  5
2FB0
 10
99.7080
 20
56.8781
 30
0.000000
  70
    32
  0
VERTEX
  8
0
  5
2FB1
 10
99.7085
 20
56.8721
 30
0.000000
  70
    32
  0
VERTEX
  8
0
  5
2FB2
 10
99.7090
 20
56.8661
 30
0.000000
  70
    32
  0
VERTEX
  8
0
  5
2FB3
 10
99.7096
 20
56.8602
 30
0.000000
  70
    32
  0
VERTEX
  8
0
  5
2FB4
 10
99.7101
 20
56.8542
 30
0.000000
  70
    32
  0
VERTEX
  8
0
  5
2FB5
 10
99.7107
 20
56.8483
 30
0.000000
  70
    32
  0
VERTEX
  8
0
  5
2FB6
 10
99.7113
 20
56.8424
 30
0.000000
  70
    32
  0
VERTEX
  8
0
  5
2FB7
 10
99.7120
 20
56.8365
 30
0.000000
  70
    32
  0
VERTEX
  8
0
  5
2FB8
 10
99.7126
 20
56.8306
 30
0.000000
  70
    32
  0
VERTEX
  8
0
  5
2FB9
 10
99.7133
 20
56.8248
 30
0.000000
  70
    32
  0
VERTEX
  8
0
  5
2FBA
 10
99.7140
 20
56.8190
 30
0.000000
  70
    32
  0
VERTEX
  8
0
  5
2FBB
 10
99.7147
 20
56.8132
 30
0.000000
  70
    32
  0
VERTEX
  8
0
  5
2FBC
 10
99.7154
 20
56.8074
 30
0.000000
  70
    32
  0
VERTEX
  8
0
  5
2FBD
 10
99.7162
 20
56.8017
 30
0.000000
  70
    32
  0
VERTEX
  8
0
  5
2FBE
 10
99.7170
 20
56.7960
 30
0.000000
  70
    32
  0
VERTEX
  8
0
  5
2FBF
 10
99.7177
 20
56.7903
 30
0.000000
  70
    32
  0
VERTEX
  8
0
  5
2FC0
 10
99.7186
 20
56.7846
 30
0.000000
  70
    32
  0
VERTEX
  8
0
  5
2FC1
 10
99.7194
 20
56.7790
 30
0.000000
  70
    32
  0
VERTEX
  8
0
  5
2FC2
 10
99.7203
 20
56.7734
 30
0.000000
  70
    32
  0
VERTEX
  8
0
  5
2FC3
 10
99.7211
 20
56.7679
 30
0.000000
  70
    32
  0
VERTEX
  8
0
  5
2FC4
 10
99.7220
 20
56.7623
 30
0.000000
  70
    32
  0
VERTEX
  8
0
  5
2FC5
 10
99.7230
 20
56.7568
 30
0.000000
  70
    32
  0
VERTEX
  8
0
  5
2FC6
 10
99.7239
 20
56.7514
 30
0.000000
  70
    32
  0
VERTEX
  8
0
  5
2FC7
 10
99.7249
 20
56.7459
 30
0.000000
  70
    32
  0
VERTEX
  8
0
  5
2FC8
 10
99.7258
 20
56.7406
 30
0.000000
  70
    32
  0
VERTEX
  8
0
  5
2FC9
 10
99.7268
 20
56.7352
 30
0.000000
  70
    32
  0
VERTEX
  8
0
  5
2FCA
 10
99.7279
 20
56.7299
 30
0.000000
  70
    32
  0
VERTEX
  8
0
  5
2FCB
 10
99.7289
 20
56.7246
 30
0.000000
  70
    32
  0
VERTEX
  8
0
  5
2FCC
 10
99.7300
 20
56.7194
 30
0.000000
  70
    32
  0
VERTEX
  8
0
  5
2FCD
 10
99.7310
 20
56.7141
 30
0.000000
  70
    32
  0
VERTEX
  8
0
  5
2FCE
 10
99.7321
 20
56.7090
 30
0.000000
  70
    32
  0
VERTEX
  8
0
  5
2FCF
 10
99.7332
 20
56.7039
 30
0.000000
  70
    32
  0
VERTEX
  8
0
  5
2FD0
 10
99.7344
 20
56.6988
 30
0.000000
  70
    32
  0
VERTEX
  8
0
  5
2FD1
 10
99.7355
 20
56.6937
 30
0.000000
  70
    32
  0
VERTEX
  8
0
  5
2FD2
 10
99.7367
 20
56.6887
 30
0.000000
  70
    32
  0
VERTEX
  8
0
  5
2FD3
 10
99.7379
 20
56.6838
 30
0.000000
  70
    32
  0
VERTEX
  8
0
  5
2FD4
 10
99.7391
 20
56.6789
 30
0.000000
  70
    32
  0
VERTEX
  8
0
  5
2FD5
 10
99.7403
 20
56.6740
 30
0.000000
  70
    32
  0
VERTEX
  8
0
  5
2FD6
 10
99.7415
 20
56.6692
 30
0.000000
  70
    32
  0
VERTEX
  8
0
  5
2FD7
 10
99.7428
 20
56.6644
 30
0.000000
  70
    32
  0
VERTEX
  8
0
  5
2FD8
 10
99.7441
 20
56.6597
 30
0.000000
  70
    32
  0
VERTEX
  8
0
  5
2FD9
 10
99.7454
 20
56.6551
 30
0.000000
  70
    32
  0
VERTEX
  8
0
  5
2FDA
 10
99.7467
 20
56.6504
 30
0.000000
  70
    32
  0
VERTEX
  8
0
  5
2FDB
 10
99.7480
 20
56.6459
 30
0.000000
  70
    32
  0
VERTEX
  8
0
  5
2FDC
 10
99.7493
 20
56.6413
 30
0.000000
  70
    32
  0
VERTEX
  8
0
  5
2FDD
 10
99.7507
 20
56.6369
 30
0.000000
  70
    32
  0
VERTEX
  8
0
  5
2FDE
 10
99.7521
 20
56.6325
 30
0.000000
  70
    32
  0
VERTEX
  8
0
  5
2FDF
 10
99.7534
 20
56.6281
 30
0.000000
  70
    32
  0
VERTEX
  8
0
  5
2FE0
 10
99.7548
 20
56.6238
 30
0.000000
  70
    32
  0
VERTEX
  8
0
  5
2FE1
 10
99.7563
 20
56.6195
 30
0.000000
  70
    32
  0
VERTEX
  8
0
  5
2FE2
 10
99.7577
 20
56.6153
 30
0.000000
  70
    32
  0
VERTEX
  8
0
  5
2FE3
 10
99.7591
 20
56.6112
 30
0.000000
  70
    32
  0
VERTEX
  8
0
  5
2FE4
 10
99.7606
 20
56.6071
 30
0.000000
  70
    32
  0
VERTEX
  8
0
  5
2FE5
 10
99.7621
 20
56.6030
 30
0.000000
  70
    32
  0
VERTEX
  8
0
  5
2FE6
 10
99.7636
 20
56.5991
 30
0.000000
  70
    32
  0
VERTEX
  8
0
  5
2FE7
 10
99.7651
 20
56.5951
 30
0.000000
  70
    32
  0
VERTEX
  8
0
  5
2FE8
 10
99.7666
 20
56.5913
 30
0.000000
  70
    32
  0
VERTEX
  8
0
  5
2FE9
 10
99.7681
 20
56.5875
 30
0.000000
  70
    32
  0
VERTEX
  8
0
  5
2FEA
 10
99.7697
 20
56.5837
 30
0.000000
  70
    32
  0
VERTEX
  8
0
  5
2FEB
 10
99.7712
 20
56.5800
 30
0.000000
  70
    32
  0
VERTEX
  8
0
  5
2FEC
 10
99.7728
 20
56.5764
 30
0.000000
  70
    32
  0
VERTEX
  8
0
  5
2FED
 10
99.7744
 20
56.5729
 30
0.000000
  70
    32
  0
VERTEX
  8
0
  5
2FEE
 10
99.7760
 20
56.5694
 30
0.000000
  70
    32
  0
VERTEX
  8
0
  5
2FEF
 10
99.7776
 20
56.5659
 30
0.000000
  70
    32
  0
VERTEX
  8
0
  5
2FF0
 10
99.7792
 20
56.5625
 30
0.000000
  70
    32
  0
VERTEX
  8
0
  5
2FF1
 10
99.7808
 20
56.5592
 30
0.000000
  70
    32
  0
VERTEX
  8
0
  5
2FF2
 10
99.7825
 20
56.5560
 30
0.000000
  70
    32
  0
VERTEX
  8
0
  5
2FF3
 10
99.7841
 20
56.5528
 30
0.000000
  70
    32
  0
VERTEX
  8
0
  5
2FF4
 10
99.7858
 20
56.5497
 30
0.000000
  70
    32
  0
VERTEX
  8
0
  5
2FF5
 10
99.7874
 20
56.5466
 30
0.000000
  70
    32
  0
VERTEX
  8
0
  5
2FF6
 10
99.7891
 20
56.5436
 30
0.000000
  70
    32
  0
VERTEX
  8
0
  5
2FF7
 10
99.7908
 20
56.5407
 30
0.000000
  70
    32
  0
VERTEX
  8
0
  5
2FF8
 10
99.7925
 20
56.5378
 30
0.000000
  70
    32
  0
VERTEX
  8
0
  5
2FF9
 10
99.7942
 20
56.5350
 30
0.000000
  70
    32
  0
VERTEX
  8
0
  5
2FFA
 10
99.7960
 20
56.5323
 30
0.000000
  70
    32
  0
VERTEX
  8
0
  5
2FFB
 10
99.7977
 20
56.5297
 30
0.000000
  70
    32
  0
VERTEX
  8
0
  5
2FFC
 10
99.7994
 20
56.5271
 30
0.000000
  70
    32
  0
VERTEX
  8
0
  5
2FFD
 10
99.8012
 20
56.5245
 30
0.000000
  70
    32
  0
VERTEX
  8
0
  5
2FFE
 10
99.8029
 20
56.5221
 30
0.000000
  70
    32
  0
VERTEX
  8
0
  5
2FFF
 10
99.8047
 20
56.5197
 30
0.000000
  70
    32
  0
VERTEX
  8
0
  5
3000
 10
99.8065
 20
56.5174
 30
0.000000
  70
    32
  0
VERTEX
  8
0
  5
3001
 10
99.8082
 20
56.5151
 30
0.000000
  70
    32
  0
VERTEX
  8
0
  5
3002
 10
99.8100
 20
56.5130
 30
0.000000
  70
    32
  0
VERTEX
  8
0
  5
3003
 10
99.8118
 20
56.5109
 30
0.000000
  70
    32
  0
VERTEX
  8
0
  5
3004
 10
99.8136
 20
56.5088
 30
0.000000
  70
    32
  0
VERTEX
  8
0
  5
3005
 10
99.8154
 20
56.5069
 30
0.000000
  70
    32
  0
VERTEX
  8
0
  5
3006
 10
99.8172
 20
56.5050
 30
0.000000
  70
    32
  0
VERTEX
  8
0
  5
3007
 10
99.8191
 20
56.5032
 30
0.000000
  70
    32
  0
VERTEX
  8
0
  5
3008
 10
99.8209
 20
56.5014
 30
0.000000
  70
    32
  0
VERTEX
  8
0
  5
3009
 10
99.8227
 20
56.4998
 30
0.000000
  70
    32
  0
VERTEX
  8
0
  5
300A
 10
99.8246
 20
56.4982
 30
0.000000
  70
    32
  0
VERTEX
  8
0
  5
300B
 10
99.8264
 20
56.4966
 30
0.000000
  70
    32
  0
VERTEX
  8
0
  5
300C
 10
99.8282
 20
56.4952
 30
0.000000
  70
    32
  0
VERTEX
  8
0
  5
300D
 10
99.8301
 20
56.4938
 30
0.000000
  70
    32
  0
VERTEX
  8
0
  5
300E
 10
99.8319
 20
56.4925
 30
0.000000
  70
    32
  0
VERTEX
  8
0
  5
300F
 10
99.8338
 20
56.4913
 30
0.000000
  70
    32
  0
VERTEX
  8
0
  5
3010
 10
99.8356
 20
56.4901
 30
0.000000
  70
    32
  0
VERTEX
  8
0
  5
3011
 10
99.8375
 20
56.4890
 30
0.000000
  70
    32
  0
VERTEX
  8
0
  5
3012
 10
99.8394
 20
56.4880
 30
0.000000
  70
    32
  0
VERTEX
  8
0
  5
3013
 10
99.8412
 20
56.4871
 30
0.000000
  70
    32
  0
VERTEX
  8
0
  5
3014
 10
99.8431
 20
56.4862
 30
0.000000
  70
    32
  0
VERTEX
  8
0
  5
3015
 10
99.8450
 20
56.4854
 30
0.000000
  70
    32
  0
VERTEX
  8
0
  5
3016
 10
99.8468
 20
56.4847
 30
0.000000
  70
    32
  0
VERTEX
  8
0
  5
3017
 10
99.8487
 20
56.4841
 30
0.000000
  70
    32
  0
VERTEX
  8
0
  5
3018
 10
99.8506
 20
56.4835
 30
0.000000
  70
    32
  0
VERTEX
  8
0
  5
3019
 10
99.8525
 20
56.4830
 30
0.000000
  70
    32
  0
VERTEX
  8
0
  5
301A
 10
99.8543
 20
56.4826
 30
0.000000
  70
    32
  0
VERTEX
  8
0
  5
301B
 10
99.8562
 20
56.4822
 30
0.000000
  70
    32
  0
VERTEX
  8
0
  5
301C
 10
99.8581
 20
56.4820
 30
0.000000
  70
    32
  0
VERTEX
  8
0
  5
301D
 10
99.8600
 20
56.4818
 30
0.000000
  70
    32
  0
VERTEX
  8
0
  5
301E
 10
99.8619
 20
56.4817
 30
0.000000
  70
    32
  0
VERTEX
  8
0
  5
301F
 10
99.8637
 20
56.4816
 30
0.000000
  70
    32
  0
SEQEND
  8
0
  5
3020
  0
LINE
  5
2655
  8
0
 10
99.703068091891566
 20
56.981645544371617
 30
0.0
 11
99.667662593453798
 21
59.19439134262052
 31
0.0
  0
LINE
  5
2657
  8
0
 10
101.78057822017379
 20
58.832695685326712
 30
0.0
 11
100.157502993031
 21
59.110538895767661
 31
0.0
  0
LINE
  5
2658
  8
0
 10
93.403278841332593
 20
59.19439134262052
 30
0.0
 11
93.399234800859517
 21
56.981645544371617
 31
0.0
  0
LINE
  5
265A
  8
0
 10
93.403278841332593
 20
59.19439134262052
 30
0.0
 11
93.439418328104196
 21
59.19439134262052
 31
0.0
  0
POLYLINE
  5
265B
  8
0
 10
93.38088453903211
 20
56.48164554437114
 30
0.0
 66
     1
 70
     8
  0
VERTEX
  8
0
  5
3021
 10
93.3809
 20
56.4816
 30
0.000000
  70
    32
  0
VERTEX
  8
0
  5
3022
 10
93.3811
 20
56.4817
 30
0.000000
  70
    32
  0
VERTEX
  8
0
  5
3023
 10
93.3813
 20
56.4818
 30
0.000000
  70
    32
  0
VERTEX
  8
0
  5
3024
 10
93.3815
 20
56.4820
 30
0.000000
  70
    32
  0
VERTEX
  8
0
  5
3025
 10
93.3817
 20
56.4822
 30
0.000000
  70
    32
  0
VERTEX
  8
0
  5
3026
 10
93.3820
 20
56.4826
 30
0.000000
  70
    32
  0
VERTEX
  8
0
  5
3027
 10
93.3822
 20
56.4830
 30
0.000000
  70
    32
  0
VERTEX
  8
0
  5
3028
 10
93.3824
 20
56.4835
 30
0.000000
  70
    32
  0
VERTEX
  8
0
  5
3029
 10
93.3826
 20
56.4841
 30
0.000000
  70
    32
  0
VERTEX
  8
0
  5
302A
 10
93.3828
 20
56.4847
 30
0.000000
  70
    32
  0
VERTEX
  8
0
  5
302B
 10
93.3830
 20
56.4854
 30
0.000000
  70
    32
  0
VERTEX
  8
0
  5
302C
 10
93.3832
 20
56.4862
 30
0.000000
  70
    32
  0
VERTEX
  8
0
  5
302D
 10
93.3835
 20
56.4871
 30
0.000000
  70
    32
  0
VERTEX
  8
0
  5
302E
 10
93.3837
 20
56.4880
 30
0.000000
  70
    32
  0
VERTEX
  8
0
  5
302F
 10
93.3839
 20
56.4890
 30
0.000000
  70
    32
  0
VERTEX
  8
0
  5
3030
 10
93.3841
 20
56.4901
 30
0.000000
  70
    32
  0
VERTEX
  8
0
  5
3031
 10
93.3843
 20
56.4913
 30
0.000000
  70
    32
  0
VERTEX
  8
0
  5
3032
 10
93.3845
 20
56.4925
 30
0.000000
  70
    32
  0
VERTEX
  8
0
  5
3033
 10
93.3847
 20
56.4938
 30
0.000000
  70
    32
  0
VERTEX
  8
0
  5
3034
 10
93.3849
 20
56.4952
 30
0.000000
  70
    32
  0
VERTEX
  8
0
  5
3035
 10
93.3851
 20
56.4966
 30
0.000000
  70
    32
  0
VERTEX
  8
0
  5
3036
 10
93.3854
 20
56.4982
 30
0.000000
  70
    32
  0
VERTEX
  8
0
  5
3037
 10
93.3856
 20
56.4998
 30
0.000000
  70
    32
  0
VERTEX
  8
0
  5
3038
 10
93.3858
 20
56.5014
 30
0.000000
  70
    32
  0
VERTEX
  8
0
  5
3039
 10
93.3860
 20
56.5032
 30
0.000000
  70
    32
  0
VERTEX
  8
0
  5
303A
 10
93.3862
 20
56.5050
 30
0.000000
  70
    32
  0
VERTEX
  8
0
  5
303B
 10
93.3864
 20
56.5069
 30
0.000000
  70
    32
  0
VERTEX
  8
0
  5
303C
 10
93.3866
 20
56.5088
 30
0.000000
  70
    32
  0
VERTEX
  8
0
  5
303D
 10
93.3868
 20
56.5109
 30
0.000000
  70
    32
  0
VERTEX
  8
0
  5
303E
 10
93.3870
 20
56.5130
 30
0.000000
  70
    32
  0
VERTEX
  8
0
  5
303F
 10
93.3872
 20
56.5151
 30
0.000000
  70
    32
  0
VERTEX
  8
0
  5
3040
 10
93.3874
 20
56.5174
 30
0.000000
  70
    32
  0
VERTEX
  8
0
  5
3041
 10
93.3876
 20
56.5197
 30
0.000000
  70
    32
  0
VERTEX
  8
0
  5
3042
 10
93.3878
 20
56.5221
 30
0.000000
  70
    32
  0
VERTEX
  8
0
  5
3043
 10
93.3880
 20
56.5245
 30
0.000000
  70
    32
  0
VERTEX
  8
0
  5
3044
 10
93.3882
 20
56.5271
 30
0.000000
  70
    32
  0
VERTEX
  8
0
  5
3045
 10
93.3884
 20
56.5297
 30
0.000000
  70
    32
  0
VERTEX
  8
0
  5
3046
 10
93.3886
 20
56.5323
 30
0.000000
  70
    32
  0
VERTEX
  8
0
  5
3047
 10
93.3888
 20
56.5350
 30
0.000000
  70
    32
  0
VERTEX
  8
0
  5
3048
 10
93.3890
 20
56.5378
 30
0.000000
  70
    32
  0
VERTEX
  8
0
  5
3049
 10
93.3892
 20
56.5407
 30
0.000000
  70
    32
  0
VERTEX
  8
0
  5
304A
 10
93.3894
 20
56.5436
 30
0.000000
  70
    32
  0
VERTEX
  8
0
  5
304B
 10
93.3896
 20
56.5466
 30
0.000000
  70
    32
  0
VERTEX
  8
0
  5
304C
 10
93.3898
 20
56.5497
 30
0.000000
  70
    32
  0
VERTEX
  8
0
  5
304D
 10
93.3900
 20
56.5528
 30
0.000000
  70
    32
  0
VERTEX
  8
0
  5
304E
 10
93.3902
 20
56.5560
 30
0.000000
  70
    32
  0
VERTEX
  8
0
  5
304F
 10
93.3904
 20
56.5592
 30
0.000000
  70
    32
  0
VERTEX
  8
0
  5
3050
 10
93.3905
 20
56.5625
 30
0.000000
  70
    32
  0
VERTEX
  8
0
  5
3051
 10
93.3907
 20
56.5659
 30
0.000000
  70
    32
  0
VERTEX
  8
0
  5
3052
 10
93.3909
 20
56.5694
 30
0.000000
  70
    32
  0
VERTEX
  8
0
  5
3053
 10
93.3911
 20
56.5729
 30
0.000000
  70
    32
  0
VERTEX
  8
0
  5
3054
 10
93.3913
 20
56.5764
 30
0.000000
  70
    32
  0
VERTEX
  8
0
  5
3055
 10
93.3915
 20
56.5800
 30
0.000000
  70
    32
  0
VERTEX
  8
0
  5
3056
 10
93.3916
 20
56.5837
 30
0.000000
  70
    32
  0
VERTEX
  8
0
  5
3057
 10
93.3918
 20
56.5875
 30
0.000000
  70
    32
  0
VERTEX
  8
0
  5
3058
 10
93.3920
 20
56.5913
 30
0.000000
  70
    32
  0
VERTEX
  8
0
  5
3059
 10
93.3922
 20
56.5951
 30
0.000000
  70
    32
  0
VERTEX
  8
0
  5
305A
 10
93.3923
 20
56.5991
 30
0.000000
  70
    32
  0
VERTEX
  8
0
  5
305B
 10
93.3925
 20
56.6030
 30
0.000000
  70
    32
  0
VERTEX
  8
0
  5
305C
 10
93.3927
 20
56.6071
 30
0.000000
  70
    32
  0
VERTEX
  8
0
  5
305D
 10
93.3928
 20
56.6112
 30
0.000000
  70
    32
  0
VERTEX
  8
0
  5
305E
 10
93.3930
 20
56.6153
 30
0.000000
  70
    32
  0
VERTEX
  8
0
  5
305F
 10
93.3932
 20
56.6195
 30
0.000000
  70
    32
  0
VERTEX
  8
0
  5
3060
 10
93.3933
 20
56.6238
 30
0.000000
  70
    32
  0
VERTEX
  8
0
  5
3061
 10
93.3935
 20
56.6281
 30
0.000000
  70
    32
  0
VERTEX
  8
0
  5
3062
 10
93.3936
 20
56.6325
 30
0.000000
  70
    32
  0
VERTEX
  8
0
  5
3063
 10
93.3938
 20
56.6369
 30
0.000000
  70
    32
  0
VERTEX
  8
0
  5
3064
 10
93.3940
 20
56.6413
 30
0.000000
  70
    32
  0
VERTEX
  8
0
  5
3065
 10
93.3941
 20
56.6459
 30
0.000000
  70
    32
  0
VERTEX
  8
0
  5
3066
 10
93.3943
 20
56.6504
 30
0.000000
  70
    32
  0
VERTEX
  8
0
  5
3067
 10
93.3944
 20
56.6551
 30
0.000000
  70
    32
  0
VERTEX
  8
0
  5
3068
 10
93.3946
 20
56.6597
 30
0.000000
  70
    32
  0
VERTEX
  8
0
  5
3069
 10
93.3947
 20
56.6644
 30
0.000000
  70
    32
  0
VERTEX
  8
0
  5
306A
 10
93.3948
 20
56.6692
 30
0.000000
  70
    32
  0
VERTEX
  8
0
  5
306B
 10
93.3950
 20
56.6740
 30
0.000000
  70
    32
  0
VERTEX
  8
0
  5
306C
 10
93.3951
 20
56.6789
 30
0.000000
  70
    32
  0
VERTEX
  8
0
  5
306D
 10
93.3953
 20
56.6838
 30
0.000000
  70
    32
  0
VERTEX
  8
0
  5
306E
 10
93.3954
 20
56.6887
 30
0.000000
  70
    32
  0
VERTEX
  8
0
  5
306F
 10
93.3955
 20
56.6937
 30
0.000000
  70
    32
  0
VERTEX
  8
0
  5
3070
 10
93.3957
 20
56.6988
 30
0.000000
  70
    32
  0
VERTEX
  8
0
  5
3071
 10
93.3958
 20
56.7039
 30
0.000000
  70
    32
  0
VERTEX
  8
0
  5
3072
 10
93.3959
 20
56.7090
 30
0.000000
  70
    32
  0
VERTEX
  8
0
  5
3073
 10
93.3960
 20
56.7141
 30
0.000000
  70
    32
  0
VERTEX
  8
0
  5
3074
 10
93.3962
 20
56.7194
 30
0.000000
  70
    32
  0
VERTEX
  8
0
  5
3075
 10
93.3963
 20
56.7246
 30
0.000000
  70
    32
  0
VERTEX
  8
0
  5
3076
 10
93.3964
 20
56.7299
 30
0.000000
  70
    32
  0
VERTEX
  8
0
  5
3077
 10
93.3965
 20
56.7352
 30
0.000000
  70
    32
  0
VERTEX
  8
0
  5
3078
 10
93.3966
 20
56.7406
 30
0.000000
  70
    32
  0
VERTEX
  8
0
  5
3079
 10
93.3967
 20
56.7459
 30
0.000000
  70
    32
  0
VERTEX
  8
0
  5
307A
 10
93.3969
 20
56.7514
 30
0.000000
  70
    32
  0
VERTEX
  8
0
  5
307B
 10
93.3970
 20
56.7568
 30
0.000000
  70
    32
  0
VERTEX
  8
0
  5
307C
 10
93.3971
 20
56.7623
 30
0.000000
  70
    32
  0
VERTEX
  8
0
  5
307D
 10
93.3972
 20
56.7679
 30
0.000000
  70
    32
  0
VERTEX
  8
0
  5
307E
 10
93.3973
 20
56.7734
 30
0.000000
  70
    32
  0
VERTEX
  8
0
  5
307F
 10
93.3974
 20
56.7790
 30
0.000000
  70
    32
  0
VERTEX
  8
0
  5
3080
 10
93.3975
 20
56.7846
 30
0.000000
  70
    32
  0
VERTEX
  8
0
  5
3081
 10
93.3976
 20
56.7903
 30
0.000000
  70
    32
  0
VERTEX
  8
0
  5
3082
 10
93.3976
 20
56.7960
 30
0.000000
  70
    32
  0
VERTEX
  8
0
  5
3083
 10
93.3977
 20
56.8017
 30
0.000000
  70
    32
  0
VERTEX
  8
0
  5
3084
 10
93.3978
 20
56.8074
 30
0.000000
  70
    32
  0
VERTEX
  8
0
  5
3085
 10
93.3979
 20
56.8132
 30
0.000000
  70
    32
  0
VERTEX
  8
0
  5
3086
 10
93.3980
 20
56.8190
 30
0.000000
  70
    32
  0
VERTEX
  8
0
  5
3087
 10
93.3981
 20
56.8248
 30
0.000000
  70
    32
  0
VERTEX
  8
0
  5
3088
 10
93.3981
 20
56.8306
 30
0.000000
  70
    32
  0
VERTEX
  8
0
  5
3089
 10
93.3982
 20
56.8365
 30
0.000000
  70
    32
  0
VERTEX
  8
0
  5
308A
 10
93.3983
 20
56.8424
 30
0.000000
  70
    32
  0
VERTEX
  8
0
  5
308B
 10
93.3984
 20
56.8483
 30
0.000000
  70
    32
  0
VERTEX
  8
0
  5
308C
 10
93.3984
 20
56.8542
 30
0.000000
  70
    32
  0
VERTEX
  8
0
  5
308D
 10
93.3985
 20
56.8602
 30
0.000000
  70
    32
  0
VERTEX
  8
0
  5
308E
 10
93.3986
 20
56.8661
 30
0.000000
  70
    32
  0
VERTEX
  8
0
  5
308F
 10
93.3986
 20
56.8721
 30
0.000000
  70
    32
  0
VERTEX
  8
0
  5
3090
 10
93.3987
 20
56.8781
 30
0.000000
  70
    32
  0
VERTEX
  8
0
  5
3091
 10
93.3987
 20
56.8841
 30
0.000000
  70
    32
  0
VERTEX
  8
0
  5
3092
 10
93.3988
 20
56.8901
 30
0.000000
  70
    32
  0
VERTEX
  8
0
  5
3093
 10
93.3988
 20
56.8962
 30
0.000000
  70
    32
  0
VERTEX
  8
0
  5
3094
 10
93.3989
 20
56.9022
 30
0.000000
  70
    32
  0
VERTEX
  8
0
  5
3095
 10
93.3989
 20
56.9083
 30
0.000000
  70
    32
  0
VERTEX
  8
0
  5
3096
 10
93.3990
 20
56.9144
 30
0.000000
  70
    32
  0
VERTEX
  8
0
  5
3097
 10
93.3990
 20
56.9204
 30
0.000000
  70
    32
  0
VERTEX
  8
0
  5
3098
 10
93.3990
 20
56.9265
 30
0.000000
  70
    32
  0
VERTEX
  8
0
  5
3099
 10
93.3991
 20
56.9326
 30
0.000000
  70
    32
  0
VERTEX
  8
0
  5
309A
 10
93.3991
 20
56.9387
 30
0.000000
  70
    32
  0
VERTEX
  8
0
  5
309B
 10
93.3991
 20
56.9449
 30
0.000000
  70
    32
  0
VERTEX
  8
0
  5
309C
 10
93.3991
 20
56.9510
 30
0.000000
  70
    32
  0
VERTEX
  8
0
  5
309D
 10
93.3992
 20
56.9571
 30
0.000000
  70
    32
  0
VERTEX
  8
0
  5
309E
 10
93.3992
 20
56.9632
 30
0.000000
  70
    32
  0
VERTEX
  8
0
  5
309F
 10
93.3992
 20
56.9694
 30
0.000000
  70
    32
  0
VERTEX
  8
0
  5
30A0
 10
93.3992
 20
56.9755
 30
0.000000
  70
    32
  0
VERTEX
  8
0
  5
30A1
 10
93.3992
 20
56.9816
 30
0.000000
  70
    32
  0
SEQEND
  8
0
  5
30A2
  0
LINE
  5
265E
  8
0
 10
93.173368722022786
 20
56.481645544371133
 30
0.0
 11
93.173368722022786
 21
58.849823736604101
 31
0.0
  0
LINE
  5
265F
  8
0
 10
93.403278841332593
 20
59.19439134262052
 30
0.0
 11
93.173368722022786
 21
58.849823736604101
 31
0.0
  0
LINE
  5
2660
  8
0
 10
109.10985446790851
 20
56.481645544371133
 30
0.0
 11
109.10985446790851
 21
58.795661281828806
 31
0.0
  0
ARC
  5
2662
  8
0
 10
109.26446725593679
 20
67.168638644709645
 30
0.0
 40
8.3744047569685272
 50
268.94211423790239
 51
275.49340734403302
  0
LINE
  5
2663
  8
0
 10
102.7368829761368
 20
56.481645544371133
 30
0.0
 11
102.7368829761368
 21
58.795661281828806
 31
0.0
  0
ARC
  5
2665
  8
0
 10
102.58227018810901
 20
67.168638644720886
 30
0.0
 40
8.3744047569797608
 50
264.50659265597022
 51
271.05788576209591
  0
LINE
  5
2667
  8
0
 10
109.10985446790851
 20
58.795661281828806
 30
0.0
 11
102.7368829761368
 21
58.795661281828806
 31
0.0
  0
POLYLINE
  5
2689
  8
0
 10
38.673977895003794
 20
58.796092220069411
 30
0.0
 66
     1
 70
     8
  0
VERTEX
  8
0
  5
30A3
 10
38.6740
 20
58.7961
 30
0.000000
  70
    32
  0
VERTEX
  8
0
  5
30A4
 10
38.6860
 20
58.7961
 30
0.000000
  70
    32
  0
VERTEX
  8
0
  5
30A5
 10
38.6980
 20
58.7961
 30
0.000000
  70
    32
  0
VERTEX
  8
0
  5
30A6
 10
38.7100
 20
58.7961
 30
0.000000
  70
    32
  0
VERTEX
  8
0
  5
30A7
 10
38.7220
 20
58.7962
 30
0.000000
  70
    32
  0
VERTEX
  8
0
  5
30A8
 10
38.7339
 20
58.7962
 30
0.000000
  70
    32
  0
VERTEX
  8
0
  5
30A9
 10
38.7459
 20
58.7962
 30
0.000000
  70
    32
  0
VERTEX
  8
0
  5
30AA
 10
38.7579
 20
58.7963
 30
0.000000
  70
    32
  0
VERTEX
  8
0
  5
30AB
 10
38.7698
 20
58.7963
 30
0.000000
  70
    32
  0
VERTEX
  8
0
  5
30AC
 10
38.7818
 20
58.7964
 30
0.000000
  70
    32
  0
VERTEX
  8
0
  5
30AD
 10
38.7937
 20
58.7965
 30
0.000000
  70
    32
  0
VERTEX
  8
0
  5
30AE
 10
38.8056
 20
58.7965
 30
0.000000
  70
    32
  0
VERTEX
  8
0
  5
30AF
 10
38.8175
 20
58.7966
 30
0.000000
  70
    32
  0
VERTEX
  8
0
  5
30B0
 10
38.8293
 20
58.7967
 30
0.000000
  70
    32
  0
VERTEX
  8
0
  5
30B1
 10
38.8412
 20
58.7968
 30
0.000000
  70
    32
  0
VERTEX
  8
0
  5
30B2
 10
38.8530
 20
58.7969
 30
0.000000
  70
    32
  0
VERTEX
  8
0
  5
30B3
 10
38.8648
 20
58.7971
 30
0.000000
  70
    32
  0
VERTEX
  8
0
  5
30B4
 10
38.8766
 20
58.7972
 30
0.000000
  70
    32
  0
VERTEX
  8
0
  5
30B5
 10
38.8883
 20
58.7973
 30
0.000000
  70
    32
  0
VERTEX
  8
0
  5
30B6
 10
38.9000
 20
58.7974
 30
0.000000
  70
    32
  0
VERTEX
  8
0
  5
30B7
 10
38.9117
 20
58.7976
 30
0.000000
  70
    32
  0
VERTEX
  8
0
  5
30B8
 10
38.9233
 20
58.7977
 30
0.000000
  70
    32
  0
VERTEX
  8
0
  5
30B9
 10
38.9349
 20
58.7979
 30
0.000000
  70
    32
  0
VERTEX
  8
0
  5
30BA
 10
38.9465
 20
58.7981
 30
0.000000
  70
    32
  0
VERTEX
  8
0
  5
30BB
 10
38.9580
 20
58.7983
 30
0.000000
  70
    32
  0
VERTEX
  8
0
  5
30BC
 10
38.9695
 20
58.7984
 30
0.000000
  70
    32
  0
VERTEX
  8
0
  5
30BD
 10
38.9809
 20
58.7986
 30
0.000000
  70
    32
  0
VERTEX
  8
0
  5
30BE
 10
38.9923
 20
58.7988
 30
0.000000
  70
    32
  0
VERTEX
  8
0
  5
30BF
 10
39.0037
 20
58.7990
 30
0.000000
  70
    32
  0
VERTEX
  8
0
  5
30C0
 10
39.0150
 20
58.7992
 30
0.000000
  70
    32
  0
VERTEX
  8
0
  5
30C1
 10
39.0262
 20
58.7995
 30
0.000000
  70
    32
  0
VERTEX
  8
0
  5
30C2
 10
39.0374
 20
58.7997
 30
0.000000
  70
    32
  0
VERTEX
  8
0
  5
30C3
 10
39.0486
 20
58.7999
 30
0.000000
  70
    32
  0
VERTEX
  8
0
  5
30C4
 10
39.0597
 20
58.8001
 30
0.000000
  70
    32
  0
VERTEX
  8
0
  5
30C5
 10
39.0707
 20
58.8004
 30
0.000000
  70
    32
  0
VERTEX
  8
0
  5
30C6
 10
39.0817
 20
58.8006
 30
0.000000
  70
    32
  0
VERTEX
  8
0
  5
30C7
 10
39.0926
 20
58.8009
 30
0.000000
  70
    32
  0
VERTEX
  8
0
  5
30C8
 10
39.1035
 20
58.8012
 30
0.000000
  70
    32
  0
VERTEX
  8
0
  5
30C9
 10
39.1143
 20
58.8014
 30
0.000000
  70
    32
  0
VERTEX
  8
0
  5
30CA
 10
39.1251
 20
58.8017
 30
0.000000
  70
    32
  0
VERTEX
  8
0
  5
30CB
 10
39.1357
 20
58.8020
 30
0.000000
  70
    32
  0
VERTEX
  8
0
  5
30CC
 10
39.1463
 20
58.8023
 30
0.000000
  70
    32
  0
VERTEX
  8
0
  5
30CD
 10
39.1569
 20
58.8026
 30
0.000000
  70
    32
  0
VERTEX
  8
0
  5
30CE
 10
39.1674
 20
58.8029
 30
0.000000
  70
    32
  0
VERTEX
  8
0
  5
30CF
 10
39.1778
 20
58.8032
 30
0.000000
  70
    32
  0
VERTEX
  8
0
  5
30D0
 10
39.1881
 20
58.8035
 30
0.000000
  70
    32
  0
VERTEX
  8
0
  5
30D1
 10
39.1983
 20
58.8039
 30
0.000000
  70
    32
  0
VERTEX
  8
0
  5
30D2
 10
39.2085
 20
58.8042
 30
0.000000
  70
    32
  0
VERTEX
  8
0
  5
30D3
 10
39.2186
 20
58.8045
 30
0.000000
  70
    32
  0
VERTEX
  8
0
  5
30D4
 10
39.2286
 20
58.8049
 30
0.000000
  70
    32
  0
VERTEX
  8
0
  5
30D5
 10
39.2386
 20
58.8052
 30
0.000000
  70
    32
  0
VERTEX
  8
0
  5
30D6
 10
39.2484
 20
58.8056
 30
0.000000
  70
    32
  0
VERTEX
  8
0
  5
30D7
 10
39.2582
 20
58.8060
 30
0.000000
  70
    32
  0
VERTEX
  8
0
  5
30D8
 10
39.2679
 20
58.8063
 30
0.000000
  70
    32
  0
VERTEX
  8
0
  5
30D9
 10
39.2775
 20
58.8067
 30
0.000000
  70
    32
  0
VERTEX
  8
0
  5
30DA
 10
39.2871
 20
58.8071
 30
0.000000
  70
    32
  0
VERTEX
  8
0
  5
30DB
 10
39.2965
 20
58.8075
 30
0.000000
  70
    32
  0
VERTEX
  8
0
  5
30DC
 10
39.3058
 20
58.8079
 30
0.000000
  70
    32
  0
VERTEX
  8
0
  5
30DD
 10
39.3151
 20
58.8083
 30
0.000000
  70
    32
  0
VERTEX
  8
0
  5
30DE
 10
39.3243
 20
58.8087
 30
0.000000
  70
    32
  0
VERTEX
  8
0
  5
30DF
 10
39.3333
 20
58.8091
 30
0.000000
  70
    32
  0
VERTEX
  8
0
  5
30E0
 10
39.3423
 20
58.8095
 30
0.000000
  70
    32
  0
VERTEX
  8
0
  5
30E1
 10
39.3512
 20
58.8099
 30
0.000000
  70
    32
  0
VERTEX
  8
0
  5
30E2
 10
39.3600
 20
58.8104
 30
0.000000
  70
    32
  0
VERTEX
  8
0
  5
30E3
 10
39.3686
 20
58.8108
 30
0.000000
  70
    32
  0
VERTEX
  8
0
  5
30E4
 10
39.3772
 20
58.8112
 30
0.000000
  70
    32
  0
VERTEX
  8
0
  5
30E5
 10
39.3857
 20
58.8117
 30
0.000000
  70
    32
  0
VERTEX
  8
0
  5
30E6
 10
39.3941
 20
58.8121
 30
0.000000
  70
    32
  0
VERTEX
  8
0
  5
30E7
 10
39.4023
 20
58.8126
 30
0.000000
  70
    32
  0
VERTEX
  8
0
  5
30E8
 10
39.4105
 20
58.8131
 30
0.000000
  70
    32
  0
VERTEX
  8
0
  5
30E9
 10
39.4186
 20
58.8135
 30
0.000000
  70
    32
  0
VERTEX
  8
0
  5
30EA
 10
39.4265
 20
58.8140
 30
0.000000
  70
    32
  0
VERTEX
  8
0
  5
30EB
 10
39.4344
 20
58.8145
 30
0.000000
  70
    32
  0
VERTEX
  8
0
  5
30EC
 10
39.4421
 20
58.8149
 30
0.000000
  70
    32
  0
VERTEX
  8
0
  5
30ED
 10
39.4497
 20
58.8154
 30
0.000000
  70
    32
  0
VERTEX
  8
0
  5
30EE
 10
39.4573
 20
58.8159
 30
0.000000
  70
    32
  0
VERTEX
  8
0
  5
30EF
 10
39.4647
 20
58.8164
 30
0.000000
  70
    32
  0
VERTEX
  8
0
  5
30F0
 10
39.4720
 20
58.8169
 30
0.000000
  70
    32
  0
VERTEX
  8
0
  5
30F1
 10
39.4791
 20
58.8174
 30
0.000000
  70
    32
  0
VERTEX
  8
0
  5
30F2
 10
39.4862
 20
58.8179
 30
0.000000
  70
    32
  0
VERTEX
  8
0
  5
30F3
 10
39.4931
 20
58.8184
 30
0.000000
  70
    32
  0
VERTEX
  8
0
  5
30F4
 10
39.5000
 20
58.8190
 30
0.000000
  70
    32
  0
VERTEX
  8
0
  5
30F5
 10
39.5067
 20
58.8195
 30
0.000000
  70
    32
  0
VERTEX
  8
0
  5
30F6
 10
39.5132
 20
58.8200
 30
0.000000
  70
    32
  0
VERTEX
  8
0
  5
30F7
 10
39.5197
 20
58.8205
 30
0.000000
  70
    32
  0
VERTEX
  8
0
  5
30F8
 10
39.5260
 20
58.8211
 30
0.000000
  70
    32
  0
VERTEX
  8
0
  5
30F9
 10
39.5323
 20
58.8216
 30
0.000000
  70
    32
  0
VERTEX
  8
0
  5
30FA
 10
39.5384
 20
58.8221
 30
0.000000
  70
    32
  0
VERTEX
  8
0
  5
30FB
 10
39.5443
 20
58.8227
 30
0.000000
  70
    32
  0
VERTEX
  8
0
  5
30FC
 10
39.5502
 20
58.8232
 30
0.000000
  70
    32
  0
VERTEX
  8
0
  5
30FD
 10
39.5559
 20
58.8238
 30
0.000000
  70
    32
  0
VERTEX
  8
0
  5
30FE
 10
39.5615
 20
58.8244
 30
0.000000
  70
    32
  0
VERTEX
  8
0
  5
30FF
 10
39.5670
 20
58.8249
 30
0.000000
  70
    32
  0
VERTEX
  8
0
  5
3100
 10
39.5723
 20
58.8255
 30
0.000000
  70
    32
  0
VERTEX
  8
0
  5
3101
 10
39.5775
 20
58.8260
 30
0.000000
  70
    32
  0
VERTEX
  8
0
  5
3102
 10
39.5826
 20
58.8266
 30
0.000000
  70
    32
  0
VERTEX
  8
0
  5
3103
 10
39.5875
 20
58.8272
 30
0.000000
  70
    32
  0
VERTEX
  8
0
  5
3104
 10
39.5923
 20
58.8278
 30
0.000000
  70
    32
  0
VERTEX
  8
0
  5
3105
 10
39.5970
 20
58.8283
 30
0.000000
  70
    32
  0
VERTEX
  8
0
  5
3106
 10
39.6016
 20
58.8289
 30
0.000000
  70
    32
  0
VERTEX
  8
0
  5
3107
 10
39.6060
 20
58.8295
 30
0.000000
  70
    32
  0
VERTEX
  8
0
  5
3108
 10
39.6103
 20
58.8301
 30
0.000000
  70
    32
  0
VERTEX
  8
0
  5
3109
 10
39.6144
 20
58.8307
 30
0.000000
  70
    32
  0
VERTEX
  8
0
  5
310A
 10
39.6184
 20
58.8313
 30
0.000000
  70
    32
  0
VERTEX
  8
0
  5
310B
 10
39.6223
 20
58.8319
 30
0.000000
  70
    32
  0
VERTEX
  8
0
  5
310C
 10
39.6260
 20
58.8325
 30
0.000000
  70
    32
  0
VERTEX
  8
0
  5
310D
 10
39.6296
 20
58.8331
 30
0.000000
  70
    32
  0
VERTEX
  8
0
  5
310E
 10
39.6331
 20
58.8337
 30
0.000000
  70
    32
  0
VERTEX
  8
0
  5
310F
 10
39.6364
 20
58.8343
 30
0.000000
  70
    32
  0
VERTEX
  8
0
  5
3110
 10
39.6396
 20
58.8349
 30
0.000000
  70
    32
  0
VERTEX
  8
0
  5
3111
 10
39.6427
 20
58.8355
 30
0.000000
  70
    32
  0
VERTEX
  8
0
  5
3112
 10
39.6456
 20
58.8361
 30
0.000000
  70
    32
  0
VERTEX
  8
0
  5
3113
 10
39.6483
 20
58.8367
 30
0.000000
  70
    32
  0
VERTEX
  8
0
  5
3114
 10
39.6510
 20
58.8373
 30
0.000000
  70
    32
  0
VERTEX
  8
0
  5
3115
 10
39.6535
 20
58.8379
 30
0.000000
  70
    32
  0
VERTEX
  8
0
  5
3116
 10
39.6558
 20
58.8386
 30
0.000000
  70
    32
  0
VERTEX
  8
0
  5
3117
 10
39.6580
 20
58.8392
 30
0.000000
  70
    32
  0
VERTEX
  8
0
  5
3118
 10
39.6601
 20
58.8398
 30
0.000000
  70
    32
  0
VERTEX
  8
0
  5
3119
 10
39.6620
 20
58.8404
 30
0.000000
  70
    32
  0
VERTEX
  8
0
  5
311A
 10
39.6638
 20
58.8410
 30
0.000000
  70
    32
  0
VERTEX
  8
0
  5
311B
 10
39.6654
 20
58.8417
 30
0.000000
  70
    32
  0
VERTEX
  8
0
  5
311C
 10
39.6669
 20
58.8423
 30
0.000000
  70
    32
  0
VERTEX
  8
0
  5
311D
 10
39.6683
 20
58.8429
 30
0.000000
  70
    32
  0
VERTEX
  8
0
  5
311E
 10
39.6695
 20
58.8435
 30
0.000000
  70
    32
  0
VERTEX
  8
0
  5
311F
 10
39.6705
 20
58.8442
 30
0.000000
  70
    32
  0
VERTEX
  8
0
  5
3120
 10
39.6715
 20
58.8448
 30
0.000000
  70
    32
  0
VERTEX
  8
0
  5
3121
 10
39.6722
 20
58.8454
 30
0.000000
  70
    32
  0
VERTEX
  8
0
  5
3122
 10
39.6729
 20
58.8460
 30
0.000000
  70
    32
  0
VERTEX
  8
0
  5
3123
 10
39.6734
 20
58.8467
 30
0.000000
  70
    32
  0
SEQEND
  8
0
  5
3124
  0
LINE
  5
268A
  8
0
 10
38.673977895003787
 20
58.796092220069397
 30
0.0
 11
33.237713885802812
 21
58.796092220069397
 31
0.0
  0
POLYLINE
  5
268B
  8
0
 10
33.237713885802805
 20
58.796092220069418
 30
0.0
 66
     1
 70
     8
  0
VERTEX
  8
0
  5
3125
 10
33.2377
 20
58.7961
 30
0.000000
  70
    32
  0
VERTEX
  8
0
  5
3126
 10
33.2278
 20
58.7961
 30
0.000000
  70
    32
  0
VERTEX
  8
0
  5
3127
 10
33.2178
 20
58.7961
 30
0.000000
  70
    32
  0
VERTEX
  8
0
  5
3128
 10
33.2079
 20
58.7961
 30
0.000000
  70
    32
  0
VERTEX
  8
0
  5
3129
 10
33.1979
 20
58.7961
 30
0.000000
  70
    32
  0
VERTEX
  8
0
  5
312A
 10
33.1880
 20
58.7960
 30
0.000000
  70
    32
  0
VERTEX
  8
0
  5
312B
 10
33.1780
 20
58.7960
 30
0.000000
  70
    32
  0
VERTEX
  8
0
  5
312C
 10
33.1681
 20
58.7960
 30
0.000000
  70
    32
  0
VERTEX
  8
0
  5
312D
 10
33.1582
 20
58.7959
 30
0.000000
  70
    32
  0
VERTEX
  8
0
  5
312E
 10
33.1482
 20
58.7959
 30
0.000000
  70
    32
  0
VERTEX
  8
0
  5
312F
 10
33.1383
 20
58.7958
 30
0.000000
  70
    32
  0
VERTEX
  8
0
  5
3130
 10
33.1284
 20
58.7958
 30
0.000000
  70
    32
  0
VERTEX
  8
0
  5
3131
 10
33.1186
 20
58.7957
 30
0.000000
  70
    32
  0
VERTEX
  8
0
  5
3132
 10
33.1087
 20
58.7957
 30
0.000000
  70
    32
  0
VERTEX
  8
0
  5
3133
 10
33.0988
 20
58.7956
 30
0.000000
  70
    32
  0
VERTEX
  8
0
  5
3134
 10
33.0890
 20
58.7955
 30
0.000000
  70
    32
  0
VERTEX
  8
0
  5
3135
 10
33.0791
 20
58.7954
 30
0.000000
  70
    32
  0
VERTEX
  8
0
  5
3136
 10
33.0693
 20
58.7953
 30
0.000000
  70
    32
  0
VERTEX
  8
0
  5
3137
 10
33.0595
 20
58.7953
 30
0.000000
  70
    32
  0
VERTEX
  8
0
  5
3138
 10
33.0497
 20
58.7952
 30
0.000000
  70
    32
  0
VERTEX
  8
0
  5
3139
 10
33.0399
 20
58.7951
 30
0.000000
  70
    32
  0
VERTEX
  8
0
  5
313A
 10
33.0302
 20
58.7950
 30
0.000000
  70
    32
  0
VERTEX
  8
0
  5
313B
 10
33.0205
 20
58.7948
 30
0.000000
  70
    32
  0
VERTEX
  8
0
  5
313C
 10
33.0108
 20
58.7947
 30
0.000000
  70
    32
  0
VERTEX
  8
0
  5
313D
 10
33.0011
 20
58.7946
 30
0.000000
  70
    32
  0
VERTEX
  8
0
  5
313E
 10
32.9914
 20
58.7945
 30
0.000000
  70
    32
  0
VERTEX
  8
0
  5
313F
 10
32.9818
 20
58.7943
 30
0.000000
  70
    32
  0
VERTEX
  8
0
  5
3140
 10
32.9722
 20
58.7942
 30
0.000000
  70
    32
  0
VERTEX
  8
0
  5
3141
 10
32.9626
 20
58.7941
 30
0.000000
  70
    32
  0
VERTEX
  8
0
  5
3142
 10
32.9530
 20
58.7939
 30
0.000000
  70
    32
  0
VERTEX
  8
0
  5
3143
 10
32.9435
 20
58.7938
 30
0.000000
  70
    32
  0
VERTEX
  8
0
  5
3144
 10
32.9340
 20
58.7936
 30
0.000000
  70
    32
  0
VERTEX
  8
0
  5
3145
 10
32.9246
 20
58.7935
 30
0.000000
  70
    32
  0
VERTEX
  8
0
  5
3146
 10
32.9151
 20
58.7933
 30
0.000000
  70
    32
  0
VERTEX
  8
0
  5
3147
 10
32.9057
 20
58.7931
 30
0.000000
  70
    32
  0
VERTEX
  8
0
  5
3148
 10
32.8963
 20
58.7929
 30
0.000000
  70
    32
  0
VERTEX
  8
0
  5
3149
 10
32.8870
 20
58.7928
 30
0.000000
  70
    32
  0
VERTEX
  8
0
  5
314A
 10
32.8777
 20
58.7926
 30
0.000000
  70
    32
  0
VERTEX
  8
0
  5
314B
 10
32.8684
 20
58.7924
 30
0.000000
  70
    32
  0
VERTEX
  8
0
  5
314C
 10
32.8592
 20
58.7922
 30
0.000000
  70
    32
  0
VERTEX
  8
0
  5
314D
 10
32.8500
 20
58.7920
 30
0.000000
  70
    32
  0
VERTEX
  8
0
  5
314E
 10
32.8408
 20
58.7918
 30
0.000000
  70
    32
  0
VERTEX
  8
0
  5
314F
 10
32.8317
 20
58.7916
 30
0.000000
  70
    32
  0
VERTEX
  8
0
  5
3150
 10
32.8226
 20
58.7914
 30
0.000000
  70
    32
  0
VERTEX
  8
0
  5
3151
 10
32.8136
 20
58.7911
 30
0.000000
  70
    32
  0
VERTEX
  8
0
  5
3152
 10
32.8046
 20
58.7909
 30
0.000000
  70
    32
  0
VERTEX
  8
0
  5
3153
 10
32.7957
 20
58.7907
 30
0.000000
  70
    32
  0
VERTEX
  8
0
  5
3154
 10
32.7868
 20
58.7905
 30
0.000000
  70
    32
  0
VERTEX
  8
0
  5
3155
 10
32.7779
 20
58.7902
 30
0.000000
  70
    32
  0
VERTEX
  8
0
  5
3156
 10
32.7691
 20
58.7900
 30
0.000000
  70
    32
  0
VERTEX
  8
0
  5
3157
 10
32.7603
 20
58.7897
 30
0.000000
  70
    32
  0
VERTEX
  8
0
  5
3158
 10
32.7516
 20
58.7895
 30
0.000000
  70
    32
  0
VERTEX
  8
0
  5
3159
 10
32.7429
 20
58.7892
 30
0.000000
  70
    32
  0
VERTEX
  8
0
  5
315A
 10
32.7343
 20
58.7890
 30
0.000000
  70
    32
  0
VERTEX
  8
0
  5
315B
 10
32.7257
 20
58.7887
 30
0.000000
  70
    32
  0
VERTEX
  8
0
  5
315C
 10
32.7172
 20
58.7884
 30
0.000000
  70
    32
  0
VERTEX
  8
0
  5
315D
 10
32.7087
 20
58.7882
 30
0.000000
  70
    32
  0
VERTEX
  8
0
  5
315E
 10
32.7003
 20
58.7879
 30
0.000000
  70
    32
  0
VERTEX
  8
0
  5
315F
 10
32.6919
 20
58.7876
 30
0.000000
  70
    32
  0
VERTEX
  8
0
  5
3160
 10
32.6836
 20
58.7873
 30
0.000000
  70
    32
  0
VERTEX
  8
0
  5
3161
 10
32.6754
 20
58.7870
 30
0.000000
  70
    32
  0
VERTEX
  8
0
  5
3162
 10
32.6672
 20
58.7867
 30
0.000000
  70
    32
  0
VERTEX
  8
0
  5
3163
 10
32.6590
 20
58.7864
 30
0.000000
  70
    32
  0
VERTEX
  8
0
  5
3164
 10
32.6509
 20
58.7861
 30
0.000000
  70
    32
  0
VERTEX
  8
0
  5
3165
 10
32.6429
 20
58.7858
 30
0.000000
  70
    32
  0
VERTEX
  8
0
  5
3166
 10
32.6349
 20
58.7855
 30
0.000000
  70
    32
  0
VERTEX
  8
0
  5
3167
 10
32.6270
 20
58.7852
 30
0.000000
  70
    32
  0
VERTEX
  8
0
  5
3168
 10
32.6192
 20
58.7849
 30
0.000000
  70
    32
  0
VERTEX
  8
0
  5
3169
 10
32.6114
 20
58.7845
 30
0.000000
  70
    32
  0
VERTEX
  8
0
  5
316A
 10
32.6036
 20
58.7842
 30
0.000000
  70
    32
  0
VERTEX
  8
0
  5
316B
 10
32.5960
 20
58.7839
 30
0.000000
  70
    32
  0
VERTEX
  8
0
  5
316C
 10
32.5884
 20
58.7835
 30
0.000000
  70
    32
  0
VERTEX
  8
0
  5
316D
 10
32.5808
 20
58.7832
 30
0.000000
  70
    32
  0
VERTEX
  8
0
  5
316E
 10
32.5734
 20
58.7829
 30
0.000000
  70
    32
  0
VERTEX
  8
0
  5
316F
 10
32.5660
 20
58.7825
 30
0.000000
  70
    32
  0
VERTEX
  8
0
  5
3170
 10
32.5586
 20
58.7822
 30
0.000000
  70
    32
  0
VERTEX
  8
0
  5
3171
 10
32.5513
 20
58.7818
 30
0.000000
  70
    32
  0
VERTEX
  8
0
  5
3172
 10
32.5441
 20
58.7814
 30
0.000000
  70
    32
  0
VERTEX
  8
0
  5
3173
 10
32.5370
 20
58.7811
 30
0.000000
  70
    32
  0
VERTEX
  8
0
  5
3174
 10
32.5299
 20
58.7807
 30
0.000000
  70
    32
  0
VERTEX
  8
0
  5
3175
 10
32.5229
 20
58.7803
 30
0.000000
  70
    32
  0
VERTEX
  8
0
  5
3176
 10
32.5160
 20
58.7800
 30
0.000000
  70
    32
  0
VERTEX
  8
0
  5
3177
 10
32.5092
 20
58.7796
 30
0.000000
  70
    32
  0
VERTEX
  8
0
  5
3178
 10
32.5024
 20
58.7792
 30
0.000000
  70
    32
  0
VERTEX
  8
0
  5
3179
 10
32.4957
 20
58.7788
 30
0.000000
  70
    32
  0
VERTEX
  8
0
  5
317A
 10
32.4890
 20
58.7784
 30
0.000000
  70
    32
  0
VERTEX
  8
0
  5
317B
 10
32.4825
 20
58.7780
 30
0.000000
  70
    32
  0
VERTEX
  8
0
  5
317C
 10
32.4760
 20
58.7776
 30
0.000000
  70
    32
  0
VERTEX
  8
0
  5
317D
 10
32.4696
 20
58.7772
 30
0.000000
  70
    32
  0
VERTEX
  8
0
  5
317E
 10
32.4632
 20
58.7768
 30
0.000000
  70
    32
  0
VERTEX
  8
0
  5
317F
 10
32.4570
 20
58.7764
 30
0.000000
  70
    32
  0
VERTEX
  8
0
  5
3180
 10
32.4508
 20
58.7760
 30
0.000000
  70
    32
  0
VERTEX
  8
0
  5
3181
 10
32.4447
 20
58.7756
 30
0.000000
  70
    32
  0
VERTEX
  8
0
  5
3182
 10
32.4387
 20
58.7752
 30
0.000000
  70
    32
  0
VERTEX
  8
0
  5
3183
 10
32.4327
 20
58.7748
 30
0.000000
  70
    32
  0
VERTEX
  8
0
  5
3184
 10
32.4269
 20
58.7744
 30
0.000000
  70
    32
  0
VERTEX
  8
0
  5
3185
 10
32.4211
 20
58.7739
 30
0.000000
  70
    32
  0
VERTEX
  8
0
  5
3186
 10
32.4154
 20
58.7735
 30
0.000000
  70
    32
  0
VERTEX
  8
0
  5
3187
 10
32.4097
 20
58.7731
 30
0.000000
  70
    32
  0
VERTEX
  8
0
  5
3188
 10
32.4042
 20
58.7726
 30
0.000000
  70
    32
  0
VERTEX
  8
0
  5
3189
 10
32.3987
 20
58.7722
 30
0.000000
  70
    32
  0
VERTEX
  8
0
  5
318A
 10
32.3934
 20
58.7718
 30
0.000000
  70
    32
  0
VERTEX
  8
0
  5
318B
 10
32.3881
 20
58.7713
 30
0.000000
  70
    32
  0
VERTEX
  8
0
  5
318C
 10
32.3829
 20
58.7709
 30
0.000000
  70
    32
  0
VERTEX
  8
0
  5
318D
 10
32.3778
 20
58.7704
 30
0.000000
  70
    32
  0
VERTEX
  8
0
  5
318E
 10
32.3727
 20
58.7700
 30
0.000000
  70
    32
  0
VERTEX
  8
0
  5
318F
 10
32.3678
 20
58.7695
 30
0.000000
  70
    32
  0
VERTEX
  8
0
  5
3190
 10
32.3629
 20
58.7691
 30
0.000000
  70
    32
  0
VERTEX
  8
0
  5
3191
 10
32.3581
 20
58.7686
 30
0.000000
  70
    32
  0
VERTEX
  8
0
  5
3192
 10
32.3534
 20
58.7682
 30
0.000000
  70
    32
  0
VERTEX
  8
0
  5
3193
 10
32.3488
 20
58.7677
 30
0.000000
  70
    32
  0
VERTEX
  8
0
  5
3194
 10
32.3443
 20
58.7672
 30
0.000000
  70
    32
  0
VERTEX
  8
0
  5
3195
 10
32.3399
 20
58.7668
 30
0.000000
  70
    32
  0
VERTEX
  8
0
  5
3196
 10
32.3355
 20
58.7663
 30
0.000000
  70
    32
  0
VERTEX
  8
0
  5
3197
 10
32.3313
 20
58.7658
 30
0.000000
  70
    32
  0
VERTEX
  8
0
  5
3198
 10
32.3271
 20
58.7653
 30
0.000000
  70
    32
  0
VERTEX
  8
0
  5
3199
 10
32.3231
 20
58.7649
 30
0.000000
  70
    32
  0
VERTEX
  8
0
  5
319A
 10
32.3191
 20
58.7644
 30
0.000000
  70
    32
  0
VERTEX
  8
0
  5
319B
 10
32.3152
 20
58.7639
 30
0.000000
  70
    32
  0
VERTEX
  8
0
  5
319C
 10
32.3114
 20
58.7634
 30
0.000000
  70
    32
  0
VERTEX
  8
0
  5
319D
 10
32.3077
 20
58.7629
 30
0.000000
  70
    32
  0
VERTEX
  8
0
  5
319E
 10
32.3041
 20
58.7625
 30
0.000000
  70
    32
  0
VERTEX
  8
0
  5
319F
 10
32.3006
 20
58.7620
 30
0.000000
  70
    32
  0
VERTEX
  8
0
  5
31A0
 10
32.2971
 20
58.7615
 30
0.000000
  70
    32
  0
VERTEX
  8
0
  5
31A1
 10
32.2938
 20
58.7610
 30
0.000000
  70
    32
  0
VERTEX
  8
0
  5
31A2
 10
32.2906
 20
58.7605
 30
0.000000
  70
    32
  0
VERTEX
  8
0
  5
31A3
 10
32.2874
 20
58.7600
 30
0.000000
  70
    32
  0
VERTEX
  8
0
  5
31A4
 10
32.2844
 20
58.7595
 30
0.000000
  70
    32
  0
VERTEX
  8
0
  5
31A5
 10
32.2814
 20
58.7590
 30
0.000000
  70
    32
  0
SEQEND
  8
0
  5
31A6
  0
LINE
  5
268C
  8
0
 10
32.281409129839801
 20
58.75900699255606
 30
0.0
 11
30.879712402957839
 21
58.518730771884471
 31
0.0
  0
POLYLINE
  5
268D
  8
0
 10
29.923407646994814
 20
58.48164554437114
 30
0.0
 66
     1
 70
     8
  0
VERTEX
  8
0
  5
31A7
 10
29.9234
 20
58.4816
 30
0.000000
  70
    32
  0
VERTEX
  8
0
  5
31A8
 10
29.9334
 20
58.4816
 30
0.000000
  70
    32
  0
VERTEX
  8
0
  5
31A9
 10
29.9433
 20
58.4817
 30
0.000000
  70
    32
  0
VERTEX
  8
0
  5
31AA
 10
29.9533
 20
58.4817
 30
0.000000
  70
    32
  0
VERTEX
  8
0
  5
31AB
 10
29.9632
 20
58.4817
 30
0.000000
  70
    32
  0
VERTEX
  8
0
  5
31AC
 10
29.9732
 20
58.4817
 30
0.000000
  70
    32
  0
VERTEX
  8
0
  5
31AD
 10
29.9831
 20
58.4817
 30
0.000000
  70
    32
  0
VERTEX
  8
0
  5
31AE
 10
29.9930
 20
58.4818
 30
0.000000
  70
    32
  0
VERTEX
  8
0
  5
31AF
 10
30.0030
 20
58.4818
 30
0.000000
  70
    32
  0
VERTEX
  8
0
  5
31B0
 10
30.0129
 20
58.4819
 30
0.000000
  70
    32
  0
VERTEX
  8
0
  5
31B1
 10
30.0228
 20
58.4819
 30
0.000000
  70
    32
  0
VERTEX
  8
0
  5
31B2
 10
30.0327
 20
58.4820
 30
0.000000
  70
    32
  0
VERTEX
  8
0
  5
31B3
 10
30.0426
 20
58.4820
 30
0.000000
  70
    32
  0
VERTEX
  8
0
  5
31B4
 10
30.0524
 20
58.4821
 30
0.000000
  70
    32
  0
VERTEX
  8
0
  5
31B5
 10
30.0623
 20
58.4822
 30
0.000000
  70
    32
  0
VERTEX
  8
0
  5
31B6
 10
30.0722
 20
58.4822
 30
0.000000
  70
    32
  0
VERTEX
  8
0
  5
31B7
 10
30.0820
 20
58.4823
 30
0.000000
  70
    32
  0
VERTEX
  8
0
  5
31B8
 10
30.0918
 20
58.4824
 30
0.000000
  70
    32
  0
VERTEX
  8
0
  5
31B9
 10
30.1016
 20
58.4825
 30
0.000000
  70
    32
  0
VERTEX
  8
0
  5
31BA
 10
30.1114
 20
58.4826
 30
0.000000
  70
    32
  0
VERTEX
  8
0
  5
31BB
 10
30.1212
 20
58.4827
 30
0.000000
  70
    32
  0
VERTEX
  8
0
  5
31BC
 10
30.1309
 20
58.4828
 30
0.000000
  70
    32
  0
VERTEX
  8
0
  5
31BD
 10
30.1406
 20
58.4829
 30
0.000000
  70
    32
  0
VERTEX
  8
0
  5
31BE
 10
30.1504
 20
58.4830
 30
0.000000
  70
    32
  0
VERTEX
  8
0
  5
31BF
 10
30.1600
 20
58.4831
 30
0.000000
  70
    32
  0
VERTEX
  8
0
  5
31C0
 10
30.1697
 20
58.4833
 30
0.000000
  70
    32
  0
VERTEX
  8
0
  5
31C1
 10
30.1793
 20
58.4834
 30
0.000000
  70
    32
  0
VERTEX
  8
0
  5
31C2
 10
30.1889
 20
58.4835
 30
0.000000
  70
    32
  0
VERTEX
  8
0
  5
31C3
 10
30.1985
 20
58.4837
 30
0.000000
  70
    32
  0
VERTEX
  8
0
  5
31C4
 10
30.2081
 20
58.4838
 30
0.000000
  70
    32
  0
VERTEX
  8
0
  5
31C5
 10
30.2176
 20
58.4840
 30
0.000000
  70
    32
  0
VERTEX
  8
0
  5
31C6
 10
30.2271
 20
58.4841
 30
0.000000
  70
    32
  0
VERTEX
  8
0
  5
31C7
 10
30.2366
 20
58.4843
 30
0.000000
  70
    32
  0
VERTEX
  8
0
  5
31C8
 10
30.2460
 20
58.4844
 30
0.000000
  70
    32
  0
VERTEX
  8
0
  5
31C9
 10
30.2554
 20
58.4846
 30
0.000000
  70
    32
  0
VERTEX
  8
0
  5
31CA
 10
30.2648
 20
58.4848
 30
0.000000
  70
    32
  0
VERTEX
  8
0
  5
31CB
 10
30.2741
 20
58.4850
 30
0.000000
  70
    32
  0
VERTEX
  8
0
  5
31CC
 10
30.2834
 20
58.4852
 30
0.000000
  70
    32
  0
VERTEX
  8
0
  5
31CD
 10
30.2927
 20
58.4854
 30
0.000000
  70
    32
  0
VERTEX
  8
0
  5
31CE
 10
30.3019
 20
58.4855
 30
0.000000
  70
    32
  0
VERTEX
  8
0
  5
31CF
 10
30.3111
 20
58.4857
 30
0.000000
  70
    32
  0
VERTEX
  8
0
  5
31D0
 10
30.3203
 20
58.4859
 30
0.000000
  70
    32
  0
VERTEX
  8
0
  5
31D1
 10
30.3294
 20
58.4862
 30
0.000000
  70
    32
  0
VERTEX
  8
0
  5
31D2
 10
30.3385
 20
58.4864
 30
0.000000
  70
    32
  0
VERTEX
  8
0
  5
31D3
 10
30.3475
 20
58.4866
 30
0.000000
  70
    32
  0
VERTEX
  8
0
  5
31D4
 10
30.3565
 20
58.4868
 30
0.000000
  70
    32
  0
VERTEX
  8
0
  5
31D5
 10
30.3655
 20
58.4870
 30
0.000000
  70
    32
  0
VERTEX
  8
0
  5
31D6
 10
30.3744
 20
58.4873
 30
0.000000
  70
    32
  0
VERTEX
  8
0
  5
31D7
 10
30.3832
 20
58.4875
 30
0.000000
  70
    32
  0
VERTEX
  8
0
  5
31D8
 10
30.3920
 20
58.4878
 30
0.000000
  70
    32
  0
VERTEX
  8
0
  5
31D9
 10
30.4008
 20
58.4880
 30
0.000000
  70
    32
  0
VERTEX
  8
0
  5
31DA
 10
30.4095
 20
58.4883
 30
0.000000
  70
    32
  0
VERTEX
  8
0
  5
31DB
 10
30.4182
 20
58.4885
 30
0.000000
  70
    32
  0
VERTEX
  8
0
  5
31DC
 10
30.4268
 20
58.4888
 30
0.000000
  70
    32
  0
VERTEX
  8
0
  5
31DD
 10
30.4354
 20
58.4890
 30
0.000000
  70
    32
  0
VERTEX
  8
0
  5
31DE
 10
30.4439
 20
58.4893
 30
0.000000
  70
    32
  0
VERTEX
  8
0
  5
31DF
 10
30.4524
 20
58.4896
 30
0.000000
  70
    32
  0
VERTEX
  8
0
  5
31E0
 10
30.4608
 20
58.4899
 30
0.000000
  70
    32
  0
VERTEX
  8
0
  5
31E1
 10
30.4692
 20
58.4901
 30
0.000000
  70
    32
  0
VERTEX
  8
0
  5
31E2
 10
30.4775
 20
58.4904
 30
0.000000
  70
    32
  0
VERTEX
  8
0
  5
31E3
 10
30.4858
 20
58.4907
 30
0.000000
  70
    32
  0
VERTEX
  8
0
  5
31E4
 10
30.4940
 20
58.4910
 30
0.000000
  70
    32
  0
VERTEX
  8
0
  5
31E5
 10
30.5021
 20
58.4913
 30
0.000000
  70
    32
  0
VERTEX
  8
0
  5
31E6
 10
30.5102
 20
58.4916
 30
0.000000
  70
    32
  0
VERTEX
  8
0
  5
31E7
 10
30.5182
 20
58.4919
 30
0.000000
  70
    32
  0
VERTEX
  8
0
  5
31E8
 10
30.5262
 20
58.4922
 30
0.000000
  70
    32
  0
VERTEX
  8
0
  5
31E9
 10
30.5341
 20
58.4926
 30
0.000000
  70
    32
  0
VERTEX
  8
0
  5
31EA
 10
30.5420
 20
58.4929
 30
0.000000
  70
    32
  0
VERTEX
  8
0
  5
31EB
 10
30.5498
 20
58.4932
 30
0.000000
  70
    32
  0
VERTEX
  8
0
  5
31EC
 10
30.5575
 20
58.4935
 30
0.000000
  70
    32
  0
VERTEX
  8
0
  5
31ED
 10
30.5652
 20
58.4939
 30
0.000000
  70
    32
  0
VERTEX
  8
0
  5
31EE
 10
30.5728
 20
58.4942
 30
0.000000
  70
    32
  0
VERTEX
  8
0
  5
31EF
 10
30.5803
 20
58.4945
 30
0.000000
  70
    32
  0
VERTEX
  8
0
  5
31F0
 10
30.5878
 20
58.4949
 30
0.000000
  70
    32
  0
VERTEX
  8
0
  5
31F1
 10
30.5952
 20
58.4952
 30
0.000000
  70
    32
  0
VERTEX
  8
0
  5
31F2
 10
30.6025
 20
58.4956
 30
0.000000
  70
    32
  0
VERTEX
  8
0
  5
31F3
 10
30.6098
 20
58.4959
 30
0.000000
  70
    32
  0
VERTEX
  8
0
  5
31F4
 10
30.6170
 20
58.4963
 30
0.000000
  70
    32
  0
VERTEX
  8
0
  5
31F5
 10
30.6241
 20
58.4967
 30
0.000000
  70
    32
  0
VERTEX
  8
0
  5
31F6
 10
30.6312
 20
58.4970
 30
0.000000
  70
    32
  0
VERTEX
  8
0
  5
31F7
 10
30.6382
 20
58.4974
 30
0.000000
  70
    32
  0
VERTEX
  8
0
  5
31F8
 10
30.6451
 20
58.4978
 30
0.000000
  70
    32
  0
VERTEX
  8
0
  5
31F9
 10
30.6520
 20
58.4982
 30
0.000000
  70
    32
  0
VERTEX
  8
0
  5
31FA
 10
30.6587
 20
58.4985
 30
0.000000
  70
    32
  0
VERTEX
  8
0
  5
31FB
 10
30.6655
 20
58.4989
 30
0.000000
  70
    32
  0
VERTEX
  8
0
  5
31FC
 10
30.6721
 20
58.4993
 30
0.000000
  70
    32
  0
VERTEX
  8
0
  5
31FD
 10
30.6787
 20
58.4997
 30
0.000000
  70
    32
  0
VERTEX
  8
0
  5
31FE
 10
30.6851
 20
58.5001
 30
0.000000
  70
    32
  0
VERTEX
  8
0
  5
31FF
 10
30.6916
 20
58.5005
 30
0.000000
  70
    32
  0
VERTEX
  8
0
  5
3200
 10
30.6979
 20
58.5009
 30
0.000000
  70
    32
  0
VERTEX
  8
0
  5
3201
 10
30.7041
 20
58.5013
 30
0.000000
  70
    32
  0
VERTEX
  8
0
  5
3202
 10
30.7103
 20
58.5017
 30
0.000000
  70
    32
  0
VERTEX
  8
0
  5
3203
 10
30.7164
 20
58.5021
 30
0.000000
  70
    32
  0
VERTEX
  8
0
  5
3204
 10
30.7225
 20
58.5025
 30
0.000000
  70
    32
  0
VERTEX
  8
0
  5
3205
 10
30.7284
 20
58.5030
 30
0.000000
  70
    32
  0
VERTEX
  8
0
  5
3206
 10
30.7343
 20
58.5034
 30
0.000000
  70
    32
  0
VERTEX
  8
0
  5
3207
 10
30.7400
 20
58.5038
 30
0.000000
  70
    32
  0
VERTEX
  8
0
  5
3208
 10
30.7458
 20
58.5042
 30
0.000000
  70
    32
  0
VERTEX
  8
0
  5
3209
 10
30.7514
 20
58.5047
 30
0.000000
  70
    32
  0
VERTEX
  8
0
  5
320A
 10
30.7569
 20
58.5051
 30
0.000000
  70
    32
  0
VERTEX
  8
0
  5
320B
 10
30.7624
 20
58.5055
 30
0.000000
  70
    32
  0
VERTEX
  8
0
  5
320C
 10
30.7678
 20
58.5060
 30
0.000000
  70
    32
  0
VERTEX
  8
0
  5
320D
 10
30.7730
 20
58.5064
 30
0.000000
  70
    32
  0
VERTEX
  8
0
  5
320E
 10
30.7782
 20
58.5069
 30
0.000000
  70
    32
  0
VERTEX
  8
0
  5
320F
 10
30.7834
 20
58.5073
 30
0.000000
  70
    32
  0
VERTEX
  8
0
  5
3210
 10
30.7884
 20
58.5078
 30
0.000000
  70
    32
  0
VERTEX
  8
0
  5
3211
 10
30.7934
 20
58.5082
 30
0.000000
  70
    32
  0
VERTEX
  8
0
  5
3212
 10
30.7982
 20
58.5087
 30
0.000000
  70
    32
  0
VERTEX
  8
0
  5
3213
 10
30.8030
 20
58.5091
 30
0.000000
  70
    32
  0
VERTEX
  8
0
  5
3214
 10
30.8077
 20
58.5096
 30
0.000000
  70
    32
  0
VERTEX
  8
0
  5
3215
 10
30.8123
 20
58.5100
 30
0.000000
  70
    32
  0
VERTEX
  8
0
  5
3216
 10
30.8168
 20
58.5105
 30
0.000000
  70
    32
  0
VERTEX
  8
0
  5
3217
 10
30.8212
 20
58.5110
 30
0.000000
  70
    32
  0
VERTEX
  8
0
  5
3218
 10
30.8256
 20
58.5114
 30
0.000000
  70
    32
  0
VERTEX
  8
0
  5
3219
 10
30.8298
 20
58.5119
 30
0.000000
  70
    32
  0
VERTEX
  8
0
  5
321A
 10
30.8340
 20
58.5124
 30
0.000000
  70
    32
  0
VERTEX
  8
0
  5
321B
 10
30.8381
 20
58.5129
 30
0.000000
  70
    32
  0
VERTEX
  8
0
  5
321C
 10
30.8420
 20
58.5133
 30
0.000000
  70
    32
  0
VERTEX
  8
0
  5
321D
 10
30.8459
 20
58.5138
 30
0.000000
  70
    32
  0
VERTEX
  8
0
  5
321E
 10
30.8497
 20
58.5143
 30
0.000000
  70
    32
  0
VERTEX
  8
0
  5
321F
 10
30.8534
 20
58.5148
 30
0.000000
  70
    32
  0
VERTEX
  8
0
  5
3220
 10
30.8570
 20
58.5153
 30
0.000000
  70
    32
  0
VERTEX
  8
0
  5
3221
 10
30.8606
 20
58.5158
 30
0.000000
  70
    32
  0
VERTEX
  8
0
  5
3222
 10
30.8640
 20
58.5163
 30
0.000000
  70
    32
  0
VERTEX
  8
0
  5
3223
 10
30.8673
 20
58.5167
 30
0.000000
  70
    32
  0
VERTEX
  8
0
  5
3224
 10
30.8706
 20
58.5172
 30
0.000000
  70
    32
  0
VERTEX
  8
0
  5
3225
 10
30.8737
 20
58.5177
 30
0.000000
  70
    32
  0
VERTEX
  8
0
  5
3226
 10
30.8768
 20
58.5182
 30
0.000000
  70
    32
  0
VERTEX
  8
0
  5
3227
 10
30.8797
 20
58.5187
 30
0.000000
  70
    32
  0
SEQEND
  8
0
  5
3228
  0
LINE
  5
268E
  8
0
 10
29.923407646994828
 20
58.481645544371133
 30
0.0
 11
23.923329797051309
 21
58.481645544371133
 31
0.0
  0
POLYLINE
  5
268F
  8
0
 10
22.967025041088387
 20
58.518730771884464
 30
0.0
 66
     1
 70
     8
  0
VERTEX
  8
0
  5
3229
 10
22.9670
 20
58.5187
 30
0.000000
  70
    32
  0
VERTEX
  8
0
  5
322A
 10
22.9700
 20
58.5182
 30
0.000000
  70
    32
  0
VERTEX
  8
0
  5
322B
 10
22.9730
 20
58.5177
 30
0.000000
  70
    32
  0
VERTEX
  8
0
  5
322C
 10
22.9762
 20
58.5172
 30
0.000000
  70
    32
  0
VERTEX
  8
0
  5
322D
 10
22.9794
 20
58.5167
 30
0.000000
  70
    32
  0
VERTEX
  8
0
  5
322E
 10
22.9828
 20
58.5163
 30
0.000000
  70
    32
  0
VERTEX
  8
0
  5
322F
 10
22.9862
 20
58.5158
 30
0.000000
  70
    32
  0
VERTEX
  8
0
  5
3230
 10
22.9897
 20
58.5153
 30
0.000000
  70
    32
  0
VERTEX
  8
0
  5
3231
 10
22.9933
 20
58.5148
 30
0.000000
  70
    32
  0
VERTEX
  8
0
  5
3232
 10
22.9970
 20
58.5143
 30
0.000000
  70
    32
  0
VERTEX
  8
0
  5
3233
 10
23.0008
 20
58.5138
 30
0.000000
  70
    32
  0
VERTEX
  8
0
  5
3234
 10
23.0047
 20
58.5133
 30
0.000000
  70
    32
  0
VERTEX
  8
0
  5
3235
 10
23.0087
 20
58.5129
 30
0.000000
  70
    32
  0
VERTEX
  8
0
  5
3236
 10
23.0127
 20
58.5124
 30
0.000000
  70
    32
  0
VERTEX
  8
0
  5
3237
 10
23.0169
 20
58.5119
 30
0.000000
  70
    32
  0
VERTEX
  8
0
  5
3238
 10
23.0212
 20
58.5114
 30
0.000000
  70
    32
  0
VERTEX
  8
0
  5
3239
 10
23.0255
 20
58.5110
 30
0.000000
  70
    32
  0
VERTEX
  8
0
  5
323A
 10
23.0299
 20
58.5105
 30
0.000000
  70
    32
  0
VERTEX
  8
0
  5
323B
 10
23.0344
 20
58.5100
 30
0.000000
  70
    32
  0
VERTEX
  8
0
  5
323C
 10
23.0390
 20
58.5096
 30
0.000000
  70
    32
  0
VERTEX
  8
0
  5
323D
 10
23.0437
 20
58.5091
 30
0.000000
  70
    32
  0
VERTEX
  8
0
  5
323E
 10
23.0485
 20
58.5087
 30
0.000000
  70
    32
  0
VERTEX
  8
0
  5
323F
 10
23.0534
 20
58.5082
 30
0.000000
  70
    32
  0
VERTEX
  8
0
  5
3240
 10
23.0583
 20
58.5078
 30
0.000000
  70
    32
  0
VERTEX
  8
0
  5
3241
 10
23.0634
 20
58.5073
 30
0.000000
  70
    32
  0
VERTEX
  8
0
  5
3242
 10
23.0685
 20
58.5069
 30
0.000000
  70
    32
  0
VERTEX
  8
0
  5
3243
 10
23.0737
 20
58.5064
 30
0.000000
  70
    32
  0
VERTEX
  8
0
  5
3244
 10
23.0790
 20
58.5060
 30
0.000000
  70
    32
  0
VERTEX
  8
0
  5
3245
 10
23.0844
 20
58.5055
 30
0.000000
  70
    32
  0
VERTEX
  8
0
  5
3246
 10
23.0898
 20
58.5051
 30
0.000000
  70
    32
  0
VERTEX
  8
0
  5
3247
 10
23.0954
 20
58.5047
 30
0.000000
  70
    32
  0
VERTEX
  8
0
  5
3248
 10
23.1010
 20
58.5042
 30
0.000000
  70
    32
  0
VERTEX
  8
0
  5
3249
 10
23.1067
 20
58.5038
 30
0.000000
  70
    32
  0
VERTEX
  8
0
  5
324A
 10
23.1125
 20
58.5034
 30
0.000000
  70
    32
  0
VERTEX
  8
0
  5
324B
 10
23.1183
 20
58.5030
 30
0.000000
  70
    32
  0
VERTEX
  8
0
  5
324C
 10
23.1243
 20
58.5025
 30
0.000000
  70
    32
  0
VERTEX
  8
0
  5
324D
 10
23.1303
 20
58.5021
 30
0.000000
  70
    32
  0
VERTEX
  8
0
  5
324E
 10
23.1364
 20
58.5017
 30
0.000000
  70
    32
  0
VERTEX
  8
0
  5
324F
 10
23.1426
 20
58.5013
 30
0.000000
  70
    32
  0
VERTEX
  8
0
  5
3250
 10
23.1489
 20
58.5009
 30
0.000000
  70
    32
  0
VERTEX
  8
0
  5
3251
 10
23.1552
 20
58.5005
 30
0.000000
  70
    32
  0
VERTEX
  8
0
  5
3252
 10
23.1616
 20
58.5001
 30
0.000000
  70
    32
  0
VERTEX
  8
0
  5
3253
 10
23.1681
 20
58.4997
 30
0.000000
  70
    32
  0
VERTEX
  8
0
  5
3254
 10
23.1746
 20
58.4993
 30
0.000000
  70
    32
  0
VERTEX
  8
0
  5
3255
 10
23.1813
 20
58.4989
 30
0.000000
  70
    32
  0
VERTEX
  8
0
  5
3256
 10
23.1880
 20
58.4985
 30
0.000000
  70
    32
  0
VERTEX
  8
0
  5
3257
 10
23.1948
 20
58.4982
 30
0.000000
  70
    32
  0
VERTEX
  8
0
  5
3258
 10
23.2016
 20
58.4978
 30
0.000000
  70
    32
  0
VERTEX
  8
0
  5
3259
 10
23.2086
 20
58.4974
 30
0.000000
  70
    32
  0
VERTEX
  8
0
  5
325A
 10
23.2155
 20
58.4970
 30
0.000000
  70
    32
  0
VERTEX
  8
0
  5
325B
 10
23.2226
 20
58.4967
 30
0.000000
  70
    32
  0
VERTEX
  8
0
  5
325C
 10
23.2298
 20
58.4963
 30
0.000000
  70
    32
  0
VERTEX
  8
0
  5
325D
 10
23.2370
 20
58.4959
 30
0.000000
  70
    32
  0
VERTEX
  8
0
  5
325E
 10
23.2442
 20
58.4956
 30
0.000000
  70
    32
  0
VERTEX
  8
0
  5
325F
 10
23.2516
 20
58.4952
 30
0.000000
  70
    32
  0
VERTEX
  8
0
  5
3260
 10
23.2590
 20
58.4949
 30
0.000000
  70
    32
  0
VERTEX
  8
0
  5
3261
 10
23.2664
 20
58.4945
 30
0.000000
  70
    32
  0
VERTEX
  8
0
  5
3262
 10
23.2740
 20
58.4942
 30
0.000000
  70
    32
  0
VERTEX
  8
0
  5
3263
 10
23.2816
 20
58.4939
 30
0.000000
  70
    32
  0
VERTEX
  8
0
  5
3264
 10
23.2893
 20
58.4935
 30
0.000000
  70
    32
  0
VERTEX
  8
0
  5
3265
 10
23.2970
 20
58.4932
 30
0.000000
  70
    32
  0
VERTEX
  8
0
  5
3266
 10
23.3048
 20
58.4929
 30
0.000000
  70
    32
  0
VERTEX
  8
0
  5
3267
 10
23.3126
 20
58.4926
 30
0.000000
  70
    32
  0
VERTEX
  8
0
  5
3268
 10
23.3205
 20
58.4922
 30
0.000000
  70
    32
  0
VERTEX
  8
0
  5
3269
 10
23.3285
 20
58.4919
 30
0.000000
  70
    32
  0
VERTEX
  8
0
  5
326A
 10
23.3365
 20
58.4916
 30
0.000000
  70
    32
  0
VERTEX
  8
0
  5
326B
 10
23.3446
 20
58.4913
 30
0.000000
  70
    32
  0
VERTEX
  8
0
  5
326C
 10
23.3528
 20
58.4910
 30
0.000000
  70
    32
  0
VERTEX
  8
0
  5
326D
 10
23.3610
 20
58.4907
 30
0.000000
  70
    32
  0
VERTEX
  8
0
  5
326E
 10
23.3692
 20
58.4904
 30
0.000000
  70
    32
  0
VERTEX
  8
0
  5
326F
 10
23.3775
 20
58.4901
 30
0.000000
  70
    32
  0
VERTEX
  8
0
  5
3270
 10
23.3859
 20
58.4899
 30
0.000000
  70
    32
  0
VERTEX
  8
0
  5
3271
 10
23.3943
 20
58.4896
 30
0.000000
  70
    32
  0
VERTEX
  8
0
  5
3272
 10
23.4028
 20
58.4893
 30
0.000000
  70
    32
  0
VERTEX
  8
0
  5
3273
 10
23.4113
 20
58.4890
 30
0.000000
  70
    32
  0
VERTEX
  8
0
  5
3274
 10
23.4199
 20
58.4888
 30
0.000000
  70
    32
  0
VERTEX
  8
0
  5
3275
 10
23.4285
 20
58.4885
 30
0.000000
  70
    32
  0
VERTEX
  8
0
  5
3276
 10
23.4372
 20
58.4883
 30
0.000000
  70
    32
  0
VERTEX
  8
0
  5
3277
 10
23.4459
 20
58.4880
 30
0.000000
  70
    32
  0
VERTEX
  8
0
  5
3278
 10
23.4547
 20
58.4878
 30
0.000000
  70
    32
  0
VERTEX
  8
0
  5
3279
 10
23.4635
 20
58.4875
 30
0.000000
  70
    32
  0
VERTEX
  8
0
  5
327A
 10
23.4724
 20
58.4873
 30
0.000000
  70
    32
  0
VERTEX
  8
0
  5
327B
 10
23.4813
 20
58.4870
 30
0.000000
  70
    32
  0
VERTEX
  8
0
  5
327C
 10
23.4902
 20
58.4868
 30
0.000000
  70
    32
  0
VERTEX
  8
0
  5
327D
 10
23.4992
 20
58.4866
 30
0.000000
  70
    32
  0
VERTEX
  8
0
  5
327E
 10
23.5083
 20
58.4864
 30
0.000000
  70
    32
  0
VERTEX
  8
0
  5
327F
 10
23.5173
 20
58.4862
 30
0.000000
  70
    32
  0
VERTEX
  8
0
  5
3280
 10
23.5265
 20
58.4859
 30
0.000000
  70
    32
  0
VERTEX
  8
0
  5
3281
 10
23.5356
 20
58.4857
 30
0.000000
  70
    32
  0
VERTEX
  8
0
  5
3282
 10
23.5448
 20
58.4855
 30
0.000000
  70
    32
  0
VERTEX
  8
0
  5
3283
 10
23.5540
 20
58.4854
 30
0.000000
  70
    32
  0
VERTEX
  8
0
  5
3284
 10
23.5633
 20
58.4852
 30
0.000000
  70
    32
  0
VERTEX
  8
0
  5
3285
 10
23.5726
 20
58.4850
 30
0.000000
  70
    32
  0
VERTEX
  8
0
  5
3286
 10
23.5820
 20
58.4848
 30
0.000000
  70
    32
  0
VERTEX
  8
0
  5
3287
 10
23.5913
 20
58.4846
 30
0.000000
  70
    32
  0
VERTEX
  8
0
  5
3288
 10
23.6007
 20
58.4844
 30
0.000000
  70
    32
  0
VERTEX
  8
0
  5
3289
 10
23.6102
 20
58.4843
 30
0.000000
  70
    32
  0
VERTEX
  8
0
  5
328A
 10
23.6196
 20
58.4841
 30
0.000000
  70
    32
  0
VERTEX
  8
0
  5
328B
 10
23.6291
 20
58.4840
 30
0.000000
  70
    32
  0
VERTEX
  8
0
  5
328C
 10
23.6387
 20
58.4838
 30
0.000000
  70
    32
  0
VERTEX
  8
0
  5
328D
 10
23.6482
 20
58.4837
 30
0.000000
  70
    32
  0
VERTEX
  8
0
  5
328E
 10
23.6578
 20
58.4835
 30
0.000000
  70
    32
  0
VERTEX
  8
0
  5
328F
 10
23.6674
 20
58.4834
 30
0.000000
  70
    32
  0
VERTEX
  8
0
  5
3290
 10
23.6770
 20
58.4833
 30
0.000000
  70
    32
  0
VERTEX
  8
0
  5
3291
 10
23.6867
 20
58.4831
 30
0.000000
  70
    32
  0
VERTEX
  8
0
  5
3292
 10
23.6964
 20
58.4830
 30
0.000000
  70
    32
  0
VERTEX
  8
0
  5
3293
 10
23.7061
 20
58.4829
 30
0.000000
  70
    32
  0
VERTEX
  8
0
  5
3294
 10
23.7158
 20
58.4828
 30
0.000000
  70
    32
  0
VERTEX
  8
0
  5
3295
 10
23.7256
 20
58.4827
 30
0.000000
  70
    32
  0
VERTEX
  8
0
  5
3296
 10
23.7353
 20
58.4826
 30
0.000000
  70
    32
  0
VERTEX
  8
0
  5
3297
 10
23.7451
 20
58.4825
 30
0.000000
  70
    32
  0
VERTEX
  8
0
  5
3298
 10
23.7549
 20
58.4824
 30
0.000000
  70
    32
  0
VERTEX
  8
0
  5
3299
 10
23.7647
 20
58.4823
 30
0.000000
  70
    32
  0
VERTEX
  8
0
  5
329A
 10
23.7746
 20
58.4822
 30
0.000000
  70
    32
  0
VERTEX
  8
0
  5
329B
 10
23.7844
 20
58.4822
 30
0.000000
  70
    32
  0
VERTEX
  8
0
  5
329C
 10
23.7943
 20
58.4821
 30
0.000000
  70
    32
  0
VERTEX
  8
0
  5
329D
 10
23.8042
 20
58.4820
 30
0.000000
  70
    32
  0
VERTEX
  8
0
  5
329E
 10
23.8141
 20
58.4820
 30
0.000000
  70
    32
  0
VERTEX
  8
0
  5
329F
 10
23.8240
 20
58.4819
 30
0.000000
  70
    32
  0
VERTEX
  8
0
  5
32A0
 10
23.8339
 20
58.4819
 30
0.000000
  70
    32
  0
VERTEX
  8
0
  5
32A1
 10
23.8438
 20
58.4818
 30
0.000000
  70
    32
  0
VERTEX
  8
0
  5
32A2
 10
23.8537
 20
58.4818
 30
0.000000
  70
    32
  0
VERTEX
  8
0
  5
32A3
 10
23.8636
 20
58.4817
 30
0.000000
  70
    32
  0
VERTEX
  8
0
  5
32A4
 10
23.8736
 20
58.4817
 30
0.000000
  70
    32
  0
VERTEX
  8
0
  5
32A5
 10
23.8835
 20
58.4817
 30
0.000000
  70
    32
  0
VERTEX
  8
0
  5
32A6
 10
23.8935
 20
58.4817
 30
0.000000
  70
    32
  0
VERTEX
  8
0
  5
32A7
 10
23.9034
 20
58.4817
 30
0.000000
  70
    32
  0
VERTEX
  8
0
  5
32A8
 10
23.9134
 20
58.4816
 30
0.000000
  70
    32
  0
VERTEX
  8
0
  5
32A9
 10
23.9233
 20
58.4816
 30
0.000000
  70
    32
  0
SEQEND
  8
0
  5
32AA
  0
LINE
  5
2690
  8
0
 10
22.967025041088299
 20
58.518730771884471
 30
0.0
 11
21.565328314205399
 21
58.75900699255606
 31
0.0
  0
POLYLINE
  5
2691
  8
0
 10
21.565328314205434
 20
58.759006992556067
 30
0.0
 66
     1
 70
     8
  0
VERTEX
  8
0
  5
32AB
 10
21.5653
 20
58.7590
 30
0.000000
  70
    32
  0
VERTEX
  8
0
  5
32AC
 10
21.5624
 20
58.7595
 30
0.000000
  70
    32
  0
VERTEX
  8
0
  5
32AD
 10
21.5593
 20
58.7600
 30
0.000000
  70
    32
  0
VERTEX
  8
0
  5
32AE
 10
21.5562
 20
58.7605
 30
0.000000
  70
    32
  0
VERTEX
  8
0
  5
32AF
 10
21.5529
 20
58.7610
 30
0.000000
  70
    32
  0
VERTEX
  8
0
  5
32B0
 10
21.5496
 20
58.7615
 30
0.000000
  70
    32
  0
VERTEX
  8
0
  5
32B1
 10
21.5462
 20
58.7620
 30
0.000000
  70
    32
  0
VERTEX
  8
0
  5
32B2
 10
21.5427
 20
58.7625
 30
0.000000
  70
    32
  0
VERTEX
  8
0
  5
32B3
 10
21.5390
 20
58.7629
 30
0.000000
  70
    32
  0
VERTEX
  8
0
  5
32B4
 10
21.5353
 20
58.7634
 30
0.000000
  70
    32
  0
VERTEX
  8
0
  5
32B5
 10
21.5315
 20
58.7639
 30
0.000000
  70
    32
  0
VERTEX
  8
0
  5
32B6
 10
21.5277
 20
58.7644
 30
0.000000
  70
    32
  0
VERTEX
  8
0
  5
32B7
 10
21.5237
 20
58.7649
 30
0.000000
  70
    32
  0
VERTEX
  8
0
  5
32B8
 10
21.5196
 20
58.7653
 30
0.000000
  70
    32
  0
VERTEX
  8
0
  5
32B9
 10
21.5154
 20
58.7658
 30
0.000000
  70
    32
  0
VERTEX
  8
0
  5
32BA
 10
21.5112
 20
58.7663
 30
0.000000
  70
    32
  0
VERTEX
  8
0
  5
32BB
 10
21.5069
 20
58.7668
 30
0.000000
  70
    32
  0
VERTEX
  8
0
  5
32BC
 10
21.5024
 20
58.7672
 30
0.000000
  70
    32
  0
VERTEX
  8
0
  5
32BD
 10
21.4979
 20
58.7677
 30
0.000000
  70
    32
  0
VERTEX
  8
0
  5
32BE
 10
21.4933
 20
58.7682
 30
0.000000
  70
    32
  0
VERTEX
  8
0
  5
32BF
 10
21.4886
 20
58.7686
 30
0.000000
  70
    32
  0
VERTEX
  8
0
  5
32C0
 10
21.4838
 20
58.7691
 30
0.000000
  70
    32
  0
VERTEX
  8
0
  5
32C1
 10
21.4790
 20
58.7695
 30
0.000000
  70
    32
  0
VERTEX
  8
0
  5
32C2
 10
21.4740
 20
58.7700
 30
0.000000
  70
    32
  0
VERTEX
  8
0
  5
32C3
 10
21.4690
 20
58.7704
 30
0.000000
  70
    32
  0
VERTEX
  8
0
  5
32C4
 10
21.4639
 20
58.7709
 30
0.000000
  70
    32
  0
VERTEX
  8
0
  5
32C5
 10
21.4587
 20
58.7713
 30
0.000000
  70
    32
  0
VERTEX
  8
0
  5
32C6
 10
21.4534
 20
58.7718
 30
0.000000
  70
    32
  0
VERTEX
  8
0
  5
32C7
 10
21.4480
 20
58.7722
 30
0.000000
  70
    32
  0
VERTEX
  8
0
  5
32C8
 10
21.4425
 20
58.7726
 30
0.000000
  70
    32
  0
VERTEX
  8
0
  5
32C9
 10
21.4370
 20
58.7731
 30
0.000000
  70
    32
  0
VERTEX
  8
0
  5
32CA
 10
21.4314
 20
58.7735
 30
0.000000
  70
    32
  0
VERTEX
  8
0
  5
32CB
 10
21.4257
 20
58.7739
 30
0.000000
  70
    32
  0
VERTEX
  8
0
  5
32CC
 10
21.4199
 20
58.7744
 30
0.000000
  70
    32
  0
VERTEX
  8
0
  5
32CD
 10
21.4140
 20
58.7748
 30
0.000000
  70
    32
  0
VERTEX
  8
0
  5
32CE
 10
21.4081
 20
58.7752
 30
0.000000
  70
    32
  0
VERTEX
  8
0
  5
32CF
 10
21.4020
 20
58.7756
 30
0.000000
  70
    32
  0
VERTEX
  8
0
  5
32D0
 10
21.3959
 20
58.7760
 30
0.000000
  70
    32
  0
VERTEX
  8
0
  5
32D1
 10
21.3898
 20
58.7764
 30
0.000000
  70
    32
  0
VERTEX
  8
0
  5
32D2
 10
21.3835
 20
58.7768
 30
0.000000
  70
    32
  0
VERTEX
  8
0
  5
32D3
 10
21.3772
 20
58.7772
 30
0.000000
  70
    32
  0
VERTEX
  8
0
  5
32D4
 10
21.3708
 20
58.7776
 30
0.000000
  70
    32
  0
VERTEX
  8
0
  5
32D5
 10
21.3643
 20
58.7780
 30
0.000000
  70
    32
  0
VERTEX
  8
0
  5
32D6
 10
21.3577
 20
58.7784
 30
0.000000
  70
    32
  0
VERTEX
  8
0
  5
32D7
 10
21.3511
 20
58.7788
 30
0.000000
  70
    32
  0
VERTEX
  8
0
  5
32D8
 10
21.3444
 20
58.7792
 30
0.000000
  70
    32
  0
VERTEX
  8
0
  5
32D9
 10
21.3376
 20
58.7796
 30
0.000000
  70
    32
  0
VERTEX
  8
0
  5
32DA
 10
21.3307
 20
58.7800
 30
0.000000
  70
    32
  0
VERTEX
  8
0
  5
32DB
 10
21.3238
 20
58.7803
 30
0.000000
  70
    32
  0
VERTEX
  8
0
  5
32DC
 10
21.3168
 20
58.7807
 30
0.000000
  70
    32
  0
VERTEX
  8
0
  5
32DD
 10
21.3097
 20
58.7811
 30
0.000000
  70
    32
  0
VERTEX
  8
0
  5
32DE
 10
21.3026
 20
58.7814
 30
0.000000
  70
    32
  0
VERTEX
  8
0
  5
32DF
 10
21.2954
 20
58.7818
 30
0.000000
  70
    32
  0
VERTEX
  8
0
  5
32E0
 10
21.2881
 20
58.7822
 30
0.000000
  70
    32
  0
VERTEX
  8
0
  5
32E1
 10
21.2808
 20
58.7825
 30
0.000000
  70
    32
  0
VERTEX
  8
0
  5
32E2
 10
21.2734
 20
58.7829
 30
0.000000
  70
    32
  0
VERTEX
  8
0
  5
32E3
 10
21.2659
 20
58.7832
 30
0.000000
  70
    32
  0
VERTEX
  8
0
  5
32E4
 10
21.2584
 20
58.7835
 30
0.000000
  70
    32
  0
VERTEX
  8
0
  5
32E5
 10
21.2508
 20
58.7839
 30
0.000000
  70
    32
  0
VERTEX
  8
0
  5
32E6
 10
21.2431
 20
58.7842
 30
0.000000
  70
    32
  0
VERTEX
  8
0
  5
32E7
 10
21.2354
 20
58.7845
 30
0.000000
  70
    32
  0
VERTEX
  8
0
  5
32E8
 10
21.2276
 20
58.7849
 30
0.000000
  70
    32
  0
VERTEX
  8
0
  5
32E9
 10
21.2197
 20
58.7852
 30
0.000000
  70
    32
  0
VERTEX
  8
0
  5
32EA
 10
21.2118
 20
58.7855
 30
0.000000
  70
    32
  0
VERTEX
  8
0
  5
32EB
 10
21.2038
 20
58.7858
 30
0.000000
  70
    32
  0
VERTEX
  8
0
  5
32EC
 10
21.1958
 20
58.7861
 30
0.000000
  70
    32
  0
VERTEX
  8
0
  5
32ED
 10
21.1877
 20
58.7864
 30
0.000000
  70
    32
  0
VERTEX
  8
0
  5
32EE
 10
21.1796
 20
58.7867
 30
0.000000
  70
    32
  0
VERTEX
  8
0
  5
32EF
 10
21.1714
 20
58.7870
 30
0.000000
  70
    32
  0
VERTEX
  8
0
  5
32F0
 10
21.1631
 20
58.7873
 30
0.000000
  70
    32
  0
VERTEX
  8
0
  5
32F1
 10
21.1548
 20
58.7876
 30
0.000000
  70
    32
  0
VERTEX
  8
0
  5
32F2
 10
21.1464
 20
58.7879
 30
0.000000
  70
    32
  0
VERTEX
  8
0
  5
32F3
 10
21.1380
 20
58.7882
 30
0.000000
  70
    32
  0
VERTEX
  8
0
  5
32F4
 10
21.1295
 20
58.7884
 30
0.000000
  70
    32
  0
VERTEX
  8
0
  5
32F5
 10
21.1210
 20
58.7887
 30
0.000000
  70
    32
  0
VERTEX
  8
0
  5
32F6
 10
21.1124
 20
58.7890
 30
0.000000
  70
    32
  0
VERTEX
  8
0
  5
32F7
 10
21.1038
 20
58.7892
 30
0.000000
  70
    32
  0
VERTEX
  8
0
  5
32F8
 10
21.0951
 20
58.7895
 30
0.000000
  70
    32
  0
VERTEX
  8
0
  5
32F9
 10
21.0864
 20
58.7897
 30
0.000000
  70
    32
  0
VERTEX
  8
0
  5
32FA
 10
21.0777
 20
58.7900
 30
0.000000
  70
    32
  0
VERTEX
  8
0
  5
32FB
 10
21.0688
 20
58.7902
 30
0.000000
  70
    32
  0
VERTEX
  8
0
  5
32FC
 10
21.0600
 20
58.7905
 30
0.000000
  70
    32
  0
VERTEX
  8
0
  5
32FD
 10
21.0511
 20
58.7907
 30
0.000000
  70
    32
  0
VERTEX
  8
0
  5
32FE
 10
21.0421
 20
58.7909
 30
0.000000
  70
    32
  0
VERTEX
  8
0
  5
32FF
 10
21.0331
 20
58.7911
 30
0.000000
  70
    32
  0
VERTEX
  8
0
  5
3300
 10
21.0241
 20
58.7914
 30
0.000000
  70
    32
  0
VERTEX
  8
0
  5
3301
 10
21.0150
 20
58.7916
 30
0.000000
  70
    32
  0
VERTEX
  8
0
  5
3302
 10
21.0059
 20
58.7918
 30
0.000000
  70
    32
  0
VERTEX
  8
0
  5
3303
 10
20.9967
 20
58.7920
 30
0.000000
  70
    32
  0
VERTEX
  8
0
  5
3304
 10
20.9875
 20
58.7922
 30
0.000000
  70
    32
  0
VERTEX
  8
0
  5
3305
 10
20.9783
 20
58.7924
 30
0.000000
  70
    32
  0
VERTEX
  8
0
  5
3306
 10
20.9690
 20
58.7926
 30
0.000000
  70
    32
  0
VERTEX
  8
0
  5
3307
 10
20.9597
 20
58.7928
 30
0.000000
  70
    32
  0
VERTEX
  8
0
  5
3308
 10
20.9504
 20
58.7929
 30
0.000000
  70
    32
  0
VERTEX
  8
0
  5
3309
 10
20.9410
 20
58.7931
 30
0.000000
  70
    32
  0
VERTEX
  8
0
  5
330A
 10
20.9316
 20
58.7933
 30
0.000000
  70
    32
  0
VERTEX
  8
0
  5
330B
 10
20.9222
 20
58.7935
 30
0.000000
  70
    32
  0
VERTEX
  8
0
  5
330C
 10
20.9127
 20
58.7936
 30
0.000000
  70
    32
  0
VERTEX
  8
0
  5
330D
 10
20.9032
 20
58.7938
 30
0.000000
  70
    32
  0
VERTEX
  8
0
  5
330E
 10
20.8937
 20
58.7939
 30
0.000000
  70
    32
  0
VERTEX
  8
0
  5
330F
 10
20.8841
 20
58.7941
 30
0.000000
  70
    32
  0
VERTEX
  8
0
  5
3310
 10
20.8746
 20
58.7942
 30
0.000000
  70
    32
  0
VERTEX
  8
0
  5
3311
 10
20.8649
 20
58.7943
 30
0.000000
  70
    32
  0
VERTEX
  8
0
  5
3312
 10
20.8553
 20
58.7945
 30
0.000000
  70
    32
  0
VERTEX
  8
0
  5
3313
 10
20.8456
 20
58.7946
 30
0.000000
  70
    32
  0
VERTEX
  8
0
  5
3314
 10
20.8360
 20
58.7947
 30
0.000000
  70
    32
  0
VERTEX
  8
0
  5
3315
 10
20.8263
 20
58.7948
 30
0.000000
  70
    32
  0
VERTEX
  8
0
  5
3316
 10
20.8165
 20
58.7950
 30
0.000000
  70
    32
  0
VERTEX
  8
0
  5
3317
 10
20.8068
 20
58.7951
 30
0.000000
  70
    32
  0
VERTEX
  8
0
  5
3318
 10
20.7970
 20
58.7952
 30
0.000000
  70
    32
  0
VERTEX
  8
0
  5
3319
 10
20.7872
 20
58.7953
 30
0.000000
  70
    32
  0
VERTEX
  8
0
  5
331A
 10
20.7774
 20
58.7953
 30
0.000000
  70
    32
  0
VERTEX
  8
0
  5
331B
 10
20.7676
 20
58.7954
 30
0.000000
  70
    32
  0
VERTEX
  8
0
  5
331C
 10
20.7578
 20
58.7955
 30
0.000000
  70
    32
  0
VERTEX
  8
0
  5
331D
 10
20.7479
 20
58.7956
 30
0.000000
  70
    32
  0
VERTEX
  8
0
  5
331E
 10
20.7381
 20
58.7957
 30
0.000000
  70
    32
  0
VERTEX
  8
0
  5
331F
 10
20.7282
 20
58.7957
 30
0.000000
  70
    32
  0
VERTEX
  8
0
  5
3320
 10
20.7183
 20
58.7958
 30
0.000000
  70
    32
  0
VERTEX
  8
0
  5
3321
 10
20.7084
 20
58.7958
 30
0.000000
  70
    32
  0
VERTEX
  8
0
  5
3322
 10
20.6985
 20
58.7959
 30
0.000000
  70
    32
  0
VERTEX
  8
0
  5
3323
 10
20.6886
 20
58.7959
 30
0.000000
  70
    32
  0
VERTEX
  8
0
  5
3324
 10
20.6786
 20
58.7960
 30
0.000000
  70
    32
  0
VERTEX
  8
0
  5
3325
 10
20.6687
 20
58.7960
 30
0.000000
  70
    32
  0
VERTEX
  8
0
  5
3326
 10
20.6588
 20
58.7960
 30
0.000000
  70
    32
  0
VERTEX
  8
0
  5
3327
 10
20.6488
 20
58.7961
 30
0.000000
  70
    32
  0
VERTEX
  8
0
  5
3328
 10
20.6389
 20
58.7961
 30
0.000000
  70
    32
  0
VERTEX
  8
0
  5
3329
 10
20.6289
 20
58.7961
 30
0.000000
  70
    32
  0
VERTEX
  8
0
  5
332A
 10
20.6190
 20
58.7961
 30
0.000000
  70
    32
  0
VERTEX
  8
0
  5
332B
 10
20.6090
 20
58.7961
 30
0.000000
  70
    32
  0
SEQEND
  8
0
  5
332C
  0
LINE
  5
2692
  8
0
 10
20.60902355824231
 20
58.796092220069397
 30
0.0
 11
15.172759549041899
 21
58.796092220069397
 31
0.0
  0
POLYLINE
  5
2693
  8
0
 10
14.173368722022799
 20
58.846670994232149
 30
0.0
 66
     1
 70
     8
  0
VERTEX
  8
0
  5
332D
 10
14.1734
 20
58.8467
 30
0.000000
  70
    32
  0
VERTEX
  8
0
  5
332E
 10
14.1739
 20
58.8460
 30
0.000000
  70
    32
  0
VERTEX
  8
0
  5
332F
 10
14.1745
 20
58.8454
 30
0.000000
  70
    32
  0
VERTEX
  8
0
  5
3330
 10
14.1753
 20
58.8448
 30
0.000000
  70
    32
  0
VERTEX
  8
0
  5
3331
 10
14.1762
 20
58.8442
 30
0.000000
  70
    32
  0
VERTEX
  8
0
  5
3332
 10
14.1773
 20
58.8435
 30
0.000000
  70
    32
  0
VERTEX
  8
0
  5
3333
 10
14.1785
 20
58.8429
 30
0.000000
  70
    32
  0
VERTEX
  8
0
  5
3334
 10
14.1798
 20
58.8423
 30
0.000000
  70
    32
  0
VERTEX
  8
0
  5
3335
 10
14.1813
 20
58.8417
 30
0.000000
  70
    32
  0
VERTEX
  8
0
  5
3336
 10
14.1830
 20
58.8410
 30
0.000000
  70
    32
  0
VERTEX
  8
0
  5
3337
 10
14.1847
 20
58.8404
 30
0.000000
  70
    32
  0
VERTEX
  8
0
  5
3338
 10
14.1867
 20
58.8398
 30
0.000000
  70
    32
  0
VERTEX
  8
0
  5
3339
 10
14.1887
 20
58.8392
 30
0.000000
  70
    32
  0
VERTEX
  8
0
  5
333A
 10
14.1909
 20
58.8386
 30
0.000000
  70
    32
  0
VERTEX
  8
0
  5
333B
 10
14.1933
 20
58.8379
 30
0.000000
  70
    32
  0
VERTEX
  8
0
  5
333C
 10
14.1958
 20
58.8373
 30
0.000000
  70
    32
  0
VERTEX
  8
0
  5
333D
 10
14.1984
 20
58.8367
 30
0.000000
  70
    32
  0
VERTEX
  8
0
  5
333E
 10
14.2012
 20
58.8361
 30
0.000000
  70
    32
  0
VERTEX
  8
0
  5
333F
 10
14.2041
 20
58.8355
 30
0.000000
  70
    32
  0
VERTEX
  8
0
  5
3340
 10
14.2071
 20
58.8349
 30
0.000000
  70
    32
  0
VERTEX
  8
0
  5
3341
 10
14.2103
 20
58.8343
 30
0.000000
  70
    32
  0
VERTEX
  8
0
  5
3342
 10
14.2136
 20
58.8337
 30
0.000000
  70
    32
  0
VERTEX
  8
0
  5
3343
 10
14.2171
 20
58.8331
 30
0.000000
  70
    32
  0
VERTEX
  8
0
  5
3344
 10
14.2207
 20
58.8325
 30
0.000000
  70
    32
  0
VERTEX
  8
0
  5
3345
 10
14.2244
 20
58.8319
 30
0.000000
  70
    32
  0
VERTEX
  8
0
  5
3346
 10
14.2283
 20
58.8313
 30
0.000000
  70
    32
  0
VERTEX
  8
0
  5
3347
 10
14.2323
 20
58.8307
 30
0.000000
  70
    32
  0
VERTEX
  8
0
  5
3348
 10
14.2365
 20
58.8301
 30
0.000000
  70
    32
  0
VERTEX
  8
0
  5
3349
 10
14.2408
 20
58.8295
 30
0.000000
  70
    32
  0
VERTEX
  8
0
  5
334A
 10
14.2452
 20
58.8289
 30
0.000000
  70
    32
  0
VERTEX
  8
0
  5
334B
 10
14.2497
 20
58.8283
 30
0.000000
  70
    32
  0
VERTEX
  8
0
  5
334C
 10
14.2544
 20
58.8278
 30
0.000000
  70
    32
  0
VERTEX
  8
0
  5
334D
 10
14.2592
 20
58.8272
 30
0.000000
  70
    32
  0
VERTEX
  8
0
  5
334E
 10
14.2642
 20
58.8266
 30
0.000000
  70
    32
  0
VERTEX
  8
0
  5
334F
 10
14.2692
 20
58.8260
 30
0.000000
  70
    32
  0
VERTEX
  8
0
  5
3350
 10
14.2744
 20
58.8255
 30
0.000000
  70
    32
  0
VERTEX
  8
0
  5
3351
 10
14.2798
 20
58.8249
 30
0.000000
  70
    32
  0
VERTEX
  8
0
  5
3352
 10
14.2852
 20
58.8244
 30
0.000000
  70
    32
  0
VERTEX
  8
0
  5
3353
 10
14.2908
 20
58.8238
 30
0.000000
  70
    32
  0
VERTEX
  8
0
  5
3354
 10
14.2966
 20
58.8232
 30
0.000000
  70
    32
  0
VERTEX
  8
0
  5
3355
 10
14.3024
 20
58.8227
 30
0.000000
  70
    32
  0
VERTEX
  8
0
  5
3356
 10
14.3084
 20
58.8221
 30
0.000000
  70
    32
  0
VERTEX
  8
0
  5
3357
 10
14.3145
 20
58.8216
 30
0.000000
  70
    32
  0
VERTEX
  8
0
  5
3358
 10
14.3207
 20
58.8211
 30
0.000000
  70
    32
  0
VERTEX
  8
0
  5
3359
 10
14.3270
 20
58.8205
 30
0.000000
  70
    32
  0
VERTEX
  8
0
  5
335A
 10
14.3335
 20
58.8200
 30
0.000000
  70
    32
  0
VERTEX
  8
0
  5
335B
 10
14.3401
 20
58.8195
 30
0.000000
  70
    32
  0
VERTEX
  8
0
  5
335C
 10
14.3468
 20
58.8190
 30
0.000000
  70
    32
  0
VERTEX
  8
0
  5
335D
 10
14.3536
 20
58.8184
 30
0.000000
  70
    32
  0
VERTEX
  8
0
  5
335E
 10
14.3605
 20
58.8179
 30
0.000000
  70
    32
  0
VERTEX
  8
0
  5
335F
 10
14.3676
 20
58.8174
 30
0.000000
  70
    32
  0
VERTEX
  8
0
  5
3360
 10
14.3748
 20
58.8169
 30
0.000000
  70
    32
  0
VERTEX
  8
0
  5
3361
 10
14.3821
 20
58.8164
 30
0.000000
  70
    32
  0
VERTEX
  8
0
  5
3362
 10
14.3895
 20
58.8159
 30
0.000000
  70
    32
  0
VERTEX
  8
0
  5
3363
 10
14.3970
 20
58.8154
 30
0.000000
  70
    32
  0
VERTEX
  8
0
  5
3364
 10
14.4046
 20
58.8149
 30
0.000000
  70
    32
  0
VERTEX
  8
0
  5
3365
 10
14.4124
 20
58.8145
 30
0.000000
  70
    32
  0
VERTEX
  8
0
  5
3366
 10
14.4202
 20
58.8140
 30
0.000000
  70
    32
  0
VERTEX
  8
0
  5
3367
 10
14.4282
 20
58.8135
 30
0.000000
  70
    32
  0
VERTEX
  8
0
  5
3368
 10
14.4362
 20
58.8131
 30
0.000000
  70
    32
  0
VERTEX
  8
0
  5
3369
 10
14.4444
 20
58.8126
 30
0.000000
  70
    32
  0
VERTEX
  8
0
  5
336A
 10
14.4527
 20
58.8121
 30
0.000000
  70
    32
  0
VERTEX
  8
0
  5
336B
 10
14.4610
 20
58.8117
 30
0.000000
  70
    32
  0
VERTEX
  8
0
  5
336C
 10
14.4695
 20
58.8112
 30
0.000000
  70
    32
  0
VERTEX
  8
0
  5
336D
 10
14.4781
 20
58.8108
 30
0.000000
  70
    32
  0
VERTEX
  8
0
  5
336E
 10
14.4868
 20
58.8104
 30
0.000000
  70
    32
  0
VERTEX
  8
0
  5
336F
 10
14.4956
 20
58.8099
 30
0.000000
  70
    32
  0
VERTEX
  8
0
  5
3370
 10
14.5044
 20
58.8095
 30
0.000000
  70
    32
  0
VERTEX
  8
0
  5
3371
 10
14.5134
 20
58.8091
 30
0.000000
  70
    32
  0
VERTEX
  8
0
  5
3372
 10
14.5225
 20
58.8087
 30
0.000000
  70
    32
  0
VERTEX
  8
0
  5
3373
 10
14.5316
 20
58.8083
 30
0.000000
  70
    32
  0
VERTEX
  8
0
  5
3374
 10
14.5409
 20
58.8079
 30
0.000000
  70
    32
  0
VERTEX
  8
0
  5
3375
 10
14.5502
 20
58.8075
 30
0.000000
  70
    32
  0
VERTEX
  8
0
  5
3376
 10
14.5597
 20
58.8071
 30
0.000000
  70
    32
  0
VERTEX
  8
0
  5
3377
 10
14.5692
 20
58.8067
 30
0.000000
  70
    32
  0
VERTEX
  8
0
  5
3378
 10
14.5788
 20
58.8063
 30
0.000000
  70
    32
  0
VERTEX
  8
0
  5
3379
 10
14.5885
 20
58.8060
 30
0.000000
  70
    32
  0
VERTEX
  8
0
  5
337A
 10
14.5983
 20
58.8056
 30
0.000000
  70
    32
  0
VERTEX
  8
0
  5
337B
 10
14.6082
 20
58.8052
 30
0.000000
  70
    32
  0
VERTEX
  8
0
  5
337C
 10
14.6181
 20
58.8049
 30
0.000000
  70
    32
  0
VERTEX
  8
0
  5
337D
 10
14.6281
 20
58.8045
 30
0.000000
  70
    32
  0
VERTEX
  8
0
  5
337E
 10
14.6382
 20
58.8042
 30
0.000000
  70
    32
  0
VERTEX
  8
0
  5
337F
 10
14.6484
 20
58.8039
 30
0.000000
  70
    32
  0
VERTEX
  8
0
  5
3380
 10
14.6587
 20
58.8035
 30
0.000000
  70
    32
  0
VERTEX
  8
0
  5
3381
 10
14.6690
 20
58.8032
 30
0.000000
  70
    32
  0
VERTEX
  8
0
  5
3382
 10
14.6794
 20
58.8029
 30
0.000000
  70
    32
  0
VERTEX
  8
0
  5
3383
 10
14.6899
 20
58.8026
 30
0.000000
  70
    32
  0
VERTEX
  8
0
  5
3384
 10
14.7004
 20
58.8023
 30
0.000000
  70
    32
  0
VERTEX
  8
0
  5
3385
 10
14.7110
 20
58.8020
 30
0.000000
  70
    32
  0
VERTEX
  8
0
  5
3386
 10
14.7217
 20
58.8017
 30
0.000000
  70
    32
  0
VERTEX
  8
0
  5
3387
 10
14.7324
 20
58.8014
 30
0.000000
  70
    32
  0
VERTEX
  8
0
  5
3388
 10
14.7432
 20
58.8012
 30
0.000000
  70
    32
  0
VERTEX
  8
0
  5
3389
 10
14.7541
 20
58.8009
 30
0.000000
  70
    32
  0
VERTEX
  8
0
  5
338A
 10
14.7650
 20
58.8006
 30
0.000000
  70
    32
  0
VERTEX
  8
0
  5
338B
 10
14.7760
 20
58.8004
 30
0.000000
  70
    32
  0
VERTEX
  8
0
  5
338C
 10
14.7871
 20
58.8001
 30
0.000000
  70
    32
  0
VERTEX
  8
0
  5
338D
 10
14.7982
 20
58.7999
 30
0.000000
  70
    32
  0
VERTEX
  8
0
  5
338E
 10
14.8093
 20
58.7997
 30
0.000000
  70
    32
  0
VERTEX
  8
0
  5
338F
 10
14.8205
 20
58.7995
 30
0.000000
  70
    32
  0
VERTEX
  8
0
  5
3390
 10
14.8318
 20
58.7992
 30
0.000000
  70
    32
  0
VERTEX
  8
0
  5
3391
 10
14.8431
 20
58.7990
 30
0.000000
  70
    32
  0
VERTEX
  8
0
  5
3392
 10
14.8544
 20
58.7988
 30
0.000000
  70
    32
  0
VERTEX
  8
0
  5
3393
 10
14.8658
 20
58.7986
 30
0.000000
  70
    32
  0
VERTEX
  8
0
  5
3394
 10
14.8773
 20
58.7984
 30
0.000000
  70
    32
  0
VERTEX
  8
0
  5
3395
 10
14.8887
 20
58.7983
 30
0.000000
  70
    32
  0
VERTEX
  8
0
  5
3396
 10
14.9003
 20
58.7981
 30
0.000000
  70
    32
  0
VERTEX
  8
0
  5
3397
 10
14.9118
 20
58.7979
 30
0.000000
  70
    32
  0
VERTEX
  8
0
  5
3398
 10
14.9234
 20
58.7977
 30
0.000000
  70
    32
  0
VERTEX
  8
0
  5
3399
 10
14.9351
 20
58.7976
 30
0.000000
  70
    32
  0
VERTEX
  8
0
  5
339A
 10
14.9467
 20
58.7974
 30
0.000000
  70
    32
  0
VERTEX
  8
0
  5
339B
 10
14.9585
 20
58.7973
 30
0.000000
  70
    32
  0
VERTEX
  8
0
  5
339C
 10
14.9702
 20
58.7972
 30
0.000000
  70
    32
  0
VERTEX
  8
0
  5
339D
 10
14.9820
 20
58.7971
 30
0.000000
  70
    32
  0
VERTEX
  8
0
  5
339E
 10
14.9937
 20
58.7969
 30
0.000000
  70
    32
  0
VERTEX
  8
0
  5
339F
 10
15.0056
 20
58.7968
 30
0.000000
  70
    32
  0
VERTEX
  8
0
  5
33A0
 10
15.0174
 20
58.7967
 30
0.000000
  70
    32
  0
VERTEX
  8
0
  5
33A1
 10
15.0293
 20
58.7966
 30
0.000000
  70
    32
  0
VERTEX
  8
0
  5
33A2
 10
15.0412
 20
58.7965
 30
0.000000
  70
    32
  0
VERTEX
  8
0
  5
33A3
 10
15.0531
 20
58.7965
 30
0.000000
  70
    32
  0
VERTEX
  8
0
  5
33A4
 10
15.0650
 20
58.7964
 30
0.000000
  70
    32
  0
VERTEX
  8
0
  5
33A5
 10
15.0769
 20
58.7963
 30
0.000000
  70
    32
  0
VERTEX
  8
0
  5
33A6
 10
15.0889
 20
58.7963
 30
0.000000
  70
    32
  0
VERTEX
  8
0
  5
33A7
 10
15.1008
 20
58.7962
 30
0.000000
  70
    32
  0
VERTEX
  8
0
  5
33A8
 10
15.1128
 20
58.7962
 30
0.000000
  70
    32
  0
VERTEX
  8
0
  5
33A9
 10
15.1248
 20
58.7962
 30
0.000000
  70
    32
  0
VERTEX
  8
0
  5
33AA
 10
15.1368
 20
58.7961
 30
0.000000
  70
    32
  0
VERTEX
  8
0
  5
33AB
 10
15.1488
 20
58.7961
 30
0.000000
  70
    32
  0
VERTEX
  8
0
  5
33AC
 10
15.1608
 20
58.7961
 30
0.000000
  70
    32
  0
VERTEX
  8
0
  5
33AD
 10
15.1728
 20
58.7961
 30
0.000000
  70
    32
  0
SEQEND
  8
0
  5
33AE
  0
LINE
  5
2694
  8
0
 10
14.173368722022779
 20
58.849823736604101
 30
0.0
 11
14.173368722022779
 21
58.84667099423217
 31
0.0
  0
LINE
  5
2695
  8
0
 10
14.173368722022779
 20
58.849823736604101
 30
0.0
 11
14.38356767933513
 21
59.164850111805009
 31
0.0
  0
LINE
  5
2696
  8
0
 10
39.463269024533311
 20
59.110538895767661
 30
0.0
 11
14.383468419512351
 21
59.110538895767661
 31
0.0
  0
LINE
  5
2697
  8
0
 10
21.15750299303096
 20
59.110538895767661
 30
0.0
 11
22.780578220174078
 21
58.832695685326712
 31
0.0
  0
ARC
  5
2698
  8
0
 10
23.582270188108819
 20
67.168638644710043
 30
0.0
 40
8.3744047569689251
 50
264.50659265596698
 51
271.0578857620992
  0
LINE
  5
2699
  8
0
 10
23.736882976137078
 20
58.795661281828806
 30
0.0
 11
30.109854467908779
 21
58.795661281828806
 31
0.0
  0
ARC
  5
269A
  8
0
 10
30.264467255936609
 20
67.168638644721256
 30
0.0
 40
8.3744047569801126
 50
268.94211423790568
 51
275.49340734403143
  0
LINE
  5
269B
  8
0
 10
31.066159223871779
 20
58.832695685326712
 30
0.0
 11
32.689234451014528
 21
59.110538895767661
 31
0.0
  0
LINE
  5
269D
  8
0
 10
39.463169764710557
 20
59.164850111805151
 30
0.0
 11
39.673368722022794
 21
58.849823736604101
 31
0.0
  0
LINE
  5
269E
  8
0
 10
39.673368722022794
 20
58.849823736604101
 30
0.0
 11
39.673368722022794
 21
58.846670994232078
 31
0.0
  0
LINE
  5
269F
  8
0
 10
23.923329797051309
 20
58.481645544371133
 30
0.0
 11
23.923329797051309
 21
56.981645544371162
 31
0.0
  0
ARC
  5
26A0
  8
0
 10
22.030645906484299
 20
59.259870205499787
 30
0.0
 40
2.9618507585943652
 50
290.28116710322013
 51
309.71883289678931
  0
LINE
  5
26A2
  8
0
 10
22.967025041088299
 20
58.518730771884471
 30
0.0
 11
22.967025041088299
 21
56.481645544371133
 31
0.0
  0
LINE
  5
26A4
  8
0
 10
29.923407646994828
 20
56.981645544371162
 30
0.0
 11
23.923329797051309
 21
56.981645544371162
 31
0.0
  0
ARC
  5
26A5
  8
0
 10
31.816091537547319
 20
59.25987020547484
 30
0.0
 40
2.9618507585660021
 50
230.28116710311579
 51
249.71883289687429
  0
LINE
  5
26A6
  8
0
 10
29.923407646994828
 20
58.481645544371133
 30
0.0
 11
29.923407646994828
 21
56.981645544371162
 31
0.0
  0
LINE
  5
26A7
  8
0
 10
30.879712402957839
 20
58.518730771884471
 30
0.0
 11
30.879712402957839
 21
56.481645544371133
 31
0.0
  0
LINE
  5
26A9
  8
0
 10
21.565328314205399
 20
58.75900699255606
 30
0.0
 11
21.565328314205399
 21
56.481645544371133
 31
0.0
  0
LINE
  5
26AB
  8
0
 10
32.281409129839801
 20
58.75900699255606
 30
0.0
 11
32.281409129839801
 21
56.481645544371133
 31
0.0
  0
LINE
  5
26B2
  8
0
 10
14.173368722022779
 20
58.84667099423217
 30
0.0
 11
14.173368722022779
 21
56.481645544371133
 31
0.0
  0
LINE
  5
26B7
  8
0
 10
39.673368722022794
 20
58.846670994232078
 30
0.0
 11
39.673368722022794
 21
56.481645544371133
 31
0.0
  0
LINE
  5
26B8
  8
0
 10
39.673368722022794
 20
56.481645544371133
 30
0.0
 11
14.17336872202276
 21
56.481645544371133
 31
0.0
  0
CIRCLE
  5
26B9
  8
0
 10
26.92336872202279
 20
65.981645544371133
 30
0.0
 40
5.7300000000000031
  0
LINE
  5
26BA
  8
0
 10
39.437004219522208
 20
73.481645544371133
 30
0.0
 11
14.40973322452342
 21
73.481645544371133
 31
0.0
  0
LINE
  5
26BB
  8
0
 10
39.437004219522208
 20
73.481645544371133
 30
0.0
 11
39.463269024533332
 21
59.110538895767661
 31
0.0
  0
LINE
  5
26BD
  8
0
 10
14.383468419512351
 20
59.110538895767661
 30
0.0
 11
14.40973322452342
 21
73.481645544371133
 31
0.0
  0
CIRCLE
  5
26BE
  8
0
 10
26.92336872202279
 20
65.981645544371133
 30
0.0
 40
3.0
  0
CIRCLE
  5
26BF
  8
0
 10
26.92336872202279
 20
65.981645544371133
 30
0.0
 40
4.9800000000000031
  0
ARC
  5
2735
  8
0
 10
57.923368722023383
 20
29.481684469342671
 30
0.0
 40
1.0000000000006211
 50
106.9999999999899
 51
180.0
  0
ARC
  5
273A
  8
0
 10
57.923368722023383
 20
23.481606619400171
 30
0.0
 40
1.0000000000006211
 50
180.0
 51
253.00000000001009
  0
LINE
  5
2837
  8
1
 10
26.92336872202279
 20
76.481645544371133
 30
0.0
 11
26.92336872202279
 21
53.481645544371133
 31
0.0
  0
LINE
  5
2838
  8
1
 10
105.9233687220227
 20
76.481645544371133
 30
0.0
 11
105.9233687220227
 21
53.481645544371133
 31
0.0
  0
LINE
  5
2839
  8
1
 10
53.923368722022751
 20
103.4816455443711
 30
0.0
 11
78.923368722022744
 21
103.4816455443711
 31
0.0
  0
LINE
  5
283A
  8
1
 10
114.9233687220227
 20
65.981645544371133
 30
0.0
 11
96.923368722022744
 21
65.981645544371133
 31
0.0
  0
LINE
  5
283B
  8
1
 10
78.923368722022744
 20
26.48164554437113
 30
0.0
 11
53.923368722022751
 21
26.48164554437113
 31
0.0
  0
LINE
  5
284F
  8
1
 10
78.923368722022786
 20
65.981645544371133
 30
0.0
 11
65.923368722022786
 21
65.981645544371133
 31
0.0
  0
LINE
  5
2850
  8
1
 10
35.653368722022797
 20
65.981645544371133
 30
0.0
 11
18.193368722022768
 21
65.981645544371133
 31
0.0
  0
ARC
  5
28A4
  8
2
 10
70.583368722023124
 20
98.071645544371137
 30
0.0
 40
0.4399999999998841
 50
313.34175822719919
 51
0.0
  0
ARC
  5
28A5
  8
2
 10
70.583368722023124
 20
98.071645544371137
 30
0.0
 40
0.4399999999999184
 50
0.0
 51
77.761244232093361
  0
ARC
  5
28A6
  8
2
 10
70.583368722023124
 20
108.8916455443711
 30
0.0
 40
0.4399999999998841
 50
0.0
 51
46.658241772803052
  0
ARC
  5
28A7
  8
2
 10
70.583368722023124
 20
108.8916455443711
 30
0.0
 40
0.4399999999999045
 50
282.23875576790817
 51
0.0
  0
LINE
  5
28A8
  8
2
 10
71.023368722022994
 20
98.071645544371137
 30
0.0
 11
71.023368722022994
 21
108.8916455443711
 31
0.0
  0
LINE
  5
28A9
  8
2
 10
68.92336872202273
 20
97.751645544371129
 30
0.0
 11
70.885362099433735
 21
97.751645544371129
 31
0.0
  0
LINE
  5
28AA
  8
2
 10
70.885362099433735
 20
109.21164554437109
 30
0.0
 11
68.92336872202273
 21
109.21164554437109
 31
0.0
  0
LINE
  5
28AB
  8
2
 10
68.92336872202273
 20
98.501645544371144
 30
0.0
 11
70.676642512553713
 21
98.501645544371144
 31
0.0
  0
LINE
  5
28AC
  8
2
 10
70.676642512553713
 20
108.46164554437109
 30
0.0
 11
68.92336872202273
 21
108.46164554437109
 31
0.0
  0
ARC
  5
28AD
  8
2
 10
70.583368722023152
 20
21.07164554437119
 30
0.0
 40
0.4399999999998841
 50
313.34175822719919
 51
0.0
  0
ARC
  5
28AE
  8
2
 10
70.583368722023152
 20
21.07164554437119
 30
0.0
 40
0.4399999999999184
 50
0.0
 51
77.761244232093361
  0
ARC
  5
28AF
  8
2
 10
70.583368722023152
 20
31.89164554437119
 30
0.0
 40
0.4399999999998841
 50
0.0
 51
46.658241772803052
  0
ARC
  5
28B0
  8
2
 10
70.583368722023152
 20
31.89164554437119
 30
0.0
 40
0.4399999999999045
 50
282.23875576790817
 51
0.0
  0
LINE
  5
28B1
  8
2
 10
71.023368722023037
 20
21.07164554437119
 30
0.0
 11
71.023368722023037
 21
31.89164554437119
 31
0.0
  0
LINE
  5
28B2
  8
2
 10
68.943670678968445
 20
20.7516455443712
 30
0.0
 11
70.885362099433763
 21
20.7516455443712
 31
0.0
  0
LINE
  5
28B3
  8
2
 10
70.885362099433763
 20
32.21164554437118
 30
0.0
 11
68.943670678968644
 21
32.21164554437118
 31
0.0
  0
LINE
  5
28B4
  8
2
 10
68.923368722022744
 20
21.5016455443712
 30
0.0
 11
70.676642512553741
 21
21.5016455443712
 31
0.0
  0
LINE
  5
28B5
  8
2
 10
70.676642512553741
 20
31.46164554437118
 30
0.0
 11
68.923368722022744
 21
31.46164554437118
 31
0.0
  0
TEXT
  5
2A31
  8
0
 62
     3
 10
0.0
 20
0.0
 30
0.0
 40
10.0
  1
DLB30-05
  7
STANDARD1
  0
ENDSEC
  0
EOF
