  0
SECTION
  2
HEADER
  9
$ACADVER
  1
AC1009
  9
$INSBASE
 10
0.0
 20
0.0
 30
0.0
  9
$EXTMIN
 10
0.0
 20
-2.960436562073669
 30
0.0
  9
$EXTMAX
 10
407.75000000001609
 20
270.0
 30
0.0
  9
$LIMMIN
 10
0.0
 20
0.0
  9
$LIMMAX
 10
75.0
 20
54.0
  9
$ORTHOMODE
 70
     1
  9
$REGENMODE
 70
     1
  9
$FILLMODE
 70
     1
  9
$QTEXTMODE
 70
     0
  9
$MIRRTEXT
 70
     0
  9
$DRAGMODE
 70
     2
  9
$LTSCALE
 40
10.0
  9
$OSMODE
 70
    37
  9
$ATTMODE
 70
     1
  9
$TEXTSIZE
 40
0.2
  9
$TRACEWID
 40
0.05
  9
$TEXTSTYLE
  7
STANDARD
  9
$CLAYER
  8
0
  9
$CELTYPE
  6
BYLAYER
  9
$CECOLOR
 62
   256
  9
$DIMSCALE
 40
0.2
  9
$DIMASZ
 40
3.0
  9
$DIMEXO
 40
2.0
  9
$DIMDLI
 40
10.0
  9
$DIMRND
 40
0.0
  9
$DIMDLE
 40
0.0
  9
$DIMEXE
 40
2.0
  9
$DIMTP
 40
0.0
  9
$DIMTM
 40
0.0
  9
$DIMTXT
 40
3.0
  9
$DIMCEN
 40
0.09
  9
$DIMTSZ
 40
0.0
  9
$DIMTOL
 70
     0
  9
$DIMLIM
 70
     0
  9
$DIMTIH
 70
     0
  9
$DIMTOH
 70
     0
  9
$DIMSE1
 70
     0
  9
$DIMSE2
 70
     0
  9
$DIMTAD
 70
     1
  9
$DIMZIN
 70
     0
  9
$DIMBLK
  1

  9
$DIMASO
 70
     0
  9
$DIMSHO
 70
     0
  9
$DIMPOST
  1

  9
$DIMAPOST
  1

  9
$DIMALT
 70
     0
  9
$DIMALTD
 70
     2
  9
$DIMALTF
 40
25.399999999999999
  9
$DIMLFAC
 40
1.0
  9
$DIMTOFL
 70
     1
  9
$DIMTVP
 40
1.6000000000000001
  9
$DIMTIX
 70
     1
  9
$DIMSOXD
 70
     0
  9
$DIMSAH
 70
     0
  9
$DIMBLK1
  1

  9
$DIMBLK2
  1

  9
$DIMSTYLE
  2
STANDARD
  9
$DIMCLRD
 70
     0
  9
$DIMCLRE
 70
     0
  9
$DIMCLRT
 70
     0
  9
$DIMTFAC
 40
1.0
  9
$DIMGAP
 40
0.09
  9
$LUNITS
 70
     2
  9
$LUPREC
 70
     4
  9
$SKETCHINC
 40
0.1
  9
$FILLETRAD
 40
0.0
  9
$AUNITS
 70
     0
  9
$AUPREC
 70
     0
  9
$MENU
  1
E:\r13\win\SUPPORT\ACAD
  9
$ELEVATION
 40
0.0
  9
$PELEVATION
 40
0.0
  9
$THICKNESS
 40
0.0
  9
$LIMCHECK
 70
     0
  9
$BLIPMODE
 70
     0
  9
$CHAMFERA
 40
0.0
  9
$CHAMFERB
 40
0.0
  9
$SKPOLY
 70
     0
  9
$TDCREATE
 40
2449840.618888889
  9
$TDUPDATE
 40
2459429.573991979
  9
$TDINDWG
 40
0.3711299884
  9
$TDUSRTIMER
 40
0.3711299884
  9
$USRTIMER
 70
     1
  9
$ANGBASE
 50
0.0
  9
$ANGDIR
 70
     0
  9
$PDMODE
 70
     0
  9
$PDSIZE
 40
0.0
  9
$PLINEWID
 40
0.0
  9
$COORDS
 70
     1
  9
$SPLFRAME
 70
     0
  9
$SPLINETYPE
 70
     6
  9
$SPLINESEGS
 70
     8
  9
$ATTDIA
 70
     0
  9
$ATTREQ
 70
     1
  9
$HANDLING
 70
     1
  9
$HANDSEED
  5
14F7
  9
$SURFTAB1
 70
     6
  9
$SURFTAB2
 70
     6
  9
$SURFTYPE
 70
     6
  9
$SURFU
 70
     6
  9
$SURFV
 70
     6
  9
$UCSNAME
  2

  9
$UCSORG
 10
0.0
 20
0.0
 30
0.0
  9
$UCSXDIR
 10
1.0
 20
0.0
 30
0.0
  9
$UCSYDIR
 10
0.0
 20
1.0
 30
0.0
  9
$PUCSNAME
  2

  9
$PUCSORG
 10
0.0
 20
0.0
 30
0.0
  9
$PUCSXDIR
 10
1.0
 20
0.0
 30
0.0
  9
$PUCSYDIR
 10
0.0
 20
1.0
 30
0.0
  9
$USERI1
 70
     0
  9
$USERI2
 70
     1
  9
$USERI3
 70
     1
  9
$USERI4
 70
     0
  9
$USERI5
 70
     0
  9
$USERR1
 40
0.0
  9
$USERR2
 40
0.0
  9
$USERR3
 40
0.0
  9
$USERR4
 40
0.0
  9
$USERR5
 40
0.0
  9
$WORLDVIEW
 70
     1
  9
$SHADEDGE
 70
     3
  9
$SHADEDIF
 70
    70
  9
$TILEMODE
 70
     1
  9
$MAXACTVP
 70
    16
  9
$PLIMCHECK
 70
     0
  9
$PEXTMIN
 10
1.0000000000000000E+020
 20
1.0000000000000000E+020
 30
1.0000000000000000E+020
  9
$PEXTMAX
 10
-1.0000000000000000E+020
 20
-1.0000000000000000E+020
 30
-1.0000000000000000E+020
  9
$PLIMMIN
 10
0.0
 20
0.0
  9
$PLIMMAX
 10
12.0
 20
9.0
  9
$UNITMODE
 70
     0
  9
$VISRETAIN
 70
     0
  9
$PLINEGEN
 70
     0
  9
$PSLTSCALE
 70
     0
  0
ENDSEC
  0
SECTION
  2
TABLES
  0
TABLE
  2
VPORT
 70
     1
  0
VPORT
  2
*ACTIVE
 70
     0
 10
0.0
 20
0.0
 11
1.0
 21
1.0
 12
346.50011881357381
 22
133.5277654860374
 13
0.0
 23
0.0
 14
2.0
 24
2.0
 15
2.0
 25
2.0
 16
0.0
 26
0.0
 36
1.0
 17
0.0
 27
0.0
 37
0.0
 40
292.16531092969041
 41
2.3805970149253728
 42
50.0
 43
0.0
 44
0.0
 50
0.0
 51
0.0
 71
     0
 72
   100
 73
     1
 74
     0
 75
     0
 76
     0
 77
     0
 78
     2
  0
ENDTAB
  0
TABLE
  2
LTYPE
 70
     4
  0
LTYPE
  2
CONTINUOUS
 70
     0
  3
Solid Line
 72
    65
 73
     0
 40
0.0
  0
LTYPE
  2
CENTER
 70
     0
  3
____ _ ____ _ ____ _ ____ _ ____ _ ____ _ ____
 72
    65
 73
     4
 40
2.0
 49
1.25
 49
-0.25
 49
0.25
 49
-0.25
  0
LTYPE
  2
HIDDEN
 70
     0
  3
_ _ _ _ _ _ _ _ _ _ _ _ _ _ _ _ _ _ _ _ _ _ _
 72
    65
 73
     2
 40
0.375
 49
0.25
 49
-0.125
  0
LTYPE
  2
PHANTOM2
 70
     0
  3
___ _ _ ___ _ _ ___ _ _ ___ _ _
 72
    65
 73
     6
 40
1.25
 49
0.625
 49
-0.125
 49
0.125
 49
-0.125
 49
0.125
 49
-0.125
  0
ENDTAB
  0
TABLE
  2
LAYER
 70
     3
  0
LAYER
  2
0
 70
     0
 62
     7
  6
CONTINUOUS
  0
LAYER
  2
1
 70
     0
 62
     1
  6
CENTER
  0
LAYER
  2
2
 70
     0
 62
     2
  6
HIDDEN
  0
ENDTAB
  0
TABLE
  2
STYLE
 70
     2
  0
STYLE
  2
STANDARD
 70
     0
 40
0.0
 41
1.0
 50
0.0
 71
     0
 42
0.2
  3
TXT
  4
BIGFONT
  0
STYLE
  2
STANDARD1
 70
     0
 40
0.0
 41
1.0
 50
0.0
 71
     0
 42
3.0
  3
txt
  4

  0
ENDTAB
  0
TABLE
  2
VIEW
 70
     1
  0
VIEW
  2
ALL
 70
     0
 40
54.0
 10
44.198318999999998
 20
27.0
 41
0.0
 11
0.0
 21
0.0
 31
1.0
 12
0.0
 22
0.0
 32
0.0
 42
0.0
 43
0.0
 44
0.0
 50
0.0
 71
     0
  0
ENDTAB
  0
TABLE
  2
UCS
 70
     0
  0
ENDTAB
  0
TABLE
  2
APPID
 70
     5
  0
APPID
  2
ACAD
 70
     0
  0
APPID
  2
DCO15
 70
     0
  0
APPID
  2
ACAD_MLEADERVER
 70
     0
  0
APPID
  2
ACAD_NAV_VCDISPLAY
 70
     0
  0
APPID
  2
ACAD_EXEMPT_FROM_CAD_STANDARDS
 70
     0
  0
ENDTAB
  0
TABLE
  2
DIMSTYLE
 70
     1
  0
DIMSTYLE
  2
STANDARD
 70
     0
  3

  4

  5

  6

  7

 40
1.0
 41
0.18
 42
0.0625
 43
0.38
 44
0.18
 45
0.0
 46
0.0
 47
0.0
 48
0.0
140
0.18
141
0.09
142
0.0
143
25.399999999999999
144
1.0
145
0.0
146
1.0
147
0.09
 71
     0
 72
     0
 73
     1
 74
     1
 75
     0
 76
     0
 77
     0
 78
     0
170
     0
171
     2
172
     0
173
     0
174
     0
175
     0
176
     0
177
     0
178
     0
  0
ENDTAB
  0
ENDSEC
  0
SECTION
  2
BLOCKS
  0
BLOCK
  8
0
  2
$MODEL_SPACE
 70
     0
 10
0.0
 20
0.0
 30
0.0
  3
$MODEL_SPACE
  1

  0
ENDBLK
  5
2D4
  8
0
  0
BLOCK
 67
     1
  8
0
  2
$PAPER_SPACE
 70
     0
 10
0.0
 20
0.0
 30
0.0
  3
$PAPER_SPACE
  1

  0
ENDBLK
  5
2D2
 67
     1
  8
0
  0
ENDSEC
  0
SECTION
  2
ENTITIES
  0
TEXT
  5
A93
  8
0
 62
     3
 10
0.0
 20
0.0
 30
0.0
 40
10.0
  1
EAG200-SA
  7
STANDARD1
  0
LINE
  5
10CB
  8
2
 10
395.0
 20
144.17315114334411
 30
0.0
 11
395.0
 21
140.0
 31
0.0
  0
LINE
  5
10CC
  8
2
 10
393.0499999999999
 20
140.0
 30
0.0
 11
393.0499999999999
 21
143.5
 31
0.0
  0
LINE
  5
10CD
  8
2
 10
382.25
 20
143.5
 30
0.0
 11
382.25
 21
140.0
 31
0.0
  0
LINE
  5
10CE
  8
2
 10
382.25
 20
143.5
 30
0.0
 11
393.0499999999999
 21
143.5
 31
0.0
  0
LINE
  5
10D0
  8
2
 10
395.75
 20
140.0
 30
0.0
 11
380.75
 21
140.0
 31
0.0
  0
LINE
  5
10D2
  8
2
 10
380.75
 20
147.46302286688351
 30
0.0
 11
395.75
 21
144.0
 31
0.0
  0
LINE
  5
10D3
  8
2
 10
202.5
 20
144.17315114334411
 30
0.0
 11
202.5
 21
140.0
 31
0.0
  0
LINE
  5
10D4
  8
2
 10
204.4500000000001
 20
143.5
 30
0.0
 11
215.25
 21
143.5
 31
0.0
  0
LINE
  5
10D5
  8
2
 10
204.4500000000001
 20
140.0
 30
0.0
 11
204.4500000000001
 21
143.5
 31
0.0
  0
LINE
  5
10D6
  8
2
 10
215.25
 20
140.0
 30
0.0
 11
215.25
 21
143.5
 31
0.0
  0
LINE
  5
10D7
  8
2
 10
201.75
 20
144.0
 30
0.0
 11
216.75
 21
147.46302286688351
 31
0.0
  0
LINE
  5
10DA
  8
2
 10
216.75
 20
140.0
 30
0.0
 11
201.75
 21
140.0
 31
0.0
  0
LINE
  5
10DB
  8
2
 10
205.0
 20
124.0
 30
0.0
 11
205.0
 21
105.0
 31
0.0
  0
LINE
  5
10DC
  8
2
 10
213.5
 20
105.0
 30
0.0
 11
213.5
 21
124.0
 31
0.0
  0
LINE
  5
10DD
  8
2
 10
384.0
 20
124.0
 30
0.0
 11
384.0
 21
105.0
 31
0.0
  0
LINE
  5
10DE
  8
2
 10
392.5
 20
105.0
 30
0.0
 11
392.5
 21
124.0
 31
0.0
  0
LINE
  5
10DF
  8
2
 10
202.75
 20
140.0
 30
0.0
 11
202.75
 21
124.0
 31
0.0
  0
LINE
  5
10E0
  8
2
 10
215.75
 20
124.0
 30
0.0
 11
215.75
 21
140.0
 31
0.0
  0
LINE
  5
10E1
  8
2
 10
215.75
 20
124.0
 30
0.0
 11
202.75
 21
124.0
 31
0.0
  0
LINE
  5
10E2
  8
2
 10
381.75
 20
140.0
 30
0.0
 11
381.75
 21
124.0
 31
0.0
  0
LINE
  5
10E3
  8
2
 10
394.75
 20
124.0
 30
0.0
 11
394.75
 21
140.0
 31
0.0
  0
LINE
  5
10E4
  8
2
 10
394.75
 20
124.0
 30
0.0
 11
381.75
 21
124.0
 31
0.0
  0
LINE
  5
10E5
  8
2
 10
395.59846922834959
 20
140.0
 30
0.0
 11
395.7000000000001
 21
140.0
 31
0.0
  0
LINE
  5
10E6
  8
2
 10
395.75
 20
140.0
 30
0.0
 11
395.75
 21
145.44522928509511
 31
0.0
  0
LINE
  5
10E7
  8
2
 10
380.75
 20
148.48280688207069
 30
0.0
 11
380.75
 21
140.0
 31
0.0
  0
LINE
  5
10E8
  8
2
 10
201.75
 20
145.44522928509511
 30
0.0
 11
201.75
 21
140.0
 31
0.0
  0
LINE
  5
10E9
  8
2
 10
216.75
 20
140.0
 30
0.0
 11
216.75
 21
148.48280688207069
 31
0.0
  0
LINE
  5
10F0
  8
1
 10
388.25
 20
151.96401808358291
 30
0.0
 11
388.25
 21
100.0
 31
0.0
  0
LINE
  5
10F1
  8
1
 10
209.25
 20
151.96401808358291
 30
0.0
 11
209.25
 21
100.0
 31
0.0
  0
LINE
  5
10F2
  8
1
 10
298.75
 20
161.0
 30
0.0
 11
298.75
 21
141.50000000000011
 31
0.0
  0
ARC
  5
110D
  8
0
 10
298.74999999957402
 20
-295.00000000185668
 30
0.0
 40
451.00000000190488
 50
76.636029797239885
 51
77.579919723222815
  0
ARC
  5
110E
  8
0
 10
298.74999999999892
 20
-295.00000000001017
 30
0.0
 40
451.00000000001017
 50
79.524318303609817
 51
88.254757146603836
  0
ARC
  5
1112
  8
0
 10
298.7500000000162
 20
-295.00000000128392
 30
0.0
 40
451.00000000128392
 50
90.000000000003254
 51
91.744782327296647
  0
ARC
  5
1113
  8
0
 10
298.75000000000239
 20
-295.00000000002041
 30
0.0
 40
451.00000000002052
 50
91.744782327299902
 51
100.4756816963902
  0
ARC
  5
1114
  8
0
 10
298.74999999956879
 20
-294.999999998107
 30
0.0
 40
450.99999999805863
 50
102.4200802767738
 51
103.36396993738759
  0
ARC
  5
111C
  8
0
 10
298.74999999999989
 20
-294.99999999999068
 30
0.0
 40
441.49999999999079
 50
80.186499976803816
 51
99.81350002319617
  0
LINE
  5
1123
  8
0
 10
194.5
 20
143.7858460104668
 30
0.0
 11
194.5
 21
105.0
 31
0.0
  0
LINE
  5
1124
  8
0
 10
223.5
 20
105.0
 30
0.0
 11
223.5
 21
140.03986886261359
 31
0.0
  0
LINE
  5
1125
  8
0
 10
223.5
 20
105.0
 30
0.0
 11
194.5
 21
105.0
 31
0.0
  0
LINE
  5
112A
  8
0
 10
374.0
 20
140.03986886261359
 30
0.0
 11
374.0
 21
105.0
 31
0.0
  0
LINE
  5
112B
  8
0
 10
403.0
 20
105.0
 30
0.0
 11
403.0
 21
143.7858460104668
 31
0.0
  0
LINE
  5
112C
  8
0
 10
403.0
 20
105.0
 30
0.0
 11
374.0
 21
105.0
 31
0.0
  0
LINE
  5
1132
  8
2
 10
395.5421124032423
 20
252.0
 30
0.0
 11
395.59846922836567
 21
252.0
 31
0.0
  0
LINE
  5
1133
  8
2
 10
395.59846922836567
 20
249.0
 30
0.0
 11
395.54440394282921
 21
249.0
 31
0.0
  0
LINE
  5
1134
  8
0
 10
395.00000000001609
 20
249.0
 30
0.0
 11
395.00000000001609
 21
252.0
 31
0.0
  0
LINE
  5
1135
  8
0
 10
395.00000000001609
 20
252.0
 30
0.0
 11
395.5421124032423
 21
252.0
 31
0.0
  0
LINE
  5
1136
  8
0
 10
395.54440394282921
 20
249.0
 30
0.0
 11
395.00000000001609
 21
249.0
 31
0.0
  0
LINE
  5
113A
  8
2
 10
201.95435127820599
 20
249.0
 30
0.0
 11
201.9015307716665
 21
249.0
 31
0.0
  0
LINE
  5
113B
  8
2
 10
201.9015307716665
 20
252.0
 30
0.0
 11
201.9576916016824
 21
252.0
 31
0.0
  0
LINE
  5
113C
  8
0
 10
202.5000000000162
 20
252.0
 30
0.0
 11
202.5000000000162
 21
249.0
 31
0.0
  0
LINE
  5
113D
  8
0
 10
202.5000000000162
 20
249.0
 30
0.0
 11
201.95435127820599
 21
249.0
 31
0.0
  0
LINE
  5
113E
  8
0
 10
201.9576916016824
 20
252.0
 30
0.0
 11
202.5000000000162
 21
252.0
 31
0.0
  0
CIRCLE
  5
113F
  8
2
 10
209.25000000001609
 20
250.5
 30
0.0
 40
4.2499999999999902
  0
CIRCLE
  5
1140
  8
2
 10
388.25000000001609
 20
250.5
 30
0.0
 40
4.2500000000000027
  0
LINE
  5
114B
  8
1
 10
189.75000000001609
 20
250.5
 30
0.0
 11
407.75000000001609
 21
250.5
 31
0.0
  0
LINE
  5
114C
  8
1
 10
209.25000000001609
 20
240.0
 30
0.0
 11
209.25000000001609
 21
261.0
 31
0.0
  0
LINE
  5
114E
  8
1
 10
388.25000000001609
 20
240.0
 30
0.0
 11
388.25000000001609
 21
261.0
 31
0.0
  0
LINE
  5
114F
  8
1
 10
298.75000000001597
 20
231.0
 30
0.0
 11
298.7500000000162
 21
270.0
 31
0.0
  0
CIRCLE
  5
1165
  8
0
 10
298.7500000000162
 20
250.5
 30
0.0
 40
1.6999999999999951
  0
ARC
  5
1186
  8
2
 10
100.0
 20
172.2007731591365
 30
0.0
 40
25.70324688163991
 50
238.07813046295371
 51
301.92186953704618
  0
ARC
  5
1187
  8
2
 10
112.5
 20
152.0609110854142
 30
0.0
 40
1.999999999999992
 50
303.05573115085139
 51
0.0
  0
ARC
  5
1189
  8
2
 10
87.5
 20
152.0609110854142
 30
0.0
 40
2.0000000000000262
 50
180.0
 51
236.9442688491485
  0
LINE
  5
11A0
  8
1
 10
100.0
 20
161.0
 30
0.0
 11
100.0
 21
100.0
 31
0.0
  0
POLYLINE
  5
11A7
  8
0
 10
101.58533414110725
 20
155.97930079136961
 30
0.0
 66
     1
 70
     8
  0
VERTEX
  8
0
  5
1475
 10
101.585
 20
155.979
 30
0.000000
  70
    32
  0
VERTEX
  8
0
  5
1476
 10
101.580
 20
155.980
 30
0.000000
  70
    32
  0
VERTEX
  8
0
  5
1477
 10
101.573
 20
155.980
 30
0.000000
  70
    32
  0
VERTEX
  8
0
  5
1478
 10
101.566
 20
155.981
 30
0.000000
  70
    32
  0
VERTEX
  8
0
  5
1479
 10
101.558
 20
155.981
 30
0.000000
  70
    32
  0
VERTEX
  8
0
  5
147A
 10
101.550
 20
155.982
 30
0.000000
  70
    32
  0
VERTEX
  8
0
  5
147B
 10
101.541
 20
155.982
 30
0.000000
  70
    32
  0
VERTEX
  8
0
  5
147C
 10
101.531
 20
155.983
 30
0.000000
  70
    32
  0
VERTEX
  8
0
  5
147D
 10
101.520
 20
155.983
 30
0.000000
  70
    32
  0
VERTEX
  8
0
  5
147E
 10
101.508
 20
155.984
 30
0.000000
  70
    32
  0
VERTEX
  8
0
  5
147F
 10
101.496
 20
155.984
 30
0.000000
  70
    32
  0
VERTEX
  8
0
  5
1480
 10
101.483
 20
155.985
 30
0.000000
  70
    32
  0
VERTEX
  8
0
  5
1481
 10
101.470
 20
155.985
 30
0.000000
  70
    32
  0
VERTEX
  8
0
  5
1482
 10
101.456
 20
155.986
 30
0.000000
  70
    32
  0
VERTEX
  8
0
  5
1483
 10
101.441
 20
155.986
 30
0.000000
  70
    32
  0
VERTEX
  8
0
  5
1484
 10
101.425
 20
155.987
 30
0.000000
  70
    32
  0
VERTEX
  8
0
  5
1485
 10
101.409
 20
155.987
 30
0.000000
  70
    32
  0
VERTEX
  8
0
  5
1486
 10
101.392
 20
155.988
 30
0.000000
  70
    32
  0
VERTEX
  8
0
  5
1487
 10
101.374
 20
155.988
 30
0.000000
  70
    32
  0
VERTEX
  8
0
  5
1488
 10
101.356
 20
155.989
 30
0.000000
  70
    32
  0
VERTEX
  8
0
  5
1489
 10
101.337
 20
155.989
 30
0.000000
  70
    32
  0
VERTEX
  8
0
  5
148A
 10
101.317
 20
155.990
 30
0.000000
  70
    32
  0
VERTEX
  8
0
  5
148B
 10
101.297
 20
155.990
 30
0.000000
  70
    32
  0
VERTEX
  8
0
  5
148C
 10
101.276
 20
155.990
 30
0.000000
  70
    32
  0
VERTEX
  8
0
  5
148D
 10
101.255
 20
155.991
 30
0.000000
  70
    32
  0
VERTEX
  8
0
  5
148E
 10
101.233
 20
155.991
 30
0.000000
  70
    32
  0
VERTEX
  8
0
  5
148F
 10
101.210
 20
155.992
 30
0.000000
  70
    32
  0
VERTEX
  8
0
  5
1490
 10
101.187
 20
155.992
 30
0.000000
  70
    32
  0
VERTEX
  8
0
  5
1491
 10
101.164
 20
155.992
 30
0.000000
  70
    32
  0
VERTEX
  8
0
  5
1492
 10
101.139
 20
155.993
 30
0.000000
  70
    32
  0
VERTEX
  8
0
  5
1493
 10
101.115
 20
155.993
 30
0.000000
  70
    32
  0
VERTEX
  8
0
  5
1494
 10
101.089
 20
155.994
 30
0.000000
  70
    32
  0
VERTEX
  8
0
  5
1495
 10
101.064
 20
155.994
 30
0.000000
  70
    32
  0
VERTEX
  8
0
  5
1496
 10
101.037
 20
155.994
 30
0.000000
  70
    32
  0
VERTEX
  8
0
  5
1497
 10
101.010
 20
155.995
 30
0.000000
  70
    32
  0
VERTEX
  8
0
  5
1498
 10
100.983
 20
155.995
 30
0.000000
  70
    32
  0
VERTEX
  8
0
  5
1499
 10
100.955
 20
155.995
 30
0.000000
  70
    32
  0
VERTEX
  8
0
  5
149A
 10
100.927
 20
155.996
 30
0.000000
  70
    32
  0
VERTEX
  8
0
  5
149B
 10
100.899
 20
155.996
 30
0.000000
  70
    32
  0
VERTEX
  8
0
  5
149C
 10
100.870
 20
155.996
 30
0.000000
  70
    32
  0
VERTEX
  8
0
  5
149D
 10
100.840
 20
155.996
 30
0.000000
  70
    32
  0
VERTEX
  8
0
  5
149E
 10
100.810
 20
155.997
 30
0.000000
  70
    32
  0
VERTEX
  8
0
  5
149F
 10
100.780
 20
155.997
 30
0.000000
  70
    32
  0
VERTEX
  8
0
  5
14A0
 10
100.749
 20
155.997
 30
0.000000
  70
    32
  0
VERTEX
  8
0
  5
14A1
 10
100.718
 20
155.997
 30
0.000000
  70
    32
  0
VERTEX
  8
0
  5
14A2
 10
100.687
 20
155.998
 30
0.000000
  70
    32
  0
VERTEX
  8
0
  5
14A3
 10
100.655
 20
155.998
 30
0.000000
  70
    32
  0
VERTEX
  8
0
  5
14A4
 10
100.623
 20
155.998
 30
0.000000
  70
    32
  0
VERTEX
  8
0
  5
14A5
 10
100.591
 20
155.998
 30
0.000000
  70
    32
  0
VERTEX
  8
0
  5
14A6
 10
100.559
 20
155.998
 30
0.000000
  70
    32
  0
VERTEX
  8
0
  5
14A7
 10
100.526
 20
155.999
 30
0.000000
  70
    32
  0
VERTEX
  8
0
  5
14A8
 10
100.493
 20
155.999
 30
0.000000
  70
    32
  0
VERTEX
  8
0
  5
14A9
 10
100.460
 20
155.999
 30
0.000000
  70
    32
  0
VERTEX
  8
0
  5
14AA
 10
100.426
 20
155.999
 30
0.000000
  70
    32
  0
VERTEX
  8
0
  5
14AB
 10
100.393
 20
155.999
 30
0.000000
  70
    32
  0
VERTEX
  8
0
  5
14AC
 10
100.359
 20
155.999
 30
0.000000
  70
    32
  0
VERTEX
  8
0
  5
14AD
 10
100.325
 20
155.999
 30
0.000000
  70
    32
  0
VERTEX
  8
0
  5
14AE
 10
100.291
 20
156.000
 30
0.000000
  70
    32
  0
VERTEX
  8
0
  5
14AF
 10
100.256
 20
156.000
 30
0.000000
  70
    32
  0
VERTEX
  8
0
  5
14B0
 10
100.222
 20
156.000
 30
0.000000
  70
    32
  0
VERTEX
  8
0
  5
14B1
 10
100.187
 20
156.000
 30
0.000000
  70
    32
  0
VERTEX
  8
0
  5
14B2
 10
100.153
 20
156.000
 30
0.000000
  70
    32
  0
VERTEX
  8
0
  5
14B3
 10
100.118
 20
156.000
 30
0.000000
  70
    32
  0
VERTEX
  8
0
  5
14B4
 10
100.083
 20
156.000
 30
0.000000
  70
    32
  0
VERTEX
  8
0
  5
14B5
 10
100.048
 20
156.000
 30
0.000000
  70
    32
  0
VERTEX
  8
0
  5
14B6
 10
100.014
 20
156.000
 30
0.000000
  70
    32
  0
VERTEX
  8
0
  5
14B7
 10
99.9787
 20
156.000
 30
0.000000
  70
    32
  0
VERTEX
  8
0
  5
14B8
 10
99.9439
 20
156.000
 30
0.000000
  70
    32
  0
VERTEX
  8
0
  5
14B9
 10
99.9091
 20
156.000
 30
0.000000
  70
    32
  0
VERTEX
  8
0
  5
14BA
 10
99.8743
 20
156.000
 30
0.000000
  70
    32
  0
VERTEX
  8
0
  5
14BB
 10
99.8396
 20
156.000
 30
0.000000
  70
    32
  0
VERTEX
  8
0
  5
14BC
 10
99.8050
 20
156.000
 30
0.000000
  70
    32
  0
VERTEX
  8
0
  5
14BD
 10
99.7705
 20
156.000
 30
0.000000
  70
    32
  0
VERTEX
  8
0
  5
14BE
 10
99.7361
 20
156.000
 30
0.000000
  70
    32
  0
VERTEX
  8
0
  5
14BF
 10
99.7018
 20
156.000
 30
0.000000
  70
    32
  0
VERTEX
  8
0
  5
14C0
 10
99.6677
 20
155.999
 30
0.000000
  70
    32
  0
VERTEX
  8
0
  5
14C1
 10
99.6337
 20
155.999
 30
0.000000
  70
    32
  0
VERTEX
  8
0
  5
14C2
 10
99.5999
 20
155.999
 30
0.000000
  70
    32
  0
VERTEX
  8
0
  5
14C3
 10
99.5662
 20
155.999
 30
0.000000
  70
    32
  0
VERTEX
  8
0
  5
14C4
 10
99.5328
 20
155.999
 30
0.000000
  70
    32
  0
VERTEX
  8
0
  5
14C5
 10
99.4996
 20
155.999
 30
0.000000
  70
    32
  0
VERTEX
  8
0
  5
14C6
 10
99.4666
 20
155.999
 30
0.000000
  70
    32
  0
VERTEX
  8
0
  5
14C7
 10
99.4339
 20
155.998
 30
0.000000
  70
    32
  0
VERTEX
  8
0
  5
14C8
 10
99.4015
 20
155.998
 30
0.000000
  70
    32
  0
VERTEX
  8
0
  5
14C9
 10
99.3693
 20
155.998
 30
0.000000
  70
    32
  0
VERTEX
  8
0
  5
14CA
 10
99.3374
 20
155.998
 30
0.000000
  70
    32
  0
VERTEX
  8
0
  5
14CB
 10
99.3059
 20
155.998
 30
0.000000
  70
    32
  0
VERTEX
  8
0
  5
14CC
 10
99.2747
 20
155.997
 30
0.000000
  70
    32
  0
VERTEX
  8
0
  5
14CD
 10
99.2438
 20
155.997
 30
0.000000
  70
    32
  0
VERTEX
  8
0
  5
14CE
 10
99.2132
 20
155.997
 30
0.000000
  70
    32
  0
VERTEX
  8
0
  5
14CF
 10
99.1831
 20
155.997
 30
0.000000
  70
    32
  0
VERTEX
  8
0
  5
14D0
 10
99.1533
 20
155.996
 30
0.000000
  70
    32
  0
VERTEX
  8
0
  5
14D1
 10
99.1239
 20
155.996
 30
0.000000
  70
    32
  0
VERTEX
  8
0
  5
14D2
 10
99.0950
 20
155.996
 30
0.000000
  70
    32
  0
VERTEX
  8
0
  5
14D3
 10
99.0664
 20
155.995
 30
0.000000
  70
    32
  0
VERTEX
  8
0
  5
14D4
 10
99.0384
 20
155.995
 30
0.000000
  70
    32
  0
VERTEX
  8
0
  5
14D5
 10
99.0107
 20
155.995
 30
0.000000
  70
    32
  0
VERTEX
  8
0
  5
14D6
 10
98.9835
 20
155.994
 30
0.000000
  70
    32
  0
VERTEX
  8
0
  5
14D7
 10
98.9569
 20
155.994
 30
0.000000
  70
    32
  0
VERTEX
  8
0
  5
14D8
 10
98.9306
 20
155.994
 30
0.000000
  70
    32
  0
VERTEX
  8
0
  5
14D9
 10
98.9050
 20
155.993
 30
0.000000
  70
    32
  0
VERTEX
  8
0
  5
14DA
 10
98.8798
 20
155.993
 30
0.000000
  70
    32
  0
VERTEX
  8
0
  5
14DB
 10
98.8551
 20
155.993
 30
0.000000
  70
    32
  0
VERTEX
  8
0
  5
14DC
 10
98.8310
 20
155.992
 30
0.000000
  70
    32
  0
VERTEX
  8
0
  5
14DD
 10
98.8074
 20
155.992
 30
0.000000
  70
    32
  0
VERTEX
  8
0
  5
14DE
 10
98.7844
 20
155.992
 30
0.000000
  70
    32
  0
VERTEX
  8
0
  5
14DF
 10
98.7620
 20
155.991
 30
0.000000
  70
    32
  0
VERTEX
  8
0
  5
14E0
 10
98.7402
 20
155.991
 30
0.000000
  70
    32
  0
VERTEX
  8
0
  5
14E1
 10
98.7189
 20
155.990
 30
0.000000
  70
    32
  0
VERTEX
  8
0
  5
14E2
 10
98.6983
 20
155.990
 30
0.000000
  70
    32
  0
VERTEX
  8
0
  5
14E3
 10
98.6783
 20
155.989
 30
0.000000
  70
    32
  0
VERTEX
  8
0
  5
14E4
 10
98.6589
 20
155.989
 30
0.000000
  70
    32
  0
VERTEX
  8
0
  5
14E5
 10
98.6401
 20
155.989
 30
0.000000
  70
    32
  0
VERTEX
  8
0
  5
14E6
 10
98.6220
 20
155.988
 30
0.000000
  70
    32
  0
VERTEX
  8
0
  5
14E7
 10
98.6045
 20
155.988
 30
0.000000
  70
    32
  0
VERTEX
  8
0
  5
14E8
 10
98.5877
 20
155.987
 30
0.000000
  70
    32
  0
VERTEX
  8
0
  5
14E9
 10
98.5715
 20
155.987
 30
0.000000
  70
    32
  0
VERTEX
  8
0
  5
14EA
 10
98.5560
 20
155.986
 30
0.000000
  70
    32
  0
VERTEX
  8
0
  5
14EB
 10
98.5412
 20
155.986
 30
0.000000
  70
    32
  0
VERTEX
  8
0
  5
14EC
 10
98.5271
 20
155.985
 30
0.000000
  70
    32
  0
VERTEX
  8
0
  5
14ED
 10
98.5137
 20
155.985
 30
0.000000
  70
    32
  0
VERTEX
  8
0
  5
14EE
 10
98.5010
 20
155.984
 30
0.000000
  70
    32
  0
VERTEX
  8
0
  5
14EF
 10
98.4890
 20
155.984
 30
0.000000
  70
    32
  0
VERTEX
  8
0
  5
14F0
 10
98.4777
 20
155.983
 30
0.000000
  70
    32
  0
VERTEX
  8
0
  5
14F1
 10
98.4671
 20
155.983
 30
0.000000
  70
    32
  0
VERTEX
  8
0
  5
14F2
 10
98.4572
 20
155.982
 30
0.000000
  70
    32
  0
VERTEX
  8
0
  5
14F3
 10
98.4481
 20
155.982
 30
0.000000
  70
    32
  0
VERTEX
  8
0
  5
14F4
 10
98.4397
 20
155.981
 30
0.000000
  70
    32
  0
VERTEX
  8
0
  5
14F5
 10
98.4320
 20
155.981
 30
0.000000
  70
    32
  0
SEQEND
  8
0
  5
14F6
  0
ARC
  5
11B8
  8
0
 10
112.5
 20
152.86493458200681
 30
0.0
 40
1.999999999999996
 50
0.0
 51
79.193077125139666
  0
ARC
  5
11BA
  8
0
 10
87.5
 20
152.86493458200681
 30
0.0
 40
2.0000000000000071
 50
100.80692287486031
 51
180.0
  0
LINE
  5
11BB
  8
0
 10
114.5
 20
105.0
 30
0.0
 11
85.5
 21
105.0
 31
0.0
  0
LINE
  5
11C0
  8
0
 10
85.5
 20
152.86493458200681
 30
0.0
 11
85.5
 21
105.0
 31
0.0
  0
LINE
  5
11C1
  8
0
 10
114.5
 20
105.0
 30
0.0
 11
114.5
 21
152.86493458200681
 31
0.0
  0
ARC
  5
11C8
  8
0
 10
99.033812850104482
 20
74.928540831795459
 30
0.0
 40
81.090911641952587
 50
80.172218632298922
 51
88.196893687193139
  0
ARC
  5
11C9
  8
0
 10
100.9910017248199
 20
74.748113227205565
 30
0.0
 40
81.272927297007385
 50
91.804312470499724
 51
99.823307375104136
  0
ARC
  5
1256
  8
0
 10
209.25000000001609
 20
250.5
 30
0.0
 40
14.5
 50
90.0
 51
270.0
  0
ARC
  5
1257
  8
0
 10
388.25000000001609
 20
250.5
 30
0.0
 40
14.5
 50
270.0
 51
90.0
  0
CIRCLE
  5
125F
  8
0
 10
304.75000000001609
 20
250.5
 30
0.0
 40
1.6999999999999951
  0
CIRCLE
  5
1260
  8
0
 10
310.7500000000162
 20
250.5
 30
0.0
 40
1.6999999999999951
  0
CIRCLE
  5
1261
  8
0
 10
292.75000000001609
 20
250.5
 30
0.0
 40
1.6999999999999951
  0
CIRCLE
  5
1262
  8
0
 10
286.75000000001609
 20
250.5
 30
0.0
 40
1.6999999999999951
  0
CIRCLE
  5
12A6
  8
0
 10
209.25000000001609
 20
250.5
 30
0.0
 40
7.5
  0
CIRCLE
  5
12A7
  8
0
 10
388.25000000001609
 20
250.5
 30
0.0
 40
7.5
  0
LINE
  5
12A8
  8
0
 10
209.25000000001609
 20
265.0
 30
0.0
 11
388.25000000001609
 21
265.0
 31
0.0
  0
LINE
  5
12A9
  8
0
 10
209.25000000001609
 20
236.0
 30
0.0
 11
388.25000000001609
 21
236.0
 31
0.0
  0
LINE
  5
12B2
  8
2
 10
209.25
 20
124.0
 30
0.0
 11
209.25
 21
140.0
 31
0.0
  0
LINE
  5
12B9
  8
0
 10
201.75
 20
145.44522928509519
 30
0.0
 11
216.75000000000011
 21
148.48280688207069
 31
0.0
  0
LINE
  5
12BA
  8
0
 10
380.75
 20
148.48280688207069
 30
0.0
 11
395.75
 21
145.44522928509511
 31
0.0
  0
LINE
  5
12BB
  8
2
 10
388.25
 20
124.0
 30
0.0
 11
388.25
 21
140.0
 31
0.0
  0
ARC
  5
12BE
  8
0
 10
298.74999999998391
 20
-295.00000000128392
 30
0.0
 40
451.00000000128392
 50
88.255217672700113
 51
90.0
  0
ENDSEC
  0
EOF
