  0
SECTION
  2
HEADER
  9
$ACADVER
  1
AC1009
  9
$INSBASE
 10
0.0
 20
0.0
 30
0.0
  9
$EXTMIN
 10
0.0
 20
-2.960436562073669
 30
0.0
  9
$EXTMAX
 10
289.8681937827472
 20
238.9420522333493
 30
15.0
  9
$LIMMIN
 10
0.0
 20
0.0
  9
$LIMMAX
 10
375.0
 20
278.0
  9
$ORTHOMODE
 70
     1
  9
$REGENMODE
 70
     1
  9
$FILLMODE
 70
     1
  9
$QTEXTMODE
 70
     0
  9
$MIRRTEXT
 70
     0
  9
$DRAGMODE
 70
     2
  9
$LTSCALE
 40
5.0
  9
$OSMODE
 70
  3071
  9
$ATTMODE
 70
     1
  9
$TEXTSIZE
 40
0.2
  9
$TRACEWID
 40
0.05
  9
$TEXTSTYLE
  7
STANDARD
  9
$CLAYER
  8
0
  9
$CELTYPE
  6
BYLAYER
  9
$CECOLOR
 62
   256
  9
$DIMSCALE
 40
1.0
  9
$DIMASZ
 40
3.0
  9
$DIMEXO
 40
1.0
  9
$DIMDLI
 40
6.0
  9
$DIMRND
 40
0.0
  9
$DIMDLE
 40
0.0
  9
$DIMEXE
 40
1.0
  9
$DIMTP
 40
495.0
  9
$DIMTM
 40
0.0
  9
$DIMTXT
 40
3.0
  9
$DIMCEN
 40
0.0
  9
$DIMTSZ
 40
0.0
  9
$DIMTOL
 70
     0
  9
$DIMLIM
 70
     0
  9
$DIMTIH
 70
     0
  9
$DIMTOH
 70
     0
  9
$DIMSE1
 70
     0
  9
$DIMSE2
 70
     0
  9
$DIMTAD
 70
     1
  9
$DIMZIN
 70
     0
  9
$DIMBLK
  1

  9
$DIMASO
 70
     0
  9
$DIMSHO
 70
     0
  9
$DIMPOST
  1

  9
$DIMAPOST
  1

  9
$DIMALT
 70
     0
  9
$DIMALTD
 70
     2
  9
$DIMALTF
 40
25.399999999999999
  9
$DIMLFAC
 40
1.0
  9
$DIMTOFL
 70
     1
  9
$DIMTVP
 40
0.0
  9
$DIMTIX
 70
     1
  9
$DIMSOXD
 70
     0
  9
$DIMSAH
 70
     0
  9
$DIMBLK1
  1

  9
$DIMBLK2
  1

  9
$DIMSTYLE
  2
STANDARD
  9
$DIMCLRD
 70
     0
  9
$DIMCLRE
 70
     0
  9
$DIMCLRT
 70
     4
  9
$DIMTFAC
 40
1.0
  9
$DIMGAP
 40
1.0
  9
$LUNITS
 70
     2
  9
$LUPREC
 70
     4
  9
$SKETCHINC
 40
0.1
  9
$FILLETRAD
 40
0.8
  9
$AUNITS
 70
     0
  9
$AUPREC
 70
     0
  9
$MENU
  1
C:\R13\WIN\SUPPORT\ACAD-I
  9
$ELEVATION
 40
0.0
  9
$PELEVATION
 40
0.0
  9
$THICKNESS
 40
0.0
  9
$LIMCHECK
 70
     0
  9
$BLIPMODE
 70
     0
  9
$CHAMFERA
 40
0.0
  9
$CHAMFERB
 40
0.0
  9
$SKPOLY
 70
     0
  9
$TDCREATE
 40
2451922.6672596182
  9
$TDUPDATE
 40
2456598.6588704051
  9
$TDINDWG
 40
0.1318707755
  9
$TDUSRTIMER
 40
0.1318707755
  9
$USRTIMER
 70
     1
  9
$ANGBASE
 50
0.0
  9
$ANGDIR
 70
     0
  9
$PDMODE
 70
     0
  9
$PDSIZE
 40
0.0
  9
$PLINEWID
 40
0.0
  9
$COORDS
 70
     1
  9
$SPLFRAME
 70
     0
  9
$SPLINETYPE
 70
     6
  9
$SPLINESEGS
 70
     8
  9
$ATTDIA
 70
     0
  9
$ATTREQ
 70
     1
  9
$HANDLING
 70
     1
  9
$HANDSEED
  5
483B
  9
$SURFTAB1
 70
     6
  9
$SURFTAB2
 70
     6
  9
$SURFTYPE
 70
     6
  9
$SURFU
 70
     6
  9
$SURFV
 70
     6
  9
$UCSNAME
  2

  9
$UCSORG
 10
0.0
 20
0.0
 30
0.0
  9
$UCSXDIR
 10
1.0
 20
0.0
 30
0.0
  9
$UCSYDIR
 10
0.0
 20
1.0
 30
0.0
  9
$PUCSNAME
  2

  9
$PUCSORG
 10
0.0
 20
0.0
 30
0.0
  9
$PUCSXDIR
 10
1.0
 20
0.0
 30
0.0
  9
$PUCSYDIR
 10
0.0
 20
1.0
 30
0.0
  9
$USERI1
 70
     4
  9
$USERI2
 70
     1
  9
$USERI3
 70
     1
  9
$USERI4
 70
     0
  9
$USERI5
 70
     0
  9
$USERR1
 40
1.0
  9
$USERR2
 40
3.0
  9
$USERR3
 40
3.0
  9
$USERR4
 40
3.0
  9
$USERR5
 40
10.0
  9
$WORLDVIEW
 70
     1
  9
$SHADEDGE
 70
     3
  9
$SHADEDIF
 70
    70
  9
$TILEMODE
 70
     1
  9
$MAXACTVP
 70
    16
  9
$PLIMCHECK
 70
     0
  9
$PEXTMIN
 10
1.0000000000000000E+020
 20
1.0000000000000000E+020
 30
1.0000000000000000E+020
  9
$PEXTMAX
 10
-1.0000000000000000E+020
 20
-1.0000000000000000E+020
 30
-1.0000000000000000E+020
  9
$PLIMMIN
 10
0.0
 20
0.0
  9
$PLIMMAX
 10
12.0
 20
9.0
  9
$UNITMODE
 70
     0
  9
$VISRETAIN
 70
     0
  9
$PLINEGEN
 70
     0
  9
$PSLTSCALE
 70
     0
  0
ENDSEC
  0
SECTION
  2
TABLES
  0
TABLE
  2
VPORT
 70
     1
  0
VPORT
  2
*ACTIVE
 70
     0
 10
0.0
 20
0.0
 11
1.0
 21
1.0
 12
187.49427839065231
 22
174.97168974450321
 13
0.0
 23
0.0
 14
10.0
 24
10.0
 15
10.0
 25
10.0
 16
0.0
 26
0.0
 36
1.0
 17
0.0
 27
0.0
 37
0.0
 40
359.12869706410731
 41
1.831871345029239
 42
50.0
 43
0.0
 44
0.0
 50
0.0
 51
0.0
 71
     0
 72
   100
 73
     1
 74
     0
 75
     0
 76
     0
 77
     0
 78
     0
  0
ENDTAB
  0
TABLE
  2
LTYPE
 70
     3
  0
LTYPE
  2
CONTINUOUS
 70
     0
  3
Solid Line
 72
    65
 73
     0
 40
0.0
  0
LTYPE
  2
CENTER
 70
     0
  3
____ _ ____ _ ____ _ ____ _ ____ _ ____ _ ____
 72
    65
 73
     4
 40
2.0
 49
1.25
 49
-0.25
 49
0.25
 49
-0.25
  0
LTYPE
  2
PHANTOM2
 70
     0
  3
___ _ _ ___ _ _ ___ _ _ ___ _ _
 72
    65
 73
     6
 40
1.25
 49
0.625
 49
-0.125
 49
0.125
 49
-0.125
 49
0.125
 49
-0.125
  0
ENDTAB
  0
TABLE
  2
LAYER
 70
     3
  0
LAYER
  2
0
 70
     0
 62
     7
  6
CONTINUOUS
  0
LAYER
  2
1
 70
     0
 62
     1
  6
CENTER
  0
LAYER
  2
3
 70
     0
 62
     3
  6
CONTINUOUS
  0
ENDTAB
  0
TABLE
  2
STYLE
 70
     2
  0
STYLE
  2
STANDARD
 70
     0
 40
0.0
 41
1.0
 50
0.0
 71
     0
 42
0.2
  3
SIMPLEX
  4
BIGFONT
  0
STYLE
  2
STANDARD1
 70
     0
 40
0.0
 41
1.0
 50
0.0
 71
     0
 42
3.0
  3
txt
  4

  0
ENDTAB
  0
TABLE
  2
VIEW
 70
     0
  0
ENDTAB
  0
TABLE
  2
UCS
 70
     0
  0
ENDTAB
  0
TABLE
  2
APPID
 70
    86
  0
APPID
  2
ACAD
 70
     0
  0
APPID
  2
GENIUS_GENOBJ_13
 70
     0
  0
APPID
  2
GENIUS_GENODEF_13
 70
     0
  0
APPID
  2
GENIUS_GENOENT_13
 70
     0
  0
APPID
  2
GENIUS_GENOLIS_13
 70
     0
  0
APPID
  2
GENIUS_GENOREF_13
 70
     0
  0
APPID
  2
GENIUS_GENOBJ-N-TIT_13
 70
     0
  0
APPID
  2
GENIUS_GENTITLE_13
 70
     0
  0
APPID
  2
GENIUS_GENZVEED_13
 70
     0
  0
APPID
  2
GENIUS_GENOBJ-N-FIL_13
 70
     0
  0
APPID
  2
GENIUS_GENOBJ-N-CRS_13
 70
     0
  0
APPID
  2
GENIUS_GEFINERT_13
 70
     0
  0
APPID
  2
GENIUS_GENOBJ-F-INER_13
 70
     0
  0
APPID
  2
GENIUS_GENOBJ-N-ZOO_13
 70
     0
  0
APPID
  2
GENIUS_GENZOO_13
 70
     0
  0
APPID
  2
GENIUS_GENOBJ-F-TOL_13
 70
     0
  0
APPID
  2
GENIUS_GENOBJ-N-RSSYM_13
 70
     0
  0
APPID
  2
GENIUS_GENSYMENT_13
 70
     0
  0
APPID
  2
GENIUS_GENBH_13
 70
     0
  0
APPID
  2
GENIUS_GENOBJ-NBEHI-BHF_13
 70
     0
  0
APPID
  2
GENIUS_GENOBJ-NBEHI-BHB_13
 70
     0
  0
APPID
  2
GENIUS_GENOBJ-F-PART_13
 70
     0
  0
APPID
  2
GENIUS_GEFSTDP_13
 70
     0
  0
APPID
  2
GENIUS_GENOBJ-N-LEADER_13
 70
     0
  0
APPID
  2
GENIUS_GENOBJ-N-REV_13
 70
     0
  0
APPID
  2
GENIUS_GENCFG_13
 70
     0
  0
APPID
  2
GENIUS_GENCFG0_13
 70
     0
  0
APPID
  2
GENIUS_GENCFG1_13
 70
     0
  0
APPID
  2
GENIUS_GENCFG2_13
 70
     0
  0
APPID
  2
GENIUS_GENCFG3_13
 70
     0
  0
APPID
  2
GENIUS_GEVCFG0_13
 70
     0
  0
APPID
  2
GENIUS_GENCFG4_13
 70
     0
  0
APPID
  2
GENIUS_GENOBJ-N-REC_13
 70
     0
  0
APPID
  2
GENIUS_GENFIL_13
 70
     0
  0
APPID
  2
GENIUS_GENOBJ-N-CHA_13
 70
     0
  0
APPID
  2
GENIUS_GENREC_13
 70
     0
  0
APPID
  2
DCO15
 70
     0
  0
APPID
  2
GENIUS_GEFCFG0_13
 70
     0
  0
APPID
  2
GENIUS_GENOBJ-N-HTC_13
 70
     0
  0
APPID
  2
GENIUS_GENHATCH_13
 70
     0
  0
APPID
  2
GEV_VCCNULL_SWITCH_OFF
 70
     0
  0
APPID
  2
GENIUS_GENDTOL_13
 70
     0
  0
APPID
  2
GENIUS_GEFWELD_13
 70
     0
  0
APPID
  2
GENIUS_GENOBJ-F-WELS_13
 70
     0
  0
APPID
  2
GEVID961514679
 70
     0
  0
APPID
  2
GEVDC
 70
     0
  0
APPID
  2
GEVPT
 70
     0
  0
APPID
  2
GEVIT
 70
     0
  0
APPID
  2
VCC
 70
     0
  0
APPID
  2
GENBH
 70
     0
  0
APPID
  2
GEVMK
 70
     0
  0
APPID
  2
GENIUS_GENOBJ-F-DESC_13
 70
     0
  0
APPID
  2
GENIUS_GEFDESC_14
 70
     0
  0
APPID
  2
GENIUS_GEFPARTINS_13
 70
     0
  0
APPID
  2
GEVID961514680
 70
     0
  0
APPID
  2
GENIUS_GENTRA_14
 70
     0
  0
APPID
  2
GENIUS_GENINF13_13
 70
     0
  0
APPID
  2
GENIUS_GENOBJ-N-INFOPT_13
 70
     0
  0
APPID
  2
GENIUS_GENSCSYM_13
 70
     0
  0
APPID
  2
GENIUS_GEFINFNAM_13
 70
     0
  0
APPID
  2
GENIUS_GENREC_14
 70
     0
  0
APPID
  2
GEVID962097543
 70
     0
  0
APPID
  2
GEVID962097544
 70
     0
  0
APPID
  2
GEVID962097545
 70
     0
  0
APPID
  2
GENIUS_DUMCFG0_13
 70
     0
  0
APPID
  2
GEVID962352965
 70
     0
  0
APPID
  2
GEVID962352966
 70
     0
  0
APPID
  2
GEVID962352968
 70
     0
  0
APPID
  2
GEVRADREF
 70
     0
  0
APPID
  2
GEVID963230099
 70
     0
  0
APPID
  2
GENIUS_GENOBJ-F-FEAT_13
 70
     0
  0
APPID
  2
GENIUS_GEFFEAT_14
 70
     0
  0
APPID
  2
GEVID963230100
 70
     0
  0
APPID
  2
GEVID963230101
 70
     0
  0
APPID
  2
GENIUS_GENHINW_13
 70
     0
  0
APPID
  2
GENIUS_FIRSTVISTXT_14
 70
     0
  0
APPID
  2
MCAD_NO_VIS
 70
     0
  0
APPID
  2
ACAD_TEMP_GRAPHIC
 70
     0
  0
APPID
  2
ACATTRIBSERVICES
 70
     0
  0
APPID
  2
ASM_BASE
 70
     0
  0
APPID
  2
GENIUS_GENDIMSH_14
 70
     0
  0
APPID
  2
CONTENTTABDATA
 70
     0
  0
APPID
  2
CONTENTCURRENTTAB
 70
     0
  0
APPID
  2
GENIUS_GENBLKED_14
 70
     0
  0
APPID
  2
ACAD_MLEADERVER
 70
     0
  0
APPID
  2
ACAD_NAV_VCDISPLAY
 70
     0
  0
ENDTAB
  0
TABLE
  2
DIMSTYLE
 70
     1
  0
DIMSTYLE
  2
STANDARD
 70
     0
  3

  4

  5

  6

  7

 40
1.0
 41
0.18
 42
0.0625
 43
0.38
 44
0.18
 45
0.0
 46
0.0
 47
0.0
 48
0.0
140
0.18
141
0.09
142
0.0
143
25.399999999999999
144
1.0
145
0.0
146
1.0
147
0.09
 71
     0
 72
     0
 73
     1
 74
     1
 75
     0
 76
     0
 77
     0
 78
     0
170
     0
171
     2
172
     0
173
     0
174
     0
175
     0
176
     0
177
     0
178
     0
  0
ENDTAB
  0
ENDSEC
  0
SECTION
  2
BLOCKS
  0
BLOCK
  8
0
  2
$MODEL_SPACE
 70
     0
 10
0.0
 20
0.0
 30
0.0
  3
$MODEL_SPACE
  1

  0
ENDBLK
  5
197D
  8
0
  0
BLOCK
 67
     1
  8
0
  2
$PAPER_SPACE
 70
     0
 10
0.0
 20
0.0
 30
0.0
  3
$PAPER_SPACE
  1

  0
ENDBLK
  5
197B
 67
     1
  8
0
  0
BLOCK
  8
0
  2
STDGX5
 70
     0
 10
0.0
 20
0.0
 30
0.0
  3
STDGX5
  1

  0
ENDBLK
  5
4F
  8
0
  0
ENDSEC
  0
SECTION
  2
ENTITIES
  0
INSERT
  5
DE
  8
0
  2
STDGX5
 10
0.0
 20
0.0
 30
0.0
  0
INSERT
  5
DF
  8
0
  2
STDGX5
 10
0.0
 20
0.0
 30
0.0
  0
INSERT
  5
15C
  8
0
  2
STDGX5
 10
275.0
 20
0.0
 30
0.0
  0
INSERT
  5
15D
  8
0
  2
STDGX5
 10
275.0
 20
0.0
 30
0.0
  0
INSERT
  5
314
  8
0
  2
STDGX5
 10
0.0
 20
0.0
 30
0.0
  0
INSERT
  5
315
  8
0
  2
STDGX5
 10
0.0
 20
0.0
 30
0.0
  0
INSERT
  5
316
  8
0
  2
STDGX5
 10
275.0
 20
0.0
 30
0.0
  0
INSERT
  5
317
  8
0
  2
STDGX5
 10
275.0
 20
0.0
 30
0.0
  0
INSERT
  5
4EF
  8
0
  2
STDGX5
 10
0.0
 20
0.0
 30
0.0
  0
INSERT
  5
4F0
  8
0
  2
STDGX5
 10
0.0
 20
0.0
 30
0.0
  0
INSERT
  5
4F1
  8
0
  2
STDGX5
 10
275.0
 20
0.0
 30
0.0
  0
INSERT
  5
4F2
  8
0
  2
STDGX5
 10
275.0
 20
0.0
 30
0.0
  0
LINE
  5
44E2
  8
0
 10
100.1367482165905
 20
106.9708317229331
 30
0.0
 11
160.13674821659049
 21
106.9708317229331
 31
0.0
  0
LINE
  5
44E3
  8
0
 10
100.1367482165905
 20
103.97083172179251
 30
0.0
 11
160.13674821659049
 21
103.97083172179261
 31
0.0
  0
LINE
  5
44E4
  8
0
 10
100.1367482165905
 20
101.05661815979239
 30
0.0
 11
160.13674821659049
 21
101.05661815979239
 31
0.0
  0
LINE
  5
44E5
  8
0
 10
100.9367482165905
 20
110.97083172179239
 30
0.0
 11
114.33674821659049
 21
110.97083172179239
 31
0.0
  0
LINE
  5
44E6
  8
0
 10
100.1367482165905
 20
95.970831721792422
 30
0.0
 11
160.13674821659049
 21
95.970831721792422
 31
0.0
  0
LINE
  5
44EA
  8
1
 10
289.8681937827472
 20
203.9420522333493
 30
0.0
 11
219.8681937827472
 21
203.9420522333493
 31
0.0
  0
LINE
  5
44EB
  8
0
 10
247.3681937827472
 20
103.97083172179251
 30
0.0
 11
227.78240288674729
 21
103.97083172179251
 31
0.0
  0
LINE
  5
44EC
  8
0
 10
245.8681937827472
 20
95.970831721792422
 30
0.0
 11
224.8681937827472
 21
95.970831721792479
 31
0.0
  0
LINE
  5
44F1
  8
0
 10
246.66819378274721
 20
233.9420522333493
 30
0.0
 11
225.8681937827472
 21
233.9420522333493
 31
0.0
  0
LINE
  5
44F2
  8
0
 10
225.8681937827472
 20
173.9420522333493
 30
0.0
 11
261.3681937827472
 21
173.9420522333493
 31
0.0
  0
LINE
  5
44F3
  8
0
 10
224.8681937827472
 20
232.9420522333493
 30
0.0
 11
224.8681937827472
 21
174.94205223334919
 31
0.0
  0
ARC
  5
44F4
  8
0
 10
225.8681937827472
 20
174.94205223334919
 30
0.0
 40
1.0
 50
180.0
 51
270.0
  0
LINE
  5
44F6
  8
0
 10
224.8681937827472
 20
95.970831721792479
 30
0.0
 11
224.8681937827472
 21
101.05363201279241
 31
0.0
  0
ARC
  5
44F7
  8
3
 10
230.4073971867472
 20
208.52516900834931
 30
0.0
 40
0.6038960890000001
 50
0.0
 51
53.590781931000457
  0
ARC
  5
44F8
  8
3
 10
230.4073971867472
 20
208.52516900834931
 30
0.0
 40
1.6168830769999989
 50
0.0
 51
180.0
  0
LINE
  5
44F9
  8
3
 10
230.41441841274721
 20
206.11088337034931
 30
0.0
 11
232.97492957574721
 21
206.11088337034931
 31
0.0
  0
LINE
  5
44FA
  8
3
 10
230.49369533974721
 20
207.1784157963493
 30
0.0
 11
232.97492957574721
 21
207.1784157963493
 31
0.0
  0
ARC
  5
44FB
  8
3
 10
230.8944101617472
 20
201.68361067034931
 30
0.0
 40
0.116883114
 50
0.0
 51
141.306191079001
  0
ARC
  5
44FC
  8
3
 10
230.8311751787472
 20
201.5814146613493
 30
0.0
 40
1.1931050839999999
 50
0.0
 51
140.7531840589983
  0
ARC
  5
44FD
  8
3
 10
230.4073971867472
 20
204.2381560603493
 30
0.0
 40
0.6038960890000001
 50
0.0
 51
53.590781931000457
  0
ARC
  5
44FE
  8
3
 10
230.4073971867472
 20
204.2381560603493
 30
0.0
 40
1.6168830769999989
 50
0.0
 51
180.0
  0
ARC
  5
44FF
  8
3
 10
230.4073971867472
 20
199.67062376334931
 30
0.0
 40
0.6038960890000001
 50
306.40921806899962
 51
0.0
  0
ARC
  5
4500
  8
3
 10
230.4073971867472
 20
199.67062376334931
 30
0.0
 40
1.6168830769999989
 50
270.0
 51
0.0
  0
ARC
  5
4501
  8
3
 10
230.4073971867472
 20
208.52516900834931
 30
0.0
 40
0.6038960890000001
 50
126.40921806899981
 51
180.0
  0
ARC
  5
4502
  8
3
 10
229.18012448974719
 20
207.8078007893493
 30
0.0
 40
0.38961038
 50
180.0
 51
267.58742227799911
  0
LINE
  5
4503
  8
3
 10
229.16372384774721
 20
207.41853575434931
 30
0.0
 11
229.69793184974719
 21
207.39602832734931
 31
0.0
  0
LINE
  5
4504
  8
3
 10
230.04895564474731
 20
207.5901041023493
 30
0.0
 11
230.76583872874721
 21
207.5901041023493
 31
0.0
  0
ARC
  5
4505
  8
3
 10
229.69301165674719
 20
207.2792488173493
 30
0.0
 40
0.116883114
 50
19.03867971700247
 51
87.587422277999195
  0
ARC
  5
4506
  8
3
 10
230.4144184127471
 20
203.92906524234931
 30
0.0
 40
2.1818181280000002
 50
90.0
 51
138.09810780299981
  0
ARC
  5
4507
  8
3
 10
230.49369533974721
 20
204.06153275734931
 30
0.0
 40
3.1168830389999989
 50
90.0
 51
123.1229402079979
  0
LINE
  5
4508
  8
3
 10
228.79051410974719
 20
205.38620804834929
 30
0.0
 11
228.79051410974719
 21
206.67192230234929
 31
0.0
  0
ARC
  5
4509
  8
3
 10
-230.11908548274721
 20
200.17896018634929
 30
0.0
 40
0.038961038
210
0.0
220
0.0
230
-1.0
 50
90.0
 51
180.0
  0
ARC
  5
450A
  8
3
 10
-230.11908548274721
 20
199.90623292034931
 30
0.0
 40
0.311688304
210
0.0
220
0.0
230
-1.0
 50
0.0
 51
90.0
  0
LINE
  5
450B
  8
3
 10
229.80739717874721
 20
199.90623292034931
 30
0.0
 11
229.80739717874721
 21
199.75646634934921
 31
0.0
  0
ARC
  5
450C
  8
3
 10
229.92091080774719
 20
202.4633580273493
 30
0.0
 40
1.1303966979999991
 50
180.0
 51
321.306191079001
  0
ARC
  5
450D
  8
3
 10
229.8619426547472
 20
202.3732210353493
 30
0.0
 40
0.058441557
 50
180.0
 51
320.75318405899827
  0
LINE
  5
450E
  8
3
 10
229.80350109774719
 20
202.93036388634931
 30
0.0
 11
229.80350109774719
 21
202.3732210353493
 31
0.0
  0
LINE
  5
450F
  8
3
 10
228.79051410974719
 20
202.93036388634931
 30
0.0
 11
228.79051410974719
 21
202.4633580273493
 31
0.0
  0
LINE
  5
4510
  8
3
 10
228.79051410974719
 20
202.93036388634931
 30
0.0
 11
229.80350109774719
 21
202.93036388634931
 31
0.0
  0
ARC
  5
4511
  8
3
 10
229.18012448974719
 20
203.61477945834929
 30
0.0
 40
0.38961038
 50
180.0
 51
270.0
  0
LINE
  5
4512
  8
3
 10
228.79051410974719
 20
203.61477945834929
 30
0.0
 11
228.79051410974719
 21
204.2381560603493
 31
0.0
  0
LINE
  5
4513
  8
3
 10
229.18012448974719
 20
203.2251690783493
 30
0.0
 11
229.69330264074719
 21
203.2251690783493
 31
0.0
  0
LINE
  5
4514
  8
3
 10
229.80350109774719
 20
203.1472470023493
 30
0.0
 11
229.80350109774719
 21
204.2381560603493
 31
0.0
  0
ARC
  5
4515
  8
3
 10
230.4073971867472
 20
204.2381560603493
 30
0.0
 40
0.6038960890000001
 50
126.40921806899981
 51
180.0
  0
LINE
  5
4516
  8
3
 10
230.04895564474731
 20
203.30309115434929
 30
0.0
 11
230.04895564474731
 21
204.7241706143493
 31
0.0
  0
LINE
  5
4517
  8
3
 10
230.04895564474731
 20
203.30309115434929
 30
0.0
 11
230.76583872874721
 21
203.30309115434929
 31
0.0
  0
LINE
  5
4518
  8
3
 10
230.76583872874721
 20
203.30309115434929
 30
0.0
 11
230.76583872874721
 21
204.7241706143493
 31
0.0
  0
ARC
  5
4519
  8
3
 10
229.69330264074719
 20
203.10828596434931
 30
0.0
 40
0.116883114
 50
19.471220634002439
 51
90.0
  0
LINE
  5
451A
  8
3
 10
229.41389071774719
 20
198.0537406863493
 30
0.0
 11
230.4073971867472
 21
198.0537406863493
 31
0.0
  0
ARC
  5
451B
  8
3
 10
229.41389071774719
 20
197.2745199263492
 30
0.0
 40
0.77922076
 50
90.0
 51
143.1301023539996
  0
ARC
  5
451C
  8
3
 10
229.23513752274721
 20
198.61048274634919
 30
0.0
 40
0.467532456
 50
116.80786761499949
 51
161.98954309499891
  0
LINE
  5
451D
  8
3
 10
228.79051410974719
 20
198.75503937034929
 30
0.0
 11
228.79051410974719
 21
197.7420523823493
 31
0.0
  0
ARC
  5
451E
  8
3
 10
-230.5866179387472
 20
199.75646634934921
 30
0.0
 40
0.77922076
210
0.0
220
0.0
230
-1.0
 50
303.36701296899821
 51
0.0
  0
ARC
  5
451F
  8
3
 10
230.0947856947472
 20
199.77284559034931
 30
0.0
 40
1.3042715849999991
 50
59.035688150998162
 51
214.83817733700141
  0
LINE
  5
4520
  8
3
 10
230.15804652074721
 20
200.17896018634929
 30
0.0
 11
230.15804652074721
 21
199.10568871234929
 31
0.0
  0
LINE
  5
4521
  8
3
 10
230.76583872874721
 20
200.8912427433493
 30
0.0
 11
230.76583872874721
 21
199.18460920834929
 31
0.0
  0
LINE
  5
4522
  8
3
 10
230.04895564474731
 20
207.5901041023493
 30
0.0
 11
230.04895564474731
 21
209.01118356234929
 31
0.0
  0
LINE
  5
4523
  8
3
 10
230.76583872874721
 20
207.5901041023493
 30
0.0
 11
230.76583872874721
 21
209.01118356234929
 31
0.0
  0
LINE
  5
4524
  8
3
 10
229.80350109774719
 20
207.3173768363493
 30
0.0
 11
229.80350109774719
 21
208.52516900834931
 31
0.0
  0
LINE
  5
4525
  8
3
 10
228.79051410974719
 20
207.8078007893493
 30
0.0
 11
228.79051410974719
 21
208.52516900834931
 31
0.0
  0
LINE
  5
4526
  8
3
 10
230.99181275674721
 20
207.43425995034929
 30
0.0
 11
232.0242802627472
 21
207.43425995034929
 31
0.0
  0
LINE
  5
4527
  8
3
 10
232.97492957574721
 20
206.11088337034931
 30
0.0
 11
232.97492957574721
 21
207.1784157963493
 31
0.0
  0
ARC
  5
4528
  8
3
 10
231.55674780674721
 20
200.3406624983493
 30
0.0
 40
0.467532456
 50
0.0
 51
84.999999999999986
  0
LINE
  5
4529
  8
3
 10
231.59749594574731
 20
200.80641585234929
 30
0.0
 11
231.16515826474719
 21
200.84424049834931
 31
0.0
  0
ARC
  5
452A
  8
3
 10
-231.1855323337472
 20
201.0771171753492
 30
0.0
 40
0.233766228
210
0.0
220
0.0
230
-1.0
 50
270.0
 51
318.18968510399839
  0
LINE
  5
452B
  8
3
 10
231.01129327574719
 20
200.9212730233493
 30
0.0
 11
231.01129327574719
 21
199.67062376334931
 31
0.0
  0
LINE
  5
452C
  8
3
 10
232.0242802627472
 20
200.3406624983493
 30
0.0
 11
232.0242802627472
 21
199.67062376334931
 31
0.0
  0
LINE
  5
452D
  8
3
 10
231.01129327574719
 20
201.1381561383493
 30
0.0
 11
231.01129327574719
 21
201.68361067034931
 31
0.0
  0
LINE
  5
452E
  8
3
 10
232.0242802627472
 20
201.5814146613493
 30
0.0
 11
232.0242802627472
 21
201.1381561383493
 31
0.0
  0
LINE
  5
452F
  8
3
 10
231.01129327574719
 20
201.1381561383493
 30
0.0
 11
232.0242802627472
 21
201.1381561383493
 31
0.0
  0
LINE
  5
4530
  8
3
 10
231.01129327574719
 20
203.1472470023493
 30
0.0
 11
231.01129327574719
 21
204.2381560603493
 31
0.0
  0
LINE
  5
4531
  8
3
 10
231.01129327574719
 20
203.1472470023493
 30
0.0
 11
232.0242802627472
 21
203.1472470023493
 31
0.0
  0
LINE
  5
4532
  8
3
 10
232.0242802627472
 20
203.1472470023493
 30
0.0
 11
232.0242802627472
 21
204.2381560603493
 31
0.0
  0
CIRCLE
  5
4533
  8
3
 10
231.77942070074721
 20
198.0943166493492
 30
0.0
 40
0.175324671
  0
LINE
  5
4534
  8
3
 10
231.01129327574719
 20
207.43425995034929
 30
0.0
 11
231.01129327574719
 21
208.52516900834931
 31
0.0
  0
LINE
  5
4535
  8
3
 10
232.0242802627472
 20
207.43425995034929
 30
0.0
 11
232.0242802627472
 21
208.52516900834931
 31
0.0
  0
ARC
  5
4536
  8
0
 10
225.8681937827472
 20
232.9420522333493
 30
0.0
 40
1.0
 50
90.0
 51
180.0
  0
LINE
  5
4537
  8
0
 10
227.0752961057473
 20
103.6779385037924
 30
0.0
 11
225.16108254274721
 21
101.7637249407924
 31
0.0
  0
ARC
  5
4538
  8
0
 10
225.86818932474719
 20
101.05661815979239
 30
0.0
 40
1.0
 50
134.99999999999969
 51
180.1710938630028
  0
ARC
  5
453A
  8
0
 10
227.78240288674721
 20
102.97083172179239
 30
0.0
 40
1.0
 50
90.0
 51
134.99999999999969
  0
LINE
  5
453D
  8
1
 10
254.8681937827472
 20
168.9420522333493
 30
0.0
 11
254.8681937827472
 21
238.9420522333493
 31
0.0
  0
LINE
  5
453E
  8
0
 10
247.3681937827472
 20
189.94205223334919
 30
0.0
 11
247.3681937827472
 21
202.9420522333493
 31
0.0
  0
LINE
  5
4540
  8
0
 10
262.3681937827472
 20
189.94205223334919
 30
0.0
 11
262.3681937827472
 21
202.9420522333493
 31
0.0
  0
LINE
  5
4541
  8
0
 10
284.8681937827472
 20
174.94205223334919
 30
0.0
 11
284.8681937827472
 21
232.9420522333493
 31
0.0
  0
LINE
  5
4544
  8
0
 10
263.06819378274719
 20
173.9420522333493
 30
0.0
 11
283.8681937827472
 21
173.9420522333493
 31
0.0
  0
LINE
  5
4548
  8
0
 10
247.3681937827472
 20
187.94205223334919
 30
0.0
 11
247.3681937827472
 21
174.94205223334919
 31
0.0
  0
ARC
  5
4549
  8
0
 10
248.3681937827472
 20
174.94205223334919
 30
0.0
 40
1.0
 50
180.0
 51
270.0
  0
LINE
  5
454A
  8
0
 10
251.28240734574729
 20
173.9420522333493
 30
0.0
 11
251.28240734574729
 21
174.94205223334919
 31
0.0
  0
LINE
  5
4551
  8
0
 10
262.3681937827472
 20
187.94205223334919
 30
0.0
 11
262.3681937827472
 21
174.94205223334919
 31
0.0
  0
LINE
  5
4552
  8
0
 10
258.45398022074721
 20
173.9420522333493
 30
0.0
 11
258.45398022074721
 21
174.94205223334919
 31
0.0
  0
ARC
  5
4553
  8
0
 10
261.3681937827472
 20
174.94205223334919
 30
0.0
 40
1.0
 50
270.0
 51
0.0
  0
LINE
  5
4559
  8
0
 10
281.95398022074721
 20
174.94205223334919
 30
0.0
 11
281.95398022074721
 21
173.9420522333493
 31
0.0
  0
ARC
  5
455A
  8
0
 10
283.8681937827472
 20
174.94205223334919
 30
0.0
 40
1.0
 50
270.0
 51
0.0
  0
LINE
  5
455D
  8
0
 10
284.8681937827472
 20
95.970831721792422
 30
0.0
 11
263.8681937827472
 21
95.970831721792422
 31
0.0
  0
LINE
  5
455E
  8
0
 10
281.95398022074721
 20
103.97083172179251
 30
0.0
 11
262.3681937827472
 21
103.97083172179251
 31
0.0
  0
LINE
  5
455F
  8
0
 10
283.8681937827472
 20
233.9420522333493
 30
0.0
 11
248.3681937827472
 21
233.9420522333493
 31
0.0
  0
LINE
  5
4565
  8
1
 10
254.86819155374721
 20
90.970831721792422
 30
0.0
 11
254.86819155374721
 21
115.97083172179239
 31
0.0
  0
ARC
  5
4566
  8
0
 10
255.36818932474719
 20
103.97083172179239
 30
0.0
 40
7.0
 50
270.0
 51
0.0
  0
LINE
  5
4567
  8
0
 10
260.1361429747472
 20
96.970831721792422
 30
0.0
 11
249.60024458974721
 21
96.970831721792422
 31
0.0
  0
LINE
  5
4568
  8
0
 10
262.06819378274707
 20
218.94205223334919
 30
0.0
 11
247.66819378274721
 21
218.94205223334919
 31
0.0
  0
LINE
  5
456B
  8
0
 10
247.66819378274721
 20
203.9420522333493
 30
0.0
 11
262.0556824477473
 21
203.9420522333493
 31
0.0
  0
LINE
  5
456E
  8
0
 10
247.3681937827472
 20
219.94205223334919
 30
0.0
 11
247.3681937827472
 21
232.9420522333493
 31
0.0
  0
LINE
  5
456F
  8
0
 10
247.3681937827472
 20
217.94205223334919
 30
0.0
 11
247.3681937827472
 21
204.9420522333493
 31
0.0
  0
ARC
  5
4571
  8
0
 10
248.3681937827472
 20
202.9420522333493
 30
0.0
 40
1.0
 50
90.0
 51
180.0
  0
ARC
  5
4572
  8
0
 10
248.3681937827472
 20
204.9420522333493
 30
0.0
 40
1.0
 50
180.0
 51
270.0
  0
LINE
  5
4573
  8
0
 10
251.28240734574729
 20
204.04205166134929
 30
0.0
 11
251.28240734574729
 21
205.04205166134929
 31
0.0
  0
LINE
  5
4574
  8
0
 10
251.28240734574729
 20
203.8420528063493
 30
0.0
 11
251.28240734574729
 21
202.8420528063493
 31
0.0
  0
ARC
  5
4576
  8
0
 10
248.3681937827472
 20
219.94205223334919
 30
0.0
 40
1.0
 50
180.0
 51
270.0
  0
ARC
  5
4577
  8
0
 10
248.3681937827472
 20
217.94205223334919
 30
0.0
 40
1.0
 50
90.0
 51
180.0
  0
LINE
  5
4578
  8
0
 10
251.28240734574729
 20
219.04205261534929
 30
0.0
 11
251.28240734574729
 21
220.04205261534929
 31
0.0
  0
LINE
  5
4579
  8
0
 10
251.28240734574729
 20
218.8420518523493
 30
0.0
 11
251.28240734574729
 21
217.8420518523493
 31
0.0
  0
ARC
  5
457A
  8
0
 10
248.3681937827472
 20
232.9420522333493
 30
0.0
 40
1.0
 50
90.0
 51
180.0
  0
LINE
  5
457B
  8
0
 10
251.28240734574729
 20
233.9420522333493
 30
0.0
 11
251.28240734574729
 21
232.9420522333493
 31
0.0
  0
LINE
  5
457C
  8
0
 10
245.8681937827472
 20
95.970831721792422
 30
0.0
 11
249.60024458974721
 21
96.970831721792422
 31
0.0
  0
LINE
  5
457D
  8
0
 10
262.3681937827472
 20
219.94205223334919
 30
0.0
 11
262.3681937827472
 21
232.9420522333493
 31
0.0
  0
LINE
  5
4580
  8
0
 10
262.3681937827472
 20
217.94205223334919
 30
0.0
 11
262.3681937827472
 21
204.9420522333493
 31
0.0
  0
LINE
  5
4581
  8
0
 10
258.45398022074721
 20
204.04205166134929
 30
0.0
 11
258.45398022074721
 21
205.04205166134929
 31
0.0
  0
LINE
  5
4582
  8
0
 10
258.45398022074721
 20
203.8420528063493
 30
0.0
 11
258.45398022074721
 21
202.8420528063493
 31
0.0
  0
ARC
  5
4583
  8
0
 10
261.3681937827472
 20
202.9420522333493
 30
0.0
 40
1.0
 50
0.0
 51
90.0
  0
ARC
  5
4584
  8
0
 10
261.3681937827472
 20
204.9420522333493
 30
0.0
 40
1.0
 50
270.0
 51
0.0
  0
LINE
  5
4585
  8
0
 10
258.45398022074721
 20
219.04205261534929
 30
0.0
 11
258.45398022074721
 21
220.04205261534929
 31
0.0
  0
LINE
  5
4586
  8
0
 10
258.45398022074721
 20
218.8420518523493
 30
0.0
 11
258.45398022074721
 21
217.8420518523493
 31
0.0
  0
ARC
  5
4587
  8
0
 10
261.3681937827472
 20
219.94205223334919
 30
0.0
 40
1.0
 50
270.0
 51
0.0
  0
ARC
  5
4588
  8
0
 10
261.3681937827472
 20
217.94205223334919
 30
0.0
 40
1.0
 50
0.0
 51
90.0
  0
LINE
  5
458A
  8
0
 10
263.8681937827472
 20
95.970831721792422
 30
0.0
 11
260.1361429747472
 21
96.970831721792422
 31
0.0
  0
LINE
  5
458B
  8
0
 10
258.45398022074721
 20
233.9420522333493
 30
0.0
 11
258.45398022074721
 21
232.9420522333493
 31
0.0
  0
ARC
  5
458C
  8
0
 10
261.3681937827472
 20
232.9420522333493
 30
0.0
 40
1.0
 50
0.0
 51
90.0
  0
LINE
  5
458D
  8
1
 10
267.3681937827472
 20
104.4708093757924
 30
0.0
 11
242.3681937827472
 21
104.4708093757924
 31
0.0
  0
LINE
  5
458E
  8
0
 10
257.74687343974722
 20
110.97083172179239
 30
0.0
 11
251.9895141267472
 21
110.97083172179239
 31
0.0
  0
CIRCLE
  5
458F
  8
0
 10
254.8681937827472
 20
104.47083172179239
 30
0.0
 40
4.0
  0
LINE
  5
4591
  8
0
 10
250.92885395474721
 20
110.53149189379241
 30
0.0
 11
247.80753361074721
 21
107.4101715507924
 31
0.0
  0
LINE
  5
4592
  8
0
 10
247.3681937827472
 20
103.97083172179251
 30
0.0
 11
247.3681937827472
 21
106.3495113787924
 31
0.0
  0
ARC
  5
4593
  8
0
 10
248.8681937827472
 20
106.3495113787924
 30
0.0
 40
1.5
 50
134.99999999999969
 51
180.0
  0
ARC
  5
4594
  8
0
 10
251.9895141267472
 20
109.47083172179239
 30
0.0
 40
1.5
 50
90.0
 51
134.99999999999969
  0
ARC
  5
4595
  8
0
 10
257.74687343974722
 20
109.47083172179239
 30
0.0
 40
1.5
 50
45.000000000000291
 51
90.0
  0
LINE
  5
4596
  8
0
 10
258.80753361074721
 20
110.53149189379241
 30
0.0
 11
261.92885395474718
 21
107.4101715507924
 31
0.0
  0
LINE
  5
4597
  8
0
 10
262.3681937827472
 20
103.97083172179251
 30
0.0
 11
262.3681937827472
 21
106.3495113787924
 31
0.0
  0
ARC
  5
4598
  8
0
 10
260.8681937827472
 20
106.3495113787924
 30
0.0
 40
1.5
 50
0.0
 51
45.000000000000291
  0
LINE
  5
459B
  8
1
 10
272.86819155374718
 20
78.97083172179245
 30
0.0
 11
272.86819155374718
 21
98.470831721792422
 31
0.0
  0
LINE
  5
459C
  8
0
 10
284.8681937827472
 20
95.970831721792422
 30
0.0
 11
284.8681937827472
 21
101.05661815979239
 31
0.0
  0
LINE
  5
459D
  8
0
 10
100.1367482165905
 20
110.1708317217924
 30
0.0
 11
100.1367482165905
 21
95.970831721792422
 31
0.0
  0
ARC
  5
459F
  8
3
 10
279.81547675674722
 20
205.42074644034921
 30
0.0
 40
1.1303966979999991
 50
0.0
 51
141.306191079001
  0
ARC
  5
45A0
  8
3
 10
279.64160187074719
 20
208.11125887734929
 30
0.0
 40
1.3042715849999991
 50
239.0356881509982
 51
34.83817733700139
  0
ARC
  5
45A1
  8
3
 10
279.32899037874722
 20
208.21348070434931
 30
0.0
 40
0.6038960890000001
 50
126.40921806899981
 51
180.0
  0
ARC
  5
45A2
  8
3
 10
279.32899037874722
 20
208.21348070434931
 30
0.0
 40
1.6168830769999989
 50
90.0
 51
180.0
  0
CIRCLE
  5
45A3
  8
3
 10
277.9569668637472
 20
209.78978781834931
 30
0.0
 40
0.175324671
  0
ARC
  5
45A4
  8
3
 10
-279.14976962574718
 20
208.1276381183493
 30
0.0
 40
0.77922076
210
0.0
220
0.0
230
-1.0
 50
123.3670129689981
 51
180.0
  0
ARC
  5
45A5
  8
3
 10
280.32249684774717
 20
210.60958454034929
 30
0.0
 40
0.77922076
 50
270.0
 51
323.13010235399958
  0
ARC
  5
45A6
  8
3
 10
280.5012500417472
 20
209.27362172134929
 30
0.0
 40
0.467532456
 50
296.80786761499962
 51
341.98954309499891
  0
LINE
  5
45A7
  8
3
 10
280.94587345474719
 20
209.1290650973493
 30
0.0
 11
280.94587345474719
 21
210.14205208534929
 31
0.0
  0
LINE
  5
45A8
  8
3
 10
280.32249684774717
 20
209.83036378134929
 30
0.0
 11
279.32899037874722
 21
209.83036378134929
 31
0.0
  0
LINE
  5
45A9
  8
3
 10
278.74457480874719
 20
200.44984451734931
 30
0.0
 11
277.71210730174721
 21
200.44984451734931
 31
0.0
  0
LINE
  5
45AA
  8
3
 10
276.76145798974721
 20
201.77322109734931
 30
0.0
 11
276.76145798974721
 21
200.70568867134929
 31
0.0
  0
LINE
  5
45AB
  8
3
 10
279.32196915274722
 20
201.77322109734931
 30
0.0
 11
276.76145798974721
 21
201.77322109734931
 31
0.0
  0
LINE
  5
45AC
  8
3
 10
279.2426922247472
 20
200.70568867134929
 30
0.0
 11
276.76145798974721
 21
200.70568867134929
 31
0.0
  0
ARC
  5
45AD
  8
3
 10
278.17963975774722
 20
207.5434419683493
 30
0.0
 40
0.467532456
 50
180.0
 51
265.0
  0
LINE
  5
45AE
  8
3
 10
278.13889161874732
 20
207.0776886153493
 30
0.0
 11
278.57122929974719
 21
207.03986396934931
 31
0.0
  0
ARC
  5
45AF
  8
3
 10
-278.55085523074729
 20
206.80698729234931
 30
0.0
 40
0.233766228
210
0.0
220
0.0
230
-1.0
 50
90.0
 51
138.1896851039983
  0
ARC
  5
45B0
  8
3
 10
278.84197740374719
 20
206.20049379634929
 30
0.0
 40
0.116883114
 50
180.0
 51
321.306191079001
  0
LINE
  5
45B1
  8
3
 10
278.72509428974718
 20
206.7459483283493
 30
0.0
 11
278.72509428974718
 21
206.20049379634929
 31
0.0
  0
LINE
  5
45B2
  8
3
 10
277.71210730174721
 20
206.3026898053493
 30
0.0
 11
277.71210730174721
 21
206.7459483283493
 31
0.0
  0
LINE
  5
45B3
  8
3
 10
278.72509428974718
 20
206.7459483283493
 30
0.0
 11
277.71210730174721
 21
206.7459483283493
 31
0.0
  0
LINE
  5
45B4
  8
3
 10
278.97054883674718
 20
204.5810133133493
 30
0.0
 11
278.97054883674718
 21
203.1599338523493
 31
0.0
  0
ARC
  5
45B5
  8
3
 10
279.32899037874722
 20
203.64594840734929
 30
0.0
 40
0.6038960890000001
 50
180.0
 51
233.59078193100041
  0
LINE
  5
45B6
  8
3
 10
278.72509428974718
 20
204.73685746534929
 30
0.0
 11
278.72509428974718
 21
203.64594840734929
 31
0.0
  0
LINE
  5
45B7
  8
3
 10
278.72509428974718
 20
204.73685746534929
 30
0.0
 11
277.71210730174721
 21
204.73685746534929
 31
0.0
  0
LINE
  5
45B8
  8
3
 10
277.71210730174721
 20
204.73685746534929
 30
0.0
 11
277.71210730174721
 21
203.64594840734929
 31
0.0
  0
ARC
  5
45B9
  8
3
 10
279.32899037874722
 20
199.3589354593492
 30
0.0
 40
0.6038960890000001
 50
180.0
 51
233.59078193100041
  0
LINE
  5
45BA
  8
3
 10
278.97054883674718
 20
200.2940003653494
 30
0.0
 11
278.97054883674718
 21
198.87292090534919
 31
0.0
  0
LINE
  5
45BB
  8
3
 10
278.72509428974718
 20
200.44984451734931
 30
0.0
 11
278.72509428974718
 21
199.3589354593492
 31
0.0
  0
LINE
  5
45BC
  8
3
 10
277.71210730174721
 20
200.44984451734931
 30
0.0
 11
277.71210730174721
 21
199.3589354593492
 31
0.0
  0
ARC
  5
45BD
  8
3
 10
280.55626307474722
 20
200.07630367834929
 30
0.0
 40
0.38961038
 50
0.0
 51
87.587422277999195
  0
LINE
  5
45BE
  8
3
 10
280.57266371774722
 20
200.4655687123493
 30
0.0
 11
280.03845571574732
 21
200.4880761393494
 31
0.0
  0
ARC
  5
45BF
  8
3
 10
280.04337590774719
 20
200.60485565034921
 30
0.0
 40
0.116883114
 50
199.03867971700251
 51
267.58742227799911
  0
LINE
  5
45C0
  8
3
 10
280.94587345474719
 20
202.49789641834931
 30
0.0
 11
280.94587345474719
 21
201.2121821653493
 31
0.0
  0
ARC
  5
45C1
  8
3
 10
-279.6173020817472
 20
207.70514428134919
 30
0.0
 40
0.038961038
210
0.0
220
0.0
230
-1.0
 50
270.0
 51
0.0
  0
ARC
  5
45C2
  8
3
 10
-279.6173020817472
 20
207.97787154734931
 30
0.0
 40
0.311688304
210
0.0
220
0.0
230
-1.0
 50
180.0
 51
270.0
  0
ARC
  5
45C3
  8
3
 10
279.87444491074717
 20
205.5108834313493
 30
0.0
 40
0.058441557
 50
0.0
 51
140.7531840589983
  0
LINE
  5
45C4
  8
3
 10
279.93288646774721
 20
204.95374058134931
 30
0.0
 11
279.93288646774721
 21
205.5108834313493
 31
0.0
  0
LINE
  5
45C5
  8
3
 10
280.94587345474719
 20
204.95374058134931
 30
0.0
 11
280.94587345474719
 21
205.42074644034929
 31
0.0
  0
LINE
  5
45C6
  8
3
 10
280.94587345474719
 20
204.95374058134931
 30
0.0
 11
279.93288646774721
 21
204.95374058134931
 31
0.0
  0
ARC
  5
45C7
  8
3
 10
280.55626307474722
 20
204.26932500934919
 30
0.0
 40
0.38961038
 50
0.0
 51
90.0
  0
LINE
  5
45C8
  8
3
 10
280.94587345474719
 20
204.2693250093493
 30
0.0
 11
280.94587345474719
 21
203.64594840734929
 31
0.0
  0
LINE
  5
45C9
  8
3
 10
280.55626307474722
 20
204.6589353893493
 30
0.0
 11
280.04308492374719
 21
204.6589353893493
 31
0.0
  0
LINE
  5
45CA
  8
3
 10
279.93288646774721
 20
204.73685746534929
 30
0.0
 11
279.93288646774721
 21
203.64594840734929
 31
0.0
  0
ARC
  5
45CB
  8
3
 10
279.32899037874722
 20
203.64594840734929
 30
0.0
 40
0.6038960890000001
 50
306.40921806899962
 51
0.0
  0
LINE
  5
45CC
  8
3
 10
279.68743192074731
 20
204.5810133133493
 30
0.0
 11
279.68743192074731
 21
203.1599338523493
 31
0.0
  0
ARC
  5
45CD
  8
3
 10
280.04308492374719
 20
204.77581850334931
 30
0.0
 40
0.116883114
 50
199.47122063400241
 51
270.0
  0
ARC
  5
45CE
  8
3
 10
279.32899037874722
 20
199.3589354593492
 30
0.0
 40
0.6038960890000001
 50
306.40921806899962
 51
0.0
  0
LINE
  5
45CF
  8
3
 10
279.68743192074731
 20
200.2940003653494
 30
0.0
 11
279.68743192074731
 21
198.87292090534919
 31
0.0
  0
LINE
  5
45D0
  8
3
 10
279.93288646774721
 20
200.56672763134929
 30
0.0
 11
279.93288646774721
 21
199.3589354593492
 31
0.0
  0
LINE
  5
45D1
  8
3
 10
280.94587345474719
 20
200.07630367834929
 30
0.0
 11
280.94587345474719
 21
199.3589354593492
 31
0.0
  0
LINE
  5
45D2
  8
3
 10
279.68743192074731
 20
200.2940003653494
 30
0.0
 11
278.97054883674718
 21
200.2940003653494
 31
0.0
  0
ARC
  5
45D3
  8
3
 10
279.32899037874722
 20
199.3589354593492
 30
0.0
 40
1.6168830769999989
 50
180.0
 51
0.0
  0
ARC
  5
45D4
  8
3
 10
279.32196915274722
 20
203.95503922434921
 30
0.0
 40
2.1818181280000002
 50
270.0
 51
318.09810780299978
  0
ARC
  5
45D5
  8
3
 10
279.2426922247472
 20
203.82257171034931
 30
0.0
 40
3.1168830389999989
 50
270.0
 51
303.12294020799777
  0
ARC
  5
45D6
  8
3
 10
278.90521238574718
 20
206.3026898053493
 30
0.0
 40
1.1931050839999999
 50
180.0
 51
320.75318405899827
  0
LINE
  5
45D7
  8
3
 10
279.68743192074731
 20
204.5810133133493
 30
0.0
 11
278.97054883674718
 21
204.5810133133493
 31
0.0
  0
ARC
  5
45D8
  8
3
 10
279.32899037874722
 20
203.64594840734929
 30
0.0
 40
1.6168830769999989
 50
180.0
 51
0.0
  0
LINE
  5
45D9
  8
3
 10
279.92899038574728
 20
207.97787154734931
 30
0.0
 11
279.92899038574728
 21
208.1276381183493
 31
0.0
  0
LINE
  5
45DA
  8
3
 10
279.57834104374717
 20
207.70514428134931
 30
0.0
 11
279.57834104374717
 21
208.7784157553493
 31
0.0
  0
LINE
  5
45DB
  8
3
 10
278.97054883674718
 20
206.99286172334931
 30
0.0
 11
278.97054883674718
 21
208.69949525834929
 31
0.0
  0
LINE
  5
45DC
  8
3
 10
278.72509428974718
 20
206.96283144434929
 30
0.0
 11
278.72509428974718
 21
208.21348070434931
 31
0.0
  0
LINE
  5
45DD
  8
3
 10
277.71210730174721
 20
207.5434419683493
 30
0.0
 11
277.71210730174721
 21
208.21348070434931
 31
0.0
  0
ARC
  5
45DE
  8
0
 10
283.8681937827472
 20
232.9420522333493
 30
0.0
 40
1.0
 50
0.0
 51
90.0
  0
ARC
  5
45E0
  8
0
 10
281.95398022074721
 20
102.97083172179239
 30
0.0
 40
1.0
 50
45.000000000000291
 51
90.0
  0
ARC
  5
45E1
  8
0
 10
283.8681937827472
 20
101.05661815979239
 30
0.0
 40
1.0
 50
0.0
 51
45.000000000000291
  0
LINE
  5
45E2
  8
0
 10
282.66108700174721
 20
103.6779385037924
 30
0.0
 11
284.57530056374719
 21
101.7637249407924
 31
0.0
  0
LINE
  5
45E7
  8
1
 10
130.13674821659049
 20
115.97083172179239
 30
0.0
 11
130.13674821659049
 21
90.970831721792422
 31
0.0
  0
LINE
  5
45EB
  8
0
 10
115.1367482165905
 20
110.1708317217924
 30
0.0
 11
115.1367482165905
 21
103.97083172179251
 31
0.0
  0
LINE
  5
45EC
  8
0
 10
130.13674821659049
 20
110.1708317217924
 30
0.0
 11
130.13674821659049
 21
103.97083172179251
 31
0.0
  0
LINE
  5
45F0
  8
0
 10
160.13674821659049
 20
110.1708317217924
 30
0.0
 11
160.13674821659049
 21
95.970831721792422
 31
0.0
  0
LINE
  5
45F2
  8
0
 10
145.13674821659049
 20
110.1708317217924
 30
0.0
 11
145.13674821659049
 21
103.97083172179251
 31
0.0
  0
LINE
  5
45F3
  8
3
 10
227.78240734574729
 20
233.9420522333493
 30
8.0
 11
227.7824073457472
 21
173.9420522333493
 31
8.0
  0
LINE
  5
45F4
  8
3
 10
281.95398022074721
 20
173.9420522333493
 30
8.0
 11
281.95398022074721
 21
233.9420522333493
 31
8.0
  0
LINE
  5
45F5
  8
0
 10
258.45398022074721
 20
190.04205213834931
 30
15.0
 11
258.45398022074721
 21
202.8420532823493
 31
15.0
  0
LINE
  5
45F6
  8
0
 10
251.28240734574729
 20
190.04205213834931
 30
15.0
 11
251.28240734574729
 21
202.8420532823493
 31
15.0
  0
LINE
  5
45F7
  8
0
 10
251.28240734574729
 20
187.8420518523493
 30
15.0
 11
251.28240734574729
 21
174.9420531873493
 31
15.0
  0
LINE
  5
45F8
  8
0
 10
258.45398022074721
 20
187.8420518523493
 30
15.0
 11
258.45398022074721
 21
174.9420531873493
 31
15.0
  0
LINE
  5
45F9
  8
0
 10
251.28240734574729
 20
220.04205261534929
 30
15.0
 11
251.28240734574729
 21
232.94205128034929
 31
15.0
  0
LINE
  5
45FA
  8
0
 10
251.28240734574729
 20
217.84205232934929
 30
15.0
 11
251.28240734574729
 21
205.0420511843493
 31
15.0
  0
LINE
  5
45FB
  8
0
 10
258.45398022074721
 20
220.04205261534929
 30
15.0
 11
258.45398022074721
 21
232.94205128034929
 31
15.0
  0
LINE
  5
45FC
  8
0
 10
258.45398022074721
 20
217.84205232934929
 30
15.0
 11
258.45398022074721
 21
205.0420511843493
 31
15.0
  0
LINE
  5
45FF
  8
0
 10
262.06819378274707
 20
188.94205223334919
 30
0.0
 11
247.66819378274721
 21
188.94205223334919
 31
0.0
  0
ARC
  5
4600
  8
0
 10
248.3681937827472
 20
189.94205223334919
 30
0.0
 40
1.0
 50
180.0
 51
270.0
  0
ARC
  5
4602
  8
0
 10
248.3681937827472
 20
187.94205223334919
 30
0.0
 40
1.0
 50
90.0
 51
180.0
  0
LINE
  5
4603
  8
0
 10
251.28240734574729
 20
189.04205261534929
 30
0.0
 11
251.28240734574729
 21
190.04205261534929
 31
0.0
  0
LINE
  5
4604
  8
0
 10
251.28240734574729
 20
188.8420518523493
 30
0.0
 11
251.28240734574729
 21
187.8420518523493
 31
0.0
  0
LINE
  5
4605
  8
0
 10
258.45398022074721
 20
189.04205261534929
 30
0.0
 11
258.45398022074721
 21
190.04205261534929
 31
0.0
  0
LINE
  5
4606
  8
0
 10
258.45398022074721
 20
188.8420518523493
 30
0.0
 11
258.45398022074721
 21
187.8420518523493
 31
0.0
  0
ARC
  5
4607
  8
0
 10
261.3681937827472
 20
187.94205223334919
 30
0.0
 40
1.0
 50
0.0
 51
90.0
  0
ARC
  5
4609
  8
0
 10
261.3681937827472
 20
189.94205223334919
 30
0.0
 40
1.0
 50
270.0
 51
0.0
  0
LINE
  5
460F
  8
1
 10
236.8681960117473
 20
195.69205223334919
 30
0.0
 11
236.8681960117473
 21
176.1920522333493
 31
0.0
  0
LINE
  5
4610
  8
1
 10
246.6181960117473
 20
185.94205223334919
 30
0.0
 11
227.1181960117473
 21
185.94205223334919
 31
0.0
  0
LINE
  5
4611
  8
1
 10
272.86819155374718
 20
195.69204114934931
 30
0.0
 11
272.86819155374718
 21
176.19204114934919
 31
0.0
  0
LINE
  5
4612
  8
1
 10
282.61819155374729
 20
185.94204114934931
 30
0.0
 11
263.11819155374718
 21
185.94204114934931
 31
0.0
  0
LINE
  5
4613
  8
1
 10
272.86819155374718
 20
231.69204114934931
 30
0.0
 11
272.86819155374718
 21
212.19204114934931
 31
0.0
  0
LINE
  5
4614
  8
1
 10
282.61819155374729
 20
221.94204114934931
 30
0.0
 11
263.11819155374718
 21
221.94204114934931
 31
0.0
  0
LINE
  5
4615
  8
1
 10
236.8681937827472
 20
231.6920522333493
 30
0.0
 11
236.8681937827472
 21
212.1920522333493
 31
0.0
  0
LINE
  5
4616
  8
1
 10
246.6181937827472
 20
221.9420522333493
 30
0.0
 11
227.1181937827472
 21
221.9420522333493
 31
0.0
  0
LINE
  5
4619
  8
0
 10
263.06819378274707
 20
204.9420522333493
 30
0.0
 11
263.06819378274707
 21
217.94205223334919
 31
0.0
  0
ARC
  5
461A
  8
0
 10
262.06819378274707
 20
217.94205223334919
 30
0.0
 40
1.0
 50
0.0
 51
90.000000000000099
  0
ARC
  5
461B
  8
0
 10
262.06819378274707
 20
204.9420522333493
 30
0.0
 40
1.0
 50
270.0
 51
0.0000000000000382
  0
LINE
  5
461C
  8
0
 10
263.06819378274719
 20
173.94205223334919
 30
0.0
 11
263.06819378274707
 21
187.94205223334919
 31
0.0
  0
ARC
  5
461D
  8
0
 10
262.06819378274707
 20
187.94205223334919
 30
0.0
 40
1.0
 50
0.0
 51
90.000000000000099
  0
LINE
  5
461E
  8
0
 10
246.66819378274721
 20
202.9420522333493
 30
0.0
 11
246.66819378274721
 21
189.94205223334919
 31
0.0
  0
ARC
  5
461F
  8
0
 10
247.66819378274721
 20
202.9420522333493
 30
0.0
 40
1.0
 50
90.0
 51
180.0
  0
ARC
  5
4620
  8
0
 10
247.66819378274721
 20
189.94205223334919
 30
0.0
 40
1.0
 50
180.0
 51
270.00000000000011
  0
LINE
  5
4622
  8
0
 10
246.66819378274721
 20
233.9420522333493
 30
0.0
 11
246.66819378274721
 21
219.94205223334919
 31
0.0
  0
ARC
  5
4623
  8
0
 10
247.66819378274721
 20
219.94205223334919
 30
0.0
 40
1.0
 50
180.0
 51
270.0
  0
LINE
  5
4626
  8
0
 10
263.06819378274719
 20
103.97083172179251
 30
0.0
 11
263.8681937827472
 21
95.970831721792422
 31
0.0
  0
ARC
  5
4646
  8
0
 10
100.9367482165905
 20
110.1708317217924
 30
0.0
 40
0.8
 50
90.0
 51
180.0
  0
ARC
  5
4647
  8
0
 10
114.33674821659049
 20
110.1708317217924
 30
0.0
 40
0.8
 50
0.0
 51
90.0
  0
ARC
  5
4648
  8
0
 10
115.9367482165905
 20
110.1708317217924
 30
0.0
 40
0.8
 50
90.0
 51
180.0
  0
ARC
  5
4649
  8
0
 10
129.33674821659051
 20
110.1708317217924
 30
0.0
 40
0.8
 50
0.0
 51
90.0
  0
ARC
  5
464A
  8
0
 10
130.9367482165905
 20
110.1708317217924
 30
0.0
 40
0.8
 50
90.0
 51
180.0
  0
ARC
  5
464B
  8
0
 10
159.33674821659051
 20
110.1708317217924
 30
0.0
 40
0.8
 50
0.0
 51
90.0
  0
ARC
  5
464D
  8
0
 10
144.33674821659051
 20
110.1708317217924
 30
0.0
 40
0.8
 50
0.0
 51
90.0
  0
ARC
  5
464E
  8
0
 10
145.9367482165905
 20
110.1708317217924
 30
0.0
 40
0.8
 50
90.0
 51
180.0
  0
LINE
  5
464F
  8
0
 10
115.9367482165905
 20
110.97083172179239
 30
0.0
 11
129.33674821659051
 21
110.97083172179239
 31
0.0
  0
LINE
  5
4650
  8
0
 10
130.9367482165905
 20
110.97083172179239
 30
0.0
 11
144.33674821659051
 21
110.97083172179239
 31
0.0
  0
LINE
  5
4651
  8
0
 10
145.9367482165905
 20
110.97083172179251
 30
0.0
 11
159.33674821659051
 21
110.97083172179239
 31
0.0
  0
LINE
  5
4662
  8
0
 10
275.66819155374719
 20
81.470831721792408
 30
0.0
 11
270.06819155374723
 21
81.470831721792408
 31
0.0
  0
LINE
  5
4663
  8
0
 10
268.86819155374718
 20
95.970831721792422
 30
0.0
 11
268.86819155374718
 21
82.67083172179241
 31
0.0
  0
LINE
  5
4664
  8
3
 10
269.54469155374721
 20
95.970831721792479
 30
0.0
 11
269.54469155374721
 21
81.994331721792449
 31
0.0
  0
LINE
  5
4665
  8
3
 10
276.19169155374738
 20
95.970831721792422
 30
0.0
 11
276.19169155374732
 21
81.994331721792491
 31
0.0
  0
LINE
  5
4666
  8
0
 10
276.86819155374718
 20
95.970831721792422
 30
0.0
 11
276.86819155374718
 21
82.670831721792396
 31
0.0
  0
LINE
  5
4667
  8
0
 10
276.86819155374718
 20
82.670831721792354
 30
0.0
 11
275.66819155374719
 21
81.470831721792408
 31
0.0
  0
LINE
  5
4668
  8
0
 10
270.06819155374723
 20
81.470831721792408
 30
0.0
 11
268.86819155374718
 21
82.67083172179241
 31
0.0
  0
LINE
  5
4669
  8
0
 10
276.86819155374718
 20
82.670831721792354
 30
0.0
 11
268.86819155374718
 21
82.67083172179241
 31
0.0
  0
LINE
  5
4670
  8
1
 10
236.86818653848621
 20
78.970831721792479
 30
0.0
 11
236.86818653848621
 21
98.470831721792479
 31
0.0
  0
LINE
  5
4671
  8
3
 10
233.5446865384861
 20
95.970831721792479
 30
0.0
 11
233.54468653848619
 21
81.994331721792491
 31
0.0
  0
LINE
  5
4672
  8
0
 10
232.86818653848621
 20
95.970831721792436
 30
0.0
 11
232.86818653848621
 21
82.670831721792439
 31
0.0
  0
LINE
  5
4673
  8
3
 10
240.19168653848641
 20
95.970831721792422
 30
0.0
 11
240.19168653848621
 21
81.994331721792534
 31
0.0
  0
LINE
  5
4674
  8
0
 10
240.86818653848621
 20
95.970831721792422
 30
0.0
 11
240.86818653848621
 21
82.67083172179241
 31
0.0
  0
LINE
  5
4675
  8
0
 10
239.6681865384862
 20
81.470831721792479
 30
0.0
 11
234.0681865384862
 21
81.470831721792479
 31
0.0
  0
LINE
  5
4676
  8
0
 10
240.86818653848621
 20
82.670831721792354
 30
0.0
 11
232.86818653848621
 21
82.670831721792453
 31
0.0
  0
LINE
  5
4677
  8
0
 10
234.0681865384862
 20
81.470831721792479
 30
0.0
 11
232.86818653848621
 21
82.670831721792453
 31
0.0
  0
LINE
  5
4678
  8
0
 10
240.86818653848621
 20
82.67083172179241
 30
0.0
 11
239.6681865384862
 21
81.470831721792479
 31
0.0
  0
LINE
  5
4679
  8
0
 10
152.13674821659049
 20
95.970831721792408
 30
0.0
 11
152.13674821659049
 21
82.670831721792396
 31
0.0
  0
LINE
  5
467A
  8
3
 10
151.4602482165906
 20
95.970831721792408
 30
0.0
 11
151.46024821659049
 21
81.994331721792491
 31
0.0
  0
LINE
  5
467B
  8
0
 10
144.13674821659049
 20
95.970831721792422
 30
0.0
 11
144.13674821659049
 21
82.67083172179241
 31
0.0
  0
LINE
  5
467C
  8
3
 10
144.81324821659041
 20
95.970831721792464
 30
0.0
 11
144.81324821659041
 21
81.994331721792449
 31
0.0
  0
LINE
  5
467D
  8
1
 10
148.13674821659049
 20
78.97083172179245
 30
0.0
 11
148.13674821659049
 21
98.470831721792436
 31
0.0
  0
LINE
  5
467E
  8
0
 10
152.13674821659049
 20
82.670831721792325
 30
0.0
 11
144.13674821659049
 21
82.670831721792425
 31
0.0
  0
LINE
  5
467F
  8
0
 10
150.9367482165905
 20
81.470831721792436
 30
0.0
 11
145.33674821659051
 21
81.470831721792436
 31
0.0
  0
LINE
  5
4680
  8
0
 10
145.33674821659051
 20
81.470831721792436
 30
0.0
 11
144.13674821659049
 21
82.670831721792425
 31
0.0
  0
LINE
  5
4681
  8
0
 10
152.13674821659049
 20
82.670831721792368
 30
0.0
 11
150.9367482165905
 21
81.470831721792436
 31
0.0
  0
LINE
  5
4682
  8
1
 10
112.1367482165905
 20
78.97083172179245
 30
0.0
 11
112.1367482165905
 21
98.470831721792436
 31
0.0
  0
LINE
  5
4683
  8
3
 10
108.8132482165904
 20
95.970831721792464
 30
0.0
 11
108.8132482165904
 21
81.994331721792449
 31
0.0
  0
LINE
  5
4684
  8
0
 10
108.1367482165905
 20
95.970831721792422
 30
0.0
 11
108.1367482165905
 21
82.67083172179241
 31
0.0
  0
LINE
  5
4685
  8
3
 10
115.4602482165906
 20
95.970831721792408
 30
0.0
 11
115.4602482165905
 21
81.994331721792491
 31
0.0
  0
LINE
  5
4686
  8
0
 10
116.1367482165905
 20
95.970831721792408
 30
0.0
 11
116.1367482165905
 21
82.670831721792396
 31
0.0
  0
LINE
  5
4687
  8
0
 10
116.1367482165905
 20
82.670831721792368
 30
0.0
 11
114.9367482165905
 21
81.470831721792436
 31
0.0
  0
LINE
  5
4688
  8
0
 10
116.1367482165905
 20
82.670831721792325
 30
0.0
 11
108.1367482165905
 21
82.670831721792425
 31
0.0
  0
LINE
  5
4689
  8
0
 10
114.9367482165905
 20
81.470831721792436
 30
0.0
 11
109.33674821659039
 21
81.470831721792436
 31
0.0
  0
LINE
  5
468A
  8
0
 10
109.33674821659039
 20
81.470831721792436
 30
0.0
 11
108.1367482165905
 21
82.670831721792425
 31
0.0
  0
TEXT
  5
47A7
  8
0
 62
     3
 10
0.0
 20
0.0
 30
0.0
 40
10.0
  1
EFTH6060TT
  7
STANDARD1
  0
ENDSEC
  0
EOF
