  0
SECTION
  2
HEADER
  9
$ACADVER
  1
AC1009
  9
$INSBASE
 10
0.0
 20
0.0
 30
0.0
  9
$EXTMIN
 10
0.0
 20
-2.960436562073669
 30
0.0
  9
$EXTMAX
 10
106.1118878020286
 20
98.894633358775437
 30
0.0
  9
$LIMMIN
 10
0.0
 20
0.0
  9
$LIMMAX
 10
385.0
 20
270.0
  9
$ORTHOMODE
 70
     1
  9
$REGENMODE
 70
     1
  9
$FILLMODE
 70
     1
  9
$QTEXTMODE
 70
     0
  9
$MIRRTEXT
 70
     0
  9
$DRAGMODE
 70
     2
  9
$LTSCALE
 40
10.0
  9
$OSMODE
 70
  3071
  9
$ATTMODE
 70
     1
  9
$TEXTSIZE
 40
0.2
  9
$TRACEWID
 40
0.05
  9
$TEXTSTYLE
  7
STANDARD
  9
$CLAYER
  8
0
  9
$CELTYPE
  6
BYLAYER
  9
$CECOLOR
 62
   256
  9
$DIMSCALE
 40
1.0
  9
$DIMASZ
 40
3.0
  9
$DIMEXO
 40
0.0625
  9
$DIMDLI
 40
0.38
  9
$DIMRND
 40
0.0
  9
$DIMDLE
 40
0.0
  9
$DIMEXE
 40
0.18
  9
$DIMTP
 40
0.0
  9
$DIMTM
 40
0.0
  9
$DIMTXT
 40
3.0
  9
$DIMCEN
 40
0.09
  9
$DIMTSZ
 40
0.0
  9
$DIMTOL
 70
     0
  9
$DIMLIM
 70
     0
  9
$DIMTIH
 70
     1
  9
$DIMTOH
 70
     1
  9
$DIMSE1
 70
     0
  9
$DIMSE2
 70
     0
  9
$DIMTAD
 70
     0
  9
$DIMZIN
 70
     0
  9
$DIMBLK
  1

  9
$DIMASO
 70
     1
  9
$DIMSHO
 70
     1
  9
$DIMPOST
  1

  9
$DIMAPOST
  1

  9
$DIMALT
 70
     0
  9
$DIMALTD
 70
     2
  9
$DIMALTF
 40
25.399999999999999
  9
$DIMLFAC
 40
1.0
  9
$DIMTOFL
 70
     0
  9
$DIMTVP
 40
0.0
  9
$DIMTIX
 70
     0
  9
$DIMSOXD
 70
     0
  9
$DIMSAH
 70
     0
  9
$DIMBLK1
  1

  9
$DIMBLK2
  1

  9
$DIMSTYLE
  2
STANDARD
  9
$DIMCLRD
 70
     0
  9
$DIMCLRE
 70
     0
  9
$DIMCLRT
 70
     0
  9
$DIMTFAC
 40
1.0
  9
$DIMGAP
 40
0.09
  9
$LUNITS
 70
     2
  9
$LUPREC
 70
     4
  9
$SKETCHINC
 40
0.1
  9
$FILLETRAD
 40
0.0
  9
$AUNITS
 70
     0
  9
$AUPREC
 70
     0
  9
$MENU
  1
E:\r13\win\SUPPORT\ACAD
  9
$ELEVATION
 40
0.0
  9
$PELEVATION
 40
0.0
  9
$THICKNESS
 40
0.0
  9
$LIMCHECK
 70
     0
  9
$BLIPMODE
 70
     0
  9
$CHAMFERA
 40
0.0
  9
$CHAMFERB
 40
0.0
  9
$SKPOLY
 70
     0
  9
$TDCREATE
 40
2450365.443622801
  9
$TDUPDATE
 40
2456598.6760359262
  9
$TDINDWG
 40
0.0007479745
  9
$TDUSRTIMER
 40
0.0007479745
  9
$USRTIMER
 70
     1
  9
$ANGBASE
 50
0.0
  9
$ANGDIR
 70
     0
  9
$PDMODE
 70
     0
  9
$PDSIZE
 40
0.0
  9
$PLINEWID
 40
0.0
  9
$COORDS
 70
     1
  9
$SPLFRAME
 70
     0
  9
$SPLINETYPE
 70
     6
  9
$SPLINESEGS
 70
     8
  9
$ATTDIA
 70
     0
  9
$ATTREQ
 70
     1
  9
$HANDLING
 70
     1
  9
$HANDSEED
  5
2F7
  9
$SURFTAB1
 70
     6
  9
$SURFTAB2
 70
     6
  9
$SURFTYPE
 70
     6
  9
$SURFU
 70
     6
  9
$SURFV
 70
     6
  9
$UCSNAME
  2

  9
$UCSORG
 10
0.0
 20
0.0
 30
0.0
  9
$UCSXDIR
 10
1.0
 20
0.0
 30
0.0
  9
$UCSYDIR
 10
0.0
 20
1.0
 30
0.0
  9
$PUCSNAME
  2

  9
$PUCSORG
 10
0.0
 20
0.0
 30
0.0
  9
$PUCSXDIR
 10
1.0
 20
0.0
 30
0.0
  9
$PUCSYDIR
 10
0.0
 20
1.0
 30
0.0
  9
$USERI1
 70
     3
  9
$USERI2
 70
     1
  9
$USERI3
 70
     1
  9
$USERI4
 70
     0
  9
$USERI5
 70
     0
  9
$USERR1
 40
1.0
  9
$USERR2
 40
3.0
  9
$USERR3
 40
3.0
  9
$USERR4
 40
3.0
  9
$USERR5
 40
10.0
  9
$WORLDVIEW
 70
     1
  9
$SHADEDGE
 70
     3
  9
$SHADEDIF
 70
    70
  9
$TILEMODE
 70
     1
  9
$MAXACTVP
 70
    16
  9
$PLIMCHECK
 70
     0
  9
$PEXTMIN
 10
1.0000000000000000E+020
 20
1.0000000000000000E+020
 30
1.0000000000000000E+020
  9
$PEXTMAX
 10
-1.0000000000000000E+020
 20
-1.0000000000000000E+020
 30
-1.0000000000000000E+020
  9
$PLIMMIN
 10
0.0
 20
0.0
  9
$PLIMMAX
 10
12.0
 20
9.0
  9
$UNITMODE
 70
     0
  9
$VISRETAIN
 70
     0
  9
$PLINEGEN
 70
     0
  9
$PSLTSCALE
 70
     0
  0
ENDSEC
  0
SECTION
  2
TABLES
  0
TABLE
  2
VPORT
 70
     1
  0
VPORT
  2
*ACTIVE
 70
     0
 10
0.0
 20
0.0
 11
1.0
 21
1.0
 12
192.49412581440311
 22
169.9063198933564
 13
0.0
 23
0.0
 14
5.0
 24
5.0
 15
0.0
 25
0.0
 16
0.0
 26
0.0
 36
1.0
 17
0.0
 27
0.0
 37
0.0
 40
348.89937369551939
 41
1.831871345029239
 42
50.0
 43
0.0
 44
0.0
 50
0.0
 51
0.0
 71
     0
 72
   100
 73
     1
 74
     0
 75
     0
 76
     0
 77
     0
 78
     0
  0
ENDTAB
  0
TABLE
  2
LTYPE
 70
     4
  0
LTYPE
  2
CONTINUOUS
 70
     0
  3
Solid Line
 72
    65
 73
     0
 40
0.0
  0
LTYPE
  2
CENTER
 70
     0
  3
____ _ ____ _ ____ _ ____ _ ____ _ ____ _ ____
 72
    65
 73
     4
 40
2.0
 49
1.25
 49
-0.25
 49
0.25
 49
-0.25
  0
LTYPE
  2
HIDDEN
 70
     0
  3
_ _ _ _ _ _ _ _ _ _ _ _ _ _ _ _ _ _ _ _ _ _ _
 72
    65
 73
     2
 40
0.375
 49
0.25
 49
-0.125
  0
LTYPE
  2
PHANTOM2
 70
     0
  3
___ _ _ ___ _ _ ___ _ _ ___ _ _
 72
    65
 73
     6
 40
1.25
 49
0.625
 49
-0.125
 49
0.125
 49
-0.125
 49
0.125
 49
-0.125
  0
ENDTAB
  0
TABLE
  2
LAYER
 70
     4
  0
LAYER
  2
0
 70
     0
 62
     7
  6
CONTINUOUS
  0
LAYER
  2
1
 70
     0
 62
     1
  6
CENTER
  0
LAYER
  2
2
 70
     0
 62
     2
  6
HIDDEN
  0
LAYER
  2
3
 70
     0
 62
     3
  6
CONTINUOUS
  0
ENDTAB
  0
TABLE
  2
STYLE
 70
     2
  0
STYLE
  2
STANDARD
 70
     0
 40
0.0
 41
1.0
 50
0.0
 71
     0
 42
0.2
  3
SIMPLEX
  4
BIGFONT
  0
STYLE
  2
STANDARD1
 70
     0
 40
0.0
 41
1.0
 50
0.0
 71
     0
 42
3.0
  3
txt
  4

  0
ENDTAB
  0
TABLE
  2
VIEW
 70
     0
  0
ENDTAB
  0
TABLE
  2
UCS
 70
     0
  0
ENDTAB
  0
TABLE
  2
APPID
 70
     3
  0
APPID
  2
ACAD
 70
     0
  0
APPID
  2
ACAD_MLEADERVER
 70
     0
  0
APPID
  2
ACAD_NAV_VCDISPLAY
 70
     0
  0
ENDTAB
  0
TABLE
  2
DIMSTYLE
 70
     1
  0
DIMSTYLE
  2
STANDARD
 70
     0
  3

  4

  5

  6

  7

 40
1.0
 41
0.18
 42
0.0625
 43
0.38
 44
0.18
 45
0.0
 46
0.0
 47
0.0
 48
0.0
140
0.18
141
0.09
142
0.0
143
25.399999999999999
144
1.0
145
0.0
146
1.0
147
0.09
 71
     0
 72
     0
 73
     1
 74
     1
 75
     0
 76
     0
 77
     0
 78
     0
170
     0
171
     2
172
     0
173
     0
174
     0
175
     0
176
     0
177
     0
178
     0
  0
ENDTAB
  0
ENDSEC
  0
SECTION
  2
BLOCKS
  0
BLOCK
  8
0
  2
$MODEL_SPACE
 70
     0
 10
0.0
 20
0.0
 30
0.0
  3
$MODEL_SPACE
  1

  0
ENDBLK
  5
16F
  8
0
  0
BLOCK
 67
     1
  8
0
  2
$PAPER_SPACE
 70
     0
 10
0.0
 20
0.0
 30
0.0
  3
$PAPER_SPACE
  1

  0
ENDBLK
  5
16D
 67
     1
  8
0
  0
ENDSEC
  0
SECTION
  2
ENTITIES
  0
LINE
  5
29
  8
0
 10
96.581748781102675
 20
31.478134663753298
 30
0.0
 11
96.581748781102675
 21
31.278134663753288
 31
0.0
  0
LINE
  5
2A
  8
0
 10
89.581748781102789
 20
31.478134663753298
 30
0.0
 11
89.581748781102789
 21
31.278134663753288
 31
0.0
  0
LINE
  5
2B
  8
0
 10
93.081748781102675
 20
31.278134663753288
 30
0.0
 11
96.581748781102675
 21
31.278134663753288
 31
0.0
  0
LINE
  5
2C
  8
0
 10
93.081748781102675
 20
31.278134663753288
 30
0.0
 11
89.581748781102775
 21
31.278134663753288
 31
0.0
  0
LINE
  5
3B
  8
1
 10
93.081748781102675
 20
27.489479706955152
 30
0.0
 11
93.081748781102675
 21
53.321082099417261
 31
0.0
  0
LINE
  5
3C
  8
0
 10
86.831748781102675
 20
31.478134663753298
 30
0.0
 11
86.742050875789019
 21
41.756496553080822
 31
0.0
  0
LINE
  5
3D
  8
1
 10
93.081748781102675
 20
71.503477792024682
 30
0.0
 11
93.081748781102675
 21
98.894633358775437
 31
0.0
  0
CIRCLE
  5
3E
  8
0
 10
93.081748781102675
 20
85.591955797588966
 30
0.0
 40
8.1000000000000014
  0
LINE
  5
3F
  8
0
 10
102.6535473826994
 20
89.683138859889524
 30
0.0
 11
102.2658346952816
 21
89.139404689759147
 31
0.0
  0
LINE
  5
40
  8
0
 10
83.509950179505978
 20
89.683138859889524
 30
0.0
 11
83.897662866923866
 21
89.139404689759147
 31
0.0
  0
CIRCLE
  5
41
  8
0
 10
93.081748781102675
 20
85.591955797588966
 30
0.0
 40
9.8453962704188811
  0
CIRCLE
  5
42
  8
0
 10
93.081748781102675
 20
85.591955797588966
 30
0.0
 40
10.409471999999999
  0
LINE
  5
43
  8
1
 10
80.165530511444175
 20
85.591955797588966
 30
0.0
 11
106.1118878020286
 21
85.591955797588966
 31
0.0
  0
LINE
  5
44
  8
0
 10
95.851051875997285
 20
75.557611390135605
 30
0.0
 11
96.034425461642655
 21
76.199750085309631
 31
0.0
  0
LINE
  5
45
  8
0
 10
88.56524814750324
 20
76.213345594287091
 30
0.0
 11
88.499479742259638
 21
76.877907474493782
 31
0.0
  0
LINE
  5
46
  8
0
 10
91.223065784289375
 20
75.349768295100034
 30
0.0
 11
91.666893214245448
 21
75.848752451332075
 31
0.0
  0
LINE
  5
47
  8
0
 10
91.223065784289375
 20
75.349768295100034
 30
0.0
 11
90.982869537933226
 21
75.97288444718447
 31
0.0
  0
LINE
  5
48
  8
0
 10
90.312445686208108
 20
75.557611390135605
 30
0.0
 11
90.799214992332878
 21
76.014802398760025
 31
0.0
  0
LINE
  5
49
  8
0
 10
90.312445686208108
 20
75.557611390135605
 30
0.0
 11
90.129072100562738
 21
76.199750085309631
 31
0.0
  0
LINE
  5
4A
  8
0
 10
89.424122388322957
 20
75.846245126240945
 30
0.0
 11
89.949914390379064
 21
76.257961954080201
 31
0.0
  0
LINE
  5
4B
  8
0
 10
89.424122388322957
 20
75.846245126240945
 30
0.0
 11
89.299047879678056
 21
76.502236241302285
 31
0.0
  0
LINE
  5
4C
  8
0
 10
88.56524814750324
 20
76.213345594287091
 30
0.0
 11
89.125829477450694
 21
76.576273339528939
 31
0.0
  0
LINE
  5
4D
  8
0
 10
95.851051875997285
 20
75.557611390135605
 30
0.0
 11
95.364282569872586
 21
76.014802398760025
 31
0.0
  0
LINE
  5
4E
  8
0
 10
94.940431777916004
 20
75.349768295100034
 30
0.0
 11
95.180628024271996
 21
75.97288444718464
 31
0.0
  0
LINE
  5
4F
  8
0
 10
94.940431777916004
 20
75.349768295100034
 30
0.0
 11
94.496604347959774
 21
75.848752451332075
 31
0.0
  0
LINE
  5
50
  8
0
 10
94.014846657232354
 20
75.224389271525695
 30
0.0
 11
94.309931645356443
 21
75.823465915650615
 31
0.0
  0
LINE
  5
51
  8
0
 10
94.014846657232354
 20
75.224389271525695
 30
0.0
 11
93.617534540944305
 21
75.761149048337529
 31
0.0
  0
LINE
  5
52
  8
0
 10
93.081748781102675
 20
75.18248379758893
 30
0.0
 11
93.429346660177728
 21
75.752697520867059
 31
0.0
  0
LINE
  5
53
  8
0
 10
93.081748781102675
 20
75.18248379758893
 30
0.0
 11
92.734150902027665
 21
75.752697520867059
 31
0.0
  0
LINE
  5
54
  8
0
 10
92.148650904973024
 20
75.224389271525695
 30
0.0
 11
92.545963021260974
 21
75.761149048337359
 31
0.0
  0
LINE
  5
55
  8
0
 10
92.148650904973024
 20
75.224389271525695
 30
0.0
 11
91.853565916848837
 21
75.823465915650615
 31
0.0
  0
LINE
  5
56
  8
0
 10
86.963214655351265
 20
77.170516047118781
 30
0.0
 11
87.57959046392935
 21
77.427515732628137
 31
0.0
  0
LINE
  5
57
  8
0
 10
86.232954035717654
 20
77.752879458225493
 30
0.0
 11
86.869885770699298
 21
77.953593037051746
 31
0.0
  0
LINE
  5
58
  8
0
 10
86.232954035717654
 20
77.752879458225493
 30
0.0
 11
86.346353681949694
 21
78.410989248447777
 31
0.0
  0
LINE
  5
59
  8
0
 10
85.557835884347725
 20
78.398358502714359
 30
0.0
 11
86.210195345912737
 21
78.541169947138826
 31
0.0
  0
LINE
  5
5A
  8
0
 10
85.557835884347725
 20
78.398358502714359
 30
0.0
 11
85.729771523721084
 21
79.043653870484377
 31
0.0
  0
LINE
  5
5B
  8
0
 10
84.943295855633238
 20
79.10175616285494
 30
0.0
 11
85.605830628978396
 21
79.185515639098639
 31
0.0
  0
LINE
  5
5C
  8
0
 10
84.943295855633238
 20
79.10175616285494
 30
0.0
 11
85.172383163476326
 21
79.729041569298772
 31
0.0
  0
LINE
  5
5D
  8
0
 10
84.394281864541838
 20
79.857409094278808
 30
0.0
 11
85.061657609236264
 21
79.881442220288989
 31
0.0
  0
LINE
  5
5E
  8
0
 10
84.394281864541838
 20
79.857409094278808
 30
0.0
 11
84.678676364552999
 21
80.461634006141523
 31
0.0
  0
LINE
  5
5F
  8
0
 10
83.915214248914836
 20
80.659233223898809
 30
0.0
 11
84.582057647872745
 21
80.623346499076035
 31
0.0
  0
LINE
  5
60
  8
0
 10
83.915214248914836
 20
80.659233223898809
 30
0.0
 11
84.252626163801125
 21
81.235532777468734
 31
0.0
  0
LINE
  5
61
  8
0
 10
83.509950179505978
 20
81.500772735288407
 30
0.0
 11
84.170892201776525
 21
81.405255098439724
 31
0.0
  0
LINE
  5
62
  8
0
 10
83.509950179505978
 20
81.500772735288407
 30
0.0
 11
83.897662866923866
 21
82.044506905418643
 31
0.0
  0
LINE
  5
63
  8
0
 10
83.181752604310674
 20
82.375252047118806
 30
0.0
 11
83.831471733358185
 21
82.220872550092736
 31
0.0
  0
LINE
  5
64
  8
0
 10
83.181752604310674
 20
82.375252047118806
 30
0.0
 11
83.616644429672434
 21
82.882043005982268
 31
0.0
  0
LINE
  5
65
  8
0
 10
86.963214655351265
 20
77.170516047118781
 30
0.0
 11
87.017165281168516
 21
77.836141546725116
 31
0.0
  0
LINE
  5
66
  8
0
 10
82.93326397722754
 20
83.275630366156904
 30
0.0
 11
83.411833447267355
 21
83.741397730940889
 31
0.0
  0
LINE
  5
67
  8
0
 10
82.766484982572621
 20
84.19465837559153
 30
0.0
 11
83.378197334311508
 21
83.926747990420722
 31
0.0
  0
LINE
  5
68
  8
0
 10
82.766484982572621
 20
84.19465837559153
 30
0.0
 11
83.284878937312399
 21
84.615652061341734
 31
0.0
  0
LINE
  5
69
  8
0
 10
82.682758426746744
 20
85.124936602270566
 30
0.0
 11
83.267992902623206
 21
84.803271273088455
 31
0.0
  0
LINE
  5
6A
  8
0
 10
82.682758426746744
 20
85.124936602270566
 30
0.0
 11
83.236803062873335
 21
85.497767015369334
 31
0.0
  0
LINE
  5
6B
  8
0
 10
82.682758426746744
 20
86.058974992907395
 30
0.0
 11
83.236803062873335
 21
85.686144579808456
 31
0.0
  0
LINE
  5
6C
  8
0
 10
82.682758426746744
 20
86.058974992907395
 30
0.0
 11
83.267992902623206
 21
86.380640322089505
 31
0.0
  0
LINE
  5
6D
  8
0
 10
82.766484982572621
 20
86.989253219586317
 30
0.0
 11
83.284878937312399
 21
86.568259533836226
 31
0.0
  0
LINE
  5
6E
  8
0
 10
82.766484982572621
 20
86.989253219586317
 30
0.0
 11
83.378197334311508
 21
87.257163604757238
 31
0.0
  0
LINE
  5
6F
  8
0
 10
82.93326397722754
 20
87.908281229021028
 30
0.0
 11
83.411833447267355
 21
87.442513864237071
 31
0.0
  0
LINE
  5
70
  8
0
 10
82.93326397722754
 20
87.908281229021028
 30
0.0
 11
83.566529056653465
 21
88.120279613288005
 31
0.0
  0
LINE
  5
71
  8
0
 10
83.181752604310674
 20
88.808659548059026
 30
0.0
 11
83.616644429672434
 21
88.301868589195692
 31
0.0
  0
LINE
  5
72
  8
0
 10
83.181752604310674
 20
88.808659548059026
 30
0.0
 11
83.831471733358185
 21
88.963039045085054
 31
0.0
  0
LINE
  5
73
  8
0
 10
82.93326397722754
 20
83.275630366156904
 30
0.0
 11
83.566529056653465
 21
83.063631981889955
 31
0.0
  0
LINE
  5
74
  8
0
 10
87.742738114125615
 20
76.655957117156618
 30
0.0
 11
88.333595300712574
 21
76.967173698994372
 31
0.0
  0
LINE
  5
75
  8
0
 10
87.742738114125615
 20
76.655957117156618
 30
0.0
 11
87.736805340811273
 21
77.323739101005231
 31
0.0
  0
LINE
  5
76
  8
0
 10
97.598249414702224
 20
76.213345594287091
 30
0.0
 11
97.664017819945656
 21
76.877907474493782
 31
0.0
  0
LINE
  5
77
  8
0
 10
97.598249414702224
 20
76.213345594287091
 30
0.0
 11
97.037668084754529
 21
76.576273339528939
 31
0.0
  0
LINE
  5
78
  8
0
 10
96.739375173882337
 20
75.846245126240945
 30
0.0
 11
96.86444968252718
 21
76.502236241302285
 31
0.0
  0
LINE
  5
79
  8
0
 10
96.739375173882337
 20
75.846245126240945
 30
0.0
 11
96.213583171826187
 21
76.257961954080201
 31
0.0
  0
LINE
  5
7A
  8
0
 10
100.6056616778577
 20
78.398358502714359
 30
0.0
 11
99.953302216292656
 21
78.541169947138826
 31
0.0
  0
LINE
  5
7B
  8
0
 10
100.6056616778577
 20
78.398358502714359
 30
0.0
 11
100.43372603848429
 21
79.043653870484377
 31
0.0
  0
LINE
  5
7C
  8
0
 10
99.930543526487753
 20
77.752879458225493
 30
0.0
 11
99.817143880255713
 21
78.410989248447777
 31
0.0
  0
LINE
  5
7D
  8
0
 10
99.930543526487753
 20
77.752879458225493
 30
0.0
 11
99.293611791506095
 21
77.953593037051746
 31
0.0
  0
LINE
  5
7E
  8
0
 10
99.200282906854156
 20
77.170516047118781
 30
0.0
 11
99.146332281036891
 21
77.836141546725116
 31
0.0
  0
LINE
  5
7F
  8
0
 10
99.200282906854156
 20
77.170516047118781
 30
0.0
 11
98.583907098276114
 21
77.427515732628137
 31
0.0
  0
LINE
  5
80
  8
0
 10
98.420759448079622
 20
76.655957117156618
 30
0.0
 11
98.426692221394006
 21
77.323739101005231
 31
0.0
  0
LINE
  5
81
  8
0
 10
98.420759448079622
 20
76.655957117156618
 30
0.0
 11
97.82990226149289
 21
76.967173698994372
 31
0.0
  0
LINE
  5
82
  8
0
 10
102.98174495789451
 20
82.375252047118806
 30
0.0
 11
102.5468531325329
 21
82.882043005982268
 31
0.0
  0
LINE
  5
83
  8
0
 10
102.98174495789451
 20
82.375252047118806
 30
0.0
 11
102.33202582884719
 21
82.220872550092736
 31
0.0
  0
LINE
  5
84
  8
0
 10
102.6535473826994
 20
81.500772735288407
 30
0.0
 11
102.2658346952816
 21
82.044506905418643
 31
0.0
  0
LINE
  5
85
  8
0
 10
102.6535473826994
 20
81.500772735288407
 30
0.0
 11
101.9926053604289
 21
81.405255098439724
 31
0.0
  0
LINE
  5
86
  8
0
 10
102.2482833132905
 20
80.659233223898809
 30
0.0
 11
101.9108713984041
 21
81.235532777468833
 31
0.0
  0
LINE
  5
87
  8
0
 10
102.2482833132905
 20
80.659233223898809
 30
0.0
 11
101.58143991433271
 21
80.623346499076035
 31
0.0
  0
LINE
  5
88
  8
0
 10
101.7692156976635
 20
79.857409094278808
 30
0.0
 11
101.48482119765239
 21
80.461634006141523
 31
0.0
  0
LINE
  5
89
  8
0
 10
101.7692156976635
 20
79.857409094278808
 30
0.0
 11
101.1018399529691
 21
79.881442220288989
 31
0.0
  0
LINE
  5
8A
  8
0
 10
101.2202017065721
 20
79.10175616285494
 30
0.0
 11
100.991114398729
 21
79.729041569298772
 31
0.0
  0
LINE
  5
8B
  8
0
 10
101.2202017065721
 20
79.10175616285494
 30
0.0
 11
100.557666933227
 21
79.185515639098639
 31
0.0
  0
LINE
  5
8C
  8
0
 10
102.98174495789451
 20
88.808659548059026
 30
0.0
 11
102.33202582884719
 21
88.963039045085054
 31
0.0
  0
LINE
  5
8D
  8
0
 10
102.98174495789451
 20
88.808659548059026
 30
0.0
 11
102.5468531325329
 21
88.301868589195692
 31
0.0
  0
LINE
  5
8E
  8
0
 10
103.2302335849778
 20
87.908281229021028
 30
0.0
 11
102.5969685055519
 21
88.120279613288005
 31
0.0
  0
LINE
  5
8F
  8
0
 10
103.2302335849778
 20
87.908281229021028
 30
0.0
 11
102.7516641149379
 21
87.442513864237071
 31
0.0
  0
LINE
  5
90
  8
0
 10
103.3970125796326
 20
86.989253219586431
 30
0.0
 11
102.7853002278939
 21
87.257163604757238
 31
0.0
  0
LINE
  5
91
  8
0
 10
103.3970125796326
 20
86.989253219586431
 30
0.0
 11
102.87861862489299
 21
86.568259533836226
 31
0.0
  0
LINE
  5
92
  8
0
 10
103.48073913545861
 20
86.058974992907395
 30
0.0
 11
102.8955046595822
 21
86.380640322089505
 31
0.0
  0
LINE
  5
93
  8
0
 10
103.48073913545861
 20
86.058974992907395
 30
0.0
 11
102.926694499332
 21
85.686144579808456
 31
0.0
  0
LINE
  5
94
  8
0
 10
103.48073913545861
 20
85.124936602270566
 30
0.0
 11
102.926694499332
 21
85.497767015369334
 31
0.0
  0
LINE
  5
95
  8
0
 10
103.48073913545861
 20
85.124936602270566
 30
0.0
 11
102.8955046595822
 21
84.803271273088455
 31
0.0
  0
LINE
  5
96
  8
0
 10
103.3970125796326
 20
84.19465837559153
 30
0.0
 11
102.87861862489299
 21
84.615652061341734
 31
0.0
  0
LINE
  5
97
  8
0
 10
103.3970125796326
 20
84.19465837559153
 30
0.0
 11
102.7853002278939
 21
83.926747990420594
 31
0.0
  0
LINE
  5
98
  8
0
 10
103.2302335849778
 20
83.275630366156904
 30
0.0
 11
102.7516641149379
 21
83.741397730940889
 31
0.0
  0
LINE
  5
99
  8
0
 10
103.2302335849778
 20
83.275630366156904
 30
0.0
 11
102.5969685055519
 21
83.063631981889955
 31
0.0
  0
LINE
  5
9A
  8
0
 10
95.851051875997285
 20
95.626300205042355
 30
0.0
 11
96.034425461642655
 21
94.984161509868315
 31
0.0
  0
LINE
  5
9B
  8
0
 10
86.963214655351265
 20
94.013395548059066
 30
0.0
 11
87.57959046392935
 21
93.756395862549809
 31
0.0
  0
LINE
  5
9C
  8
0
 10
83.509950179505978
 20
89.683138859889524
 30
0.0
 11
84.170892201776525
 21
89.778656496738208
 31
0.0
  0
LINE
  5
9D
  8
0
 10
83.915214248914836
 20
90.524678371279151
 30
0.0
 11
84.252626163801125
 21
89.948378817709099
 31
0.0
  0
LINE
  5
9E
  8
0
 10
83.915214248914836
 20
90.524678371279151
 30
0.0
 11
84.582057647872745
 21
90.560565096101925
 31
0.0
  0
LINE
  5
9F
  8
0
 10
84.394281864541838
 20
91.326502500899139
 30
0.0
 11
84.678676364552999
 21
90.722277589036409
 31
0.0
  0
LINE
  5
A0
  8
0
 10
84.394281864541838
 20
91.326502500899139
 30
0.0
 11
85.061657609236264
 21
91.302469374888958
 31
0.0
  0
LINE
  5
A1
  8
0
 10
84.943295855633238
 20
92.082155432322907
 30
0.0
 11
85.172383163476326
 21
91.454870025879174
 31
0.0
  0
LINE
  5
A2
  8
0
 10
84.943295855633238
 20
92.082155432322907
 30
0.0
 11
85.605830628978396
 21
91.998395956079207
 31
0.0
  0
LINE
  5
A3
  8
0
 10
85.557835884347725
 20
92.785553092463473
 30
0.0
 11
85.729771523721084
 21
92.140257724693583
 31
0.0
  0
LINE
  5
A4
  8
0
 10
85.557835884347725
 20
92.785553092463473
 30
0.0
 11
86.210195345912737
 21
92.642741648039134
 31
0.0
  0
LINE
  5
A5
  8
0
 10
86.232954035717654
 20
93.431032136952467
 30
0.0
 11
86.346353681949694
 21
92.77292234673007
 31
0.0
  0
LINE
  5
A6
  8
0
 10
86.232954035717654
 20
93.431032136952467
 30
0.0
 11
86.869885770699298
 21
93.2303185581261
 31
0.0
  0
LINE
  5
A7
  8
0
 10
86.963214655351265
 20
94.013395548059066
 30
0.0
 11
87.017165281168516
 21
93.347770048452844
 31
0.0
  0
LINE
  5
A8
  8
0
 10
94.014846657232354
 20
95.959522323652095
 30
0.0
 11
93.617534540944305
 21
95.422762546840431
 31
0.0
  0
LINE
  5
A9
  8
0
 10
94.014846657232354
 20
95.959522323652095
 30
0.0
 11
94.309931645356556
 21
95.360445679527345
 31
0.0
  0
LINE
  5
AA
  8
0
 10
92.148650904973024
 20
95.959522323652095
 30
0.0
 11
91.853565916848837
 21
95.360445679527345
 31
0.0
  0
LINE
  5
AB
  8
0
 10
92.148650904973024
 20
95.959522323652095
 30
0.0
 11
92.545963021260974
 21
95.422762546840431
 31
0.0
  0
LINE
  5
AC
  8
0
 10
93.081748781102675
 20
96.001427797589045
 30
0.0
 11
93.429346660177728
 21
95.431214074310773
 31
0.0
  0
LINE
  5
AD
  8
0
 10
93.081748781102675
 20
96.001427797589045
 30
0.0
 11
92.734150902027665
 21
95.431214074310773
 31
0.0
  0
LINE
  5
AE
  8
0
 10
91.223065784289375
 20
95.834143300077926
 30
0.0
 11
91.666893214245448
 21
95.335159143845885
 31
0.0
  0
LINE
  5
AF
  8
0
 10
87.742738114125615
 20
94.527954478021343
 30
0.0
 11
87.736805340811273
 21
93.860172494172545
 31
0.0
  0
LINE
  5
B0
  8
0
 10
87.742738114125615
 20
94.527954478021343
 30
0.0
 11
88.333595300712574
 21
94.216737896183417
 31
0.0
  0
LINE
  5
B1
  8
0
 10
88.56524814750324
 20
94.970566000890855
 30
0.0
 11
88.499479742259638
 21
94.306004120684179
 31
0.0
  0
LINE
  5
B2
  8
0
 10
88.56524814750324
 20
94.970566000890855
 30
0.0
 11
89.125829477450694
 21
94.607638255649007
 31
0.0
  0
LINE
  5
B3
  8
0
 10
89.424122388322957
 20
95.337666468936845
 30
0.0
 11
89.299047879678056
 21
94.681675353875548
 31
0.0
  0
LINE
  5
B4
  8
0
 10
89.424122388322957
 20
95.337666468936845
 30
0.0
 11
89.949914390379064
 21
94.925949641097745
 31
0.0
  0
LINE
  5
B5
  8
0
 10
90.312445686208108
 20
95.626300205042355
 30
0.0
 11
90.129072100562738
 21
94.984161509868315
 31
0.0
  0
LINE
  5
B6
  8
0
 10
90.312445686208108
 20
95.626300205042355
 30
0.0
 11
90.799214992332878
 21
95.169109196417935
 31
0.0
  0
LINE
  5
B7
  8
0
 10
91.223065784289375
 20
95.834143300077926
 30
0.0
 11
90.982869537933396
 21
95.211027147993306
 31
0.0
  0
LINE
  5
B8
  8
0
 10
94.940431777916004
 20
95.834143300077926
 30
0.0
 11
94.496604347959774
 21
95.335159143845885
 31
0.0
  0
LINE
  5
B9
  8
0
 10
94.940431777916004
 20
95.834143300077926
 30
0.0
 11
95.180628024271996
 21
95.211027147993306
 31
0.0
  0
LINE
  5
BA
  8
0
 10
95.851051875997285
 20
95.626300205042355
 30
0.0
 11
95.364282569872586
 21
95.169109196417935
 31
0.0
  0
LINE
  5
BB
  8
0
 10
93.081748781102675
 20
31.478134663753298
 30
0.0
 11
86.831748781102675
 21
31.478134663753298
 31
0.0
  0
LINE
  5
BC
  8
0
 10
100.6056616778577
 20
92.785553092463473
 30
0.0
 11
99.953302216292656
 21
92.642741648039134
 31
0.0
  0
LINE
  5
BD
  8
0
 10
100.6056616778577
 20
92.785553092463473
 30
0.0
 11
100.43372603848429
 21
92.140257724693583
 31
0.0
  0
LINE
  5
BE
  8
0
 10
96.739375173882337
 20
95.337666468936845
 30
0.0
 11
96.213583171826187
 21
94.925949641097745
 31
0.0
  0
LINE
  5
BF
  8
0
 10
96.739375173882337
 20
95.337666468936845
 30
0.0
 11
96.86444968252718
 21
94.681675353875548
 31
0.0
  0
LINE
  5
C0
  8
0
 10
97.598249414702224
 20
94.970566000890855
 30
0.0
 11
97.037668084754529
 21
94.607638255649007
 31
0.0
  0
LINE
  5
C1
  8
0
 10
97.598249414702224
 20
94.970566000890855
 30
0.0
 11
97.664017819945656
 21
94.306004120684179
 31
0.0
  0
LINE
  5
C2
  8
0
 10
98.420759448079622
 20
94.527954478021343
 30
0.0
 11
97.82990226149289
 21
94.216737896183417
 31
0.0
  0
LINE
  5
C3
  8
0
 10
98.420759448079622
 20
94.527954478021343
 30
0.0
 11
98.426692221394006
 21
93.860172494172545
 31
0.0
  0
LINE
  5
C4
  8
0
 10
99.200282906854156
 20
94.013395548059066
 30
0.0
 11
98.583907098276114
 21
93.756395862549809
 31
0.0
  0
LINE
  5
C5
  8
0
 10
99.200282906854156
 20
94.013395548059066
 30
0.0
 11
99.146332281036891
 21
93.347770048452844
 31
0.0
  0
LINE
  5
C6
  8
0
 10
99.930543526487753
 20
93.431032136952467
 30
0.0
 11
99.293611791506095
 21
93.2303185581261
 31
0.0
  0
LINE
  5
C7
  8
0
 10
99.930543526487753
 20
93.431032136952467
 30
0.0
 11
99.817143880255713
 21
92.77292234673007
 31
0.0
  0
LINE
  5
C8
  8
0
 10
101.2202017065721
 20
92.082155432322907
 30
0.0
 11
100.557666933227
 21
91.998395956079207
 31
0.0
  0
LINE
  5
C9
  8
0
 10
101.2202017065721
 20
92.082155432322907
 30
0.0
 11
100.991114398729
 21
91.454870025879174
 31
0.0
  0
LINE
  5
CA
  8
0
 10
101.7692156976635
 20
91.326502500899139
 30
0.0
 11
101.1018399529691
 21
91.302469374888958
 31
0.0
  0
LINE
  5
CB
  8
0
 10
101.7692156976635
 20
91.326502500899139
 30
0.0
 11
101.48482119765239
 21
90.722277589036409
 31
0.0
  0
LINE
  5
CC
  8
0
 10
102.2482833132905
 20
90.524678371279151
 30
0.0
 11
101.58143991433271
 21
90.560565096101925
 31
0.0
  0
LINE
  5
CD
  8
0
 10
102.2482833132905
 20
90.524678371279151
 30
0.0
 11
101.9108713984041
 21
89.948378817709099
 31
0.0
  0
LINE
  5
CE
  8
0
 10
102.6535473826994
 20
89.683138859889524
 30
0.0
 11
101.9926053604289
 21
89.778656496738208
 31
0.0
  0
LINE
  5
CF
  8
0
 10
93.081748781102675
 20
49.478134663753409
 30
0.0
 11
99.081748781102675
 21
49.478134663753409
 31
0.0
  0
ARC
  5
D0
  8
2
 10
93.081748781102675
 20
69.181259663753465
 30
0.0
 40
21.303125000000051
 50
270.0
 51
292.34767648362941
  0
LINE
  5
D1
  8
0
 10
93.081748781102675
 20
49.478134663753409
 30
0.0
 11
87.081748781102604
 21
49.478134663753409
 31
0.0
  0
LINE
  5
D2
  8
0
 10
93.081748781102675
 20
46.978134663753409
 30
0.0
 11
82.581748781102718
 21
46.978134663753409
 31
0.0
  0
ARC
  5
D3
  8
0
 10
84.581748781102604
 20
45.012788639711303
 30
0.0
 40
2.0
 50
180.0
 51
255.0000000000002
  0
LINE
  5
D4
  8
0
 10
84.064110690897593
 20
43.080936987133107
 30
0.0
 11
86.149136573419611
 21
42.522255985713471
 31
0.0
  0
LINE
  5
D5
  8
0
 10
83.081748781102675
 20
49.478134663753409
 30
0.0
 11
82.581748781102718
 21
48.978134663753288
 31
0.0
  0
LINE
  5
D6
  8
0
 10
82.581748781102718
 20
48.978134663753288
 30
0.0
 11
82.581748781102718
 21
45.012788639711303
 31
0.0
  0
LINE
  5
D7
  8
0
 10
83.281748781102664
 20
49.478134663753409
 30
0.0
 11
83.281748781102664
 21
46.978134663753409
 31
0.0
  0
LINE
  5
D8
  8
0
 10
84.011748781102725
 20
49.478134663753409
 30
0.0
 11
84.011748781102725
 21
46.978134663753409
 31
0.0
  0
LINE
  5
D9
  8
0
 10
84.781748781102706
 20
49.478134663753409
 30
0.0
 11
84.781748781102706
 21
46.978134663753409
 31
0.0
  0
LINE
  5
DA
  8
0
 10
85.581748781102675
 20
49.478134663753409
 30
0.0
 11
85.581748781102675
 21
46.978134663753409
 31
0.0
  0
LINE
  5
DB
  8
0
 10
86.411748781102716
 20
49.478134663753409
 30
0.0
 11
86.411748781102716
 21
46.978134663753409
 31
0.0
  0
LINE
  5
DC
  8
0
 10
83.081748781102675
 20
49.478134663753409
 30
0.0
 11
87.081748781102604
 21
49.478134663753409
 31
0.0
  0
LINE
  5
DE
  8
0
 10
87.291748781102598
 20
49.478134663753409
 30
0.0
 11
87.291748781102598
 21
46.978134663753409
 31
0.0
  0
LINE
  5
DF
  8
0
 10
88.211748781102614
 20
49.478134663753409
 30
0.0
 11
88.211748781102614
 21
46.978134663753409
 31
0.0
  0
LINE
  5
E0
  8
0
 10
89.161748781102588
 20
49.478134663753409
 30
0.0
 11
89.161748781102588
 21
46.978134663753409
 31
0.0
  0
LINE
  5
E1
  8
0
 10
90.151748781102611
 20
49.478134663753409
 30
0.0
 11
90.151748781102611
 21
46.978134663753409
 31
0.0
  0
LINE
  5
E2
  8
0
 10
91.161748781102602
 20
49.478134663753409
 30
0.0
 11
91.161748781102602
 21
46.978134663753409
 31
0.0
  0
LINE
  5
E3
  8
0
 10
92.221748781102704
 20
49.478134663753409
 30
0.0
 11
92.221748781102704
 21
46.978134663753409
 31
0.0
  0
LINE
  5
E4
  8
0
 10
103.0817487811027
 20
49.478134663753409
 30
0.0
 11
99.081748781102675
 21
49.478134663753409
 31
0.0
  0
LINE
  5
E5
  8
0
 10
103.5817487811026
 20
48.978134663753288
 30
0.0
 11
103.5817487811026
 21
45.012788639711303
 31
0.0
  0
LINE
  5
E6
  8
0
 10
103.0817487811027
 20
49.478134663753409
 30
0.0
 11
103.5817487811026
 21
48.978134663753288
 31
0.0
  0
ARC
  5
E7
  8
0
 10
85.942081337337669
 20
41.749515324682029
 30
0.0
 40
0.8000000000000002
 50
0.4999999999998545
 51
75.000000000000938
  0
ARC
  5
E8
  8
0
 10
101.5817487811027
 20
45.012788639711303
 30
0.0
 40
2.0
 50
284.99999999999977
 51
0.0
  0
LINE
  5
E9
  8
0
 10
99.331748781102675
 20
31.478134663753298
 30
0.0
 11
99.421446686416374
 21
41.756496553080822
 31
0.0
  0
ARC
  5
EA
  8
0
 10
100.2214162248678
 20
41.749515324682029
 30
0.0
 40
0.8000000000000002
 50
104.99999999999901
 51
179.50000000000011
  0
LINE
  5
EB
  8
0
 10
102.0993868713076
 20
43.080936987133107
 30
0.0
 11
100.0143609887857
 21
42.522255985713471
 31
0.0
  0
LINE
  5
EC
  8
0
 10
93.081748781102675
 20
31.478134663753298
 30
0.0
 11
99.331748781102675
 21
31.478134663753298
 31
0.0
  0
LINE
  5
ED
  8
2
 10
96.581748781102675
 20
31.478134663753298
 30
0.0
 11
96.581748781102675
 21
44.978134663753231
 31
0.0
  0
LINE
  5
EE
  8
2
 10
95.581748781102675
 20
45.978134663753288
 30
0.0
 11
93.081748781102675
 21
45.978134663753288
 31
0.0
  0
LINE
  5
EF
  8
2
 10
95.581748781102675
 20
45.978134663753288
 30
0.0
 11
96.581748781102675
 21
44.978134663753231
 31
0.0
  0
LINE
  5
F0
  8
2
 10
95.078441292504195
 20
31.278134663753288
 30
0.0
 11
95.078441292504195
 21
41.478134663753288
 31
0.0
  0
LINE
  5
F1
  8
2
 10
95.078441292504195
 20
41.478134663753288
 30
0.0
 11
93.081748781102675
 21
41.478134663753288
 31
0.0
  0
LINE
  5
F2
  8
2
 10
94.438751429322195
 20
31.278134663753288
 30
0.0
 11
94.438751429322195
 21
41.478134663753288
 31
0.0
  0
LINE
  5
F3
  8
2
 10
94.438751429322195
 20
41.478134663753288
 30
0.0
 11
94.438751429322195
 21
43.962354595600068
 31
0.0
  0
LINE
  5
F4
  8
2
 10
94.438751429322195
 20
43.962354595600068
 30
0.0
 11
93.081748781102675
 21
43.962354595600068
 31
0.0
  0
LINE
  5
F5
  8
2
 10
94.438751429322195
 20
43.962354595600068
 30
0.0
 11
93.081748781102675
 21
44.745820439840607
 31
0.0
  0
LINE
  5
F6
  8
3
 10
86.574632996332667
 20
42.239289148709709
 30
0.0
 11
93.081748781102675
 21
42.239289148709709
 31
0.0
  0
CIRCLE
  5
F7
  8
0
 10
93.081748781102675
 20
85.591955797588966
 30
0.0
 40
0.7500000000000001
  0
CIRCLE
  5
F8
  8
0
 10
95.581748781102675
 20
85.591955797588966
 30
0.0
 40
0.7500000000000001
  0
CIRCLE
  5
F9
  8
0
 10
98.081748781102675
 20
85.591955797588966
 30
0.0
 40
0.7500000000000001
  0
CIRCLE
  5
FA
  8
0
 10
90.581748781102675
 20
85.591955797588966
 30
0.0
 40
0.7500000000000001
  0
CIRCLE
  5
FB
  8
0
 10
88.081748781102675
 20
85.591955797588966
 30
0.0
 40
0.7500000000000001
  0
LINE
  5
FC
  8
0
 10
93.081748781102675
 20
46.978134663753409
 30
0.0
 11
103.5817487811026
 21
46.978134663753409
 31
0.0
  0
LINE
  5
FD
  8
0
 10
102.1517487811026
 20
49.478134663753409
 30
0.0
 11
102.1517487811026
 21
46.978134663753409
 31
0.0
  0
LINE
  5
FE
  8
0
 10
101.3817487811027
 20
49.478134663753409
 30
0.0
 11
101.3817487811027
 21
46.978134663753409
 31
0.0
  0
LINE
  5
FF
  8
0
 10
100.5817487811027
 20
49.478134663753409
 30
0.0
 11
100.5817487811027
 21
46.978134663753409
 31
0.0
  0
LINE
  5
100
  8
0
 10
99.751748781102748
 20
49.478134663753409
 30
0.0
 11
99.751748781102748
 21
46.978134663753409
 31
0.0
  0
LINE
  5
101
  8
0
 10
102.8817487811027
 20
49.478134663753409
 30
0.0
 11
102.8817487811027
 21
46.978134663753409
 31
0.0
  0
LINE
  5
102
  8
0
 10
97.001748781102634
 20
49.478134663753409
 30
0.0
 11
97.001748781102634
 21
46.978134663753409
 31
0.0
  0
LINE
  5
103
  8
0
 10
96.011748781102625
 20
49.478134663753409
 30
0.0
 11
96.011748781102625
 21
46.978134663753409
 31
0.0
  0
LINE
  5
104
  8
0
 10
95.001748781102634
 20
49.478134663753409
 30
0.0
 11
95.001748781102634
 21
46.978134663753409
 31
0.0
  0
LINE
  5
105
  8
0
 10
98.871748781102653
 20
49.478134663753409
 30
0.0
 11
98.871748781102653
 21
46.978134663753409
 31
0.0
  0
LINE
  5
106
  8
0
 10
97.95174878110268
 20
49.478134663753409
 30
0.0
 11
97.95174878110268
 21
46.978134663753409
 31
0.0
  0
LINE
  5
107
  8
0
 10
93.941748781102675
 20
49.478134663753409
 30
0.0
 11
93.941748781102675
 21
46.978134663753409
 31
0.0
  0
ARC
  5
108
  8
2
 10
93.081748781102675
 20
69.181259663753465
 30
0.0
 40
21.303125000000051
 50
247.65232351637059
 51
270.0
  0
LINE
  5
109
  8
3
 10
99.588864565872683
 20
42.239289148709709
 30
0.0
 11
93.081748781102675
 21
42.239289148709709
 31
0.0
  0
LINE
  5
10A
  8
2
 10
89.581748781102789
 20
31.478134663753298
 30
0.0
 11
89.581748781102789
 21
44.978134663753231
 31
0.0
  0
LINE
  5
10B
  8
2
 10
90.581748781102675
 20
45.978134663753288
 30
0.0
 11
89.581748781102789
 21
44.978134663753231
 31
0.0
  0
LINE
  5
10C
  8
2
 10
91.724746132883197
 20
43.962354595600068
 30
0.0
 11
93.081748781102675
 21
44.745820439840607
 31
0.0
  0
LINE
  5
10D
  8
2
 10
91.724746132883197
 20
43.962354595600068
 30
0.0
 11
93.081748781102675
 21
43.962354595600068
 31
0.0
  0
LINE
  5
10E
  8
2
 10
91.724746132883197
 20
41.478134663753288
 30
0.0
 11
91.724746132883197
 21
43.962354595600068
 31
0.0
  0
LINE
  5
10F
  8
2
 10
90.581748781102675
 20
45.978134663753288
 30
0.0
 11
93.081748781102675
 21
45.978134663753288
 31
0.0
  0
LINE
  5
110
  8
2
 10
91.085056269701184
 20
31.278134663753288
 30
0.0
 11
91.085056269701184
 21
41.478134663753288
 31
0.0
  0
LINE
  5
111
  8
2
 10
91.724746132883197
 20
31.278134663753288
 30
0.0
 11
91.724746132883197
 21
41.478134663753288
 31
0.0
  0
LINE
  5
112
  8
2
 10
91.085056269701184
 20
41.478134663753288
 30
0.0
 11
93.081748781102675
 21
41.478134663753288
 31
0.0
  0
TEXT
  5
294
  8
0
 62
     3
 10
0.0
 20
0.0
 30
0.0
 40
10.0
  1
EKK21
  7
STANDARD1
  0
ENDSEC
  0
EOF
