  0
SECTION
  2
HEADER
  9
$ACADVER
  1
AC1009
  9
$INSBASE
 10
0.0
 20
0.0
 30
0.0
  9
$EXTMIN
 10
0.0
 20
-2.960436562073669
 30
0.0
  9
$EXTMAX
 10
203.6085976641036
 20
235.4621211372914
 30
0.0
  9
$LIMMIN
 10
0.0
 20
0.0
  9
$LIMMAX
 10
375.0
 20
270.0
  9
$ORTHOMODE
 70
     0
  9
$REGENMODE
 70
     1
  9
$FILLMODE
 70
     1
  9
$QTEXTMODE
 70
     0
  9
$MIRRTEXT
 70
     0
  9
$DRAGMODE
 70
     2
  9
$LTSCALE
 40
5.0
  9
$OSMODE
 70
  3071
  9
$ATTMODE
 70
     1
  9
$TEXTSIZE
 40
2.0
  9
$TRACEWID
 40
0.05
  9
$TEXTSTYLE
  7
STANDARD
  9
$CLAYER
  8
0
  9
$CELTYPE
  6
BYLAYER
  9
$CECOLOR
 62
   256
  9
$DIMSCALE
 40
1.0
  9
$DIMASZ
 40
2.5
  9
$DIMEXO
 40
2.0
  9
$DIMDLI
 40
0.38
  9
$DIMRND
 40
0.0
  9
$DIMDLE
 40
0.0
  9
$DIMEXE
 40
2.0
  9
$DIMTP
 40
0.0
  9
$DIMTM
 40
0.0
  9
$DIMTXT
 40
3.0
  9
$DIMCEN
 40
0.09
  9
$DIMTSZ
 40
0.0
  9
$DIMTOL
 70
     0
  9
$DIMLIM
 70
     0
  9
$DIMTIH
 70
     0
  9
$DIMTOH
 70
     0
  9
$DIMSE1
 70
     0
  9
$DIMSE2
 70
     0
  9
$DIMTAD
 70
     1
  9
$DIMZIN
 70
     0
  9
$DIMBLK
  1

  9
$DIMASO
 70
     1
  9
$DIMSHO
 70
     0
  9
$DIMPOST
  1

  9
$DIMAPOST
  1

  9
$DIMALT
 70
     0
  9
$DIMALTD
 70
     2
  9
$DIMALTF
 40
25.399999999999999
  9
$DIMLFAC
 40
1.0
  9
$DIMTOFL
 70
     0
  9
$DIMTVP
 40
1.6000000000000001
  9
$DIMTIX
 70
     1
  9
$DIMSOXD
 70
     0
  9
$DIMSAH
 70
     0
  9
$DIMBLK1
  1

  9
$DIMBLK2
  1

  9
$DIMSTYLE
  2
STANDARD
  9
$DIMCLRD
 70
     0
  9
$DIMCLRE
 70
     0
  9
$DIMCLRT
 70
     0
  9
$DIMTFAC
 40
1.0
  9
$DIMGAP
 40
0.09
  9
$LUNITS
 70
     2
  9
$LUPREC
 70
     4
  9
$SKETCHINC
 40
0.1
  9
$FILLETRAD
 40
2.5
  9
$AUNITS
 70
     0
  9
$AUPREC
 70
     0
  9
$MENU
  1
E:\r13\win\SUPPORT\ACAD
  9
$ELEVATION
 40
0.0
  9
$PELEVATION
 40
0.0
  9
$THICKNESS
 40
0.0
  9
$LIMCHECK
 70
     0
  9
$BLIPMODE
 70
     0
  9
$CHAMFERA
 40
0.0
  9
$CHAMFERB
 40
0.0
  9
$SKPOLY
 70
     0
  9
$TDCREATE
 40
2448650.5678784722
  9
$TDUPDATE
 40
2456598.6869298732
  9
$TDINDWG
 40
0.0213029977
  9
$TDUSRTIMER
 40
0.0213029977
  9
$USRTIMER
 70
     1
  9
$ANGBASE
 50
0.0
  9
$ANGDIR
 70
     0
  9
$PDMODE
 70
     0
  9
$PDSIZE
 40
0.0
  9
$PLINEWID
 40
0.0
  9
$COORDS
 70
     1
  9
$SPLFRAME
 70
     0
  9
$SPLINETYPE
 70
     6
  9
$SPLINESEGS
 70
     8
  9
$ATTDIA
 70
     0
  9
$ATTREQ
 70
     1
  9
$HANDLING
 70
     1
  9
$HANDSEED
  5
1C74
  9
$SURFTAB1
 70
     6
  9
$SURFTAB2
 70
     6
  9
$SURFTYPE
 70
     6
  9
$SURFU
 70
     6
  9
$SURFV
 70
     6
  9
$UCSNAME
  2

  9
$UCSORG
 10
0.0
 20
0.0
 30
0.0
  9
$UCSXDIR
 10
1.0
 20
0.0
 30
0.0
  9
$UCSYDIR
 10
0.0
 20
1.0
 30
0.0
  9
$PUCSNAME
  2

  9
$PUCSORG
 10
0.0
 20
0.0
 30
0.0
  9
$PUCSXDIR
 10
1.0
 20
0.0
 30
0.0
  9
$PUCSYDIR
 10
0.0
 20
1.0
 30
0.0
  9
$USERI1
 70
     0
  9
$USERI2
 70
     1
  9
$USERI3
 70
     1
  9
$USERI4
 70
     0
  9
$USERI5
 70
     0
  9
$USERR1
 40
0.0
  9
$USERR2
 40
0.0
  9
$USERR3
 40
0.0
  9
$USERR4
 40
0.0
  9
$USERR5
 40
0.0
  9
$WORLDVIEW
 70
     1
  9
$SHADEDGE
 70
     3
  9
$SHADEDIF
 70
    70
  9
$TILEMODE
 70
     1
  9
$MAXACTVP
 70
    16
  9
$PLIMCHECK
 70
     0
  9
$PEXTMIN
 10
1.0000000000000000E+020
 20
1.0000000000000000E+020
 30
1.0000000000000000E+020
  9
$PEXTMAX
 10
-1.0000000000000000E+020
 20
-1.0000000000000000E+020
 30
-1.0000000000000000E+020
  9
$PLIMMIN
 10
0.0
 20
0.0
  9
$PLIMMAX
 10
12.0
 20
9.0
  9
$UNITMODE
 70
     0
  9
$VISRETAIN
 70
     0
  9
$PLINEGEN
 70
     1
  9
$PSLTSCALE
 70
     0
  0
ENDSEC
  0
SECTION
  2
TABLES
  0
TABLE
  2
VPORT
 70
     1
  0
VPORT
  2
*ACTIVE
 70
     0
 10
0.0
 20
0.0
 11
1.0
 21
1.0
 12
187.49427839065231
 22
169.9063198933564
 13
0.0
 23
0.0
 14
10.0
 24
10.0
 15
10.0
 25
10.0
 16
0.0
 26
0.0
 36
1.0
 17
0.0
 27
0.0
 37
0.0
 40
348.89937369551939
 41
1.831871345029239
 42
50.0
 43
0.0
 44
0.0
 50
0.0
 51
0.0
 71
     0
 72
   500
 73
     1
 74
     0
 75
     0
 76
     0
 77
     0
 78
     2
  0
ENDTAB
  0
TABLE
  2
LTYPE
 70
     3
  0
LTYPE
  2
CONTINUOUS
 70
     0
  3
Solid Line
 72
    65
 73
     0
 40
0.0
  0
LTYPE
  2
CENTER
 70
     0
  3
____ _ ____ _ ____ _ ____ _ ____ _ ____ _ ____
 72
    65
 73
     4
 40
2.0
 49
1.25
 49
-0.25
 49
0.25
 49
-0.25
  0
LTYPE
  2
PHANTOM2
 70
     0
  3
___ _ _ ___ _ _ ___ _ _ ___ _ _
 72
    65
 73
     6
 40
1.25
 49
0.625
 49
-0.125
 49
0.125
 49
-0.125
 49
0.125
 49
-0.125
  0
ENDTAB
  0
TABLE
  2
LAYER
 70
     3
  0
LAYER
  2
0
 70
     0
 62
     7
  6
CONTINUOUS
  0
LAYER
  2
1
 70
     0
 62
     1
  6
CENTER
  0
LAYER
  2
3
 70
     0
 62
     3
  6
CONTINUOUS
  0
ENDTAB
  0
TABLE
  2
STYLE
 70
     2
  0
STYLE
  2
STANDARD
 70
     0
 40
0.0
 41
1.0
 50
0.0
 71
     0
 42
2.0
  3
TXT
  4
BIGFONT
  0
STYLE
  2
STANDARD1
 70
     0
 40
0.0
 41
1.0
 50
0.0
 71
     0
 42
3.0
  3
txt
  4

  0
ENDTAB
  0
TABLE
  2
VIEW
 70
     1
  0
VIEW
  2
ALL
 70
     0
 40
270.0
 10
220.99159663865549
 20
135.0
 41
0.0
 11
0.0
 21
0.0
 31
1.0
 12
0.0
 22
0.0
 32
0.0
 42
0.0
 43
0.0
 44
0.0
 50
0.0
 71
     0
  0
ENDTAB
  0
TABLE
  2
UCS
 70
     0
  0
ENDTAB
  0
TABLE
  2
APPID
 70
     3
  0
APPID
  2
ACAD
 70
     0
  0
APPID
  2
ACAD_MLEADERVER
 70
     0
  0
APPID
  2
ACAD_NAV_VCDISPLAY
 70
     0
  0
ENDTAB
  0
TABLE
  2
DIMSTYLE
 70
     1
  0
DIMSTYLE
  2
STANDARD
 70
     0
  3

  4

  5

  6

  7

 40
1.0
 41
0.18
 42
0.0625
 43
0.38
 44
0.18
 45
0.0
 46
0.0
 47
0.0
 48
0.0
140
0.18
141
0.09
142
0.0
143
25.399999999999999
144
1.0
145
0.0
146
1.0
147
0.09
 71
     0
 72
     0
 73
     1
 74
     1
 75
     0
 76
     0
 77
     0
 78
     0
170
     0
171
     2
172
     0
173
     0
174
     0
175
     0
176
     0
177
     0
178
     0
  0
ENDTAB
  0
ENDSEC
  0
SECTION
  2
BLOCKS
  0
BLOCK
  8
0
  2
$MODEL_SPACE
 70
     0
 10
0.0
 20
0.0
 30
0.0
  3
$MODEL_SPACE
  1

  0
ENDBLK
  5
217
  8
0
  0
BLOCK
 67
     1
  8
0
  2
$PAPER_SPACE
 70
     0
 10
0.0
 20
0.0
 30
0.0
  3
$PAPER_SPACE
  1

  0
ENDBLK
  5
215
 67
     1
  8
0
  0
BLOCK
  8
0
  2
*X0
 70
     1
 10
0.0
 20
0.0
 30
0.0
  3
*X0
  1

  0
LINE
  5
1916
  8
0
 62
     0
 10
147.5295182742
 20
221.35605846072019
 30
0.0
 11
147.5295182742
 21
221.35605846072019
 31
0.0
  0
LINE
  5
1917
  8
0
 62
     0
 10
147.4045182742
 20
221.35605846072019
 30
0.0
 11
147.4045182742
 21
221.35605846072019
 31
0.0
  0
LINE
  5
1918
  8
0
 62
     0
 10
147.2795182742
 20
221.35605846072019
 30
0.0
 11
147.2795182742
 21
221.35605846072019
 31
0.0
  0
LINE
  5
1919
  8
0
 62
     0
 10
147.1545182742
 20
221.35605846072019
 30
0.0
 11
147.1545182742
 21
221.35605846072019
 31
0.0
  0
LINE
  5
191A
  8
0
 62
     0
 10
147.02951827419989
 20
221.35605846072019
 30
0.0
 11
147.02951827419989
 21
221.35605846072019
 31
0.0
  0
LINE
  5
191B
  8
0
 62
     0
 10
146.90451827419989
 20
221.35605846072019
 30
0.0
 11
146.90451827419989
 21
221.35605846072019
 31
0.0
  0
LINE
  5
191C
  8
0
 62
     0
 10
146.77951827419989
 20
221.35605846072019
 30
0.0
 11
146.77951827419989
 21
221.35605846072019
 31
0.0
  0
LINE
  5
191D
  8
0
 62
     0
 10
149.65451827419989
 20
221.35605846072019
 30
0.0
 11
149.65451827419989
 21
221.35605846072019
 31
0.0
  0
LINE
  5
191E
  8
0
 62
     0
 10
149.52951827419989
 20
221.35605846072019
 30
0.0
 11
149.52951827419989
 21
221.35605846072019
 31
0.0
  0
LINE
  5
191F
  8
0
 62
     0
 10
149.4045182742
 20
221.35605846072019
 30
0.0
 11
149.4045182742
 21
221.35605846072019
 31
0.0
  0
LINE
  5
1920
  8
0
 62
     0
 10
149.2795182742
 20
221.35605846072019
 30
0.0
 11
149.2795182742
 21
221.35605846072019
 31
0.0
  0
LINE
  5
1921
  8
0
 62
     0
 10
143.90451827419989
 20
221.35605846072019
 30
0.0
 11
143.90451827419989
 21
221.35605846072019
 31
0.0
  0
LINE
  5
1922
  8
0
 62
     0
 10
143.77951827419989
 20
221.35605846072019
 30
0.0
 11
143.77951827419989
 21
221.35605846072019
 31
0.0
  0
LINE
  5
1923
  8
0
 62
     0
 10
143.65451827419989
 20
221.35605846072019
 30
0.0
 11
143.65451827419989
 21
221.35605846072019
 31
0.0
  0
LINE
  5
1924
  8
0
 62
     0
 10
143.5295182742
 20
221.35605846072019
 30
0.0
 11
143.5295182742
 21
221.35605846072019
 31
0.0
  0
LINE
  5
1925
  8
0
 62
     0
 10
143.40451827419989
 20
221.35605846072019
 30
0.0
 11
143.40451827419989
 21
221.35605846072019
 31
0.0
  0
LINE
  5
1926
  8
0
 62
     0
 10
143.27951827419989
 20
221.35605846072019
 30
0.0
 11
143.27951827419989
 21
221.35605846072019
 31
0.0
  0
LINE
  5
1927
  8
0
 62
     0
 10
151.90451827419989
 20
221.35605846072019
 30
0.0
 11
151.90451827419989
 21
221.35605846072019
 31
0.0
  0
LINE
  5
1928
  8
0
 62
     0
 10
151.77951827419989
 20
221.35605846072019
 30
0.0
 11
151.77951827419989
 21
221.35605846072019
 31
0.0
  0
LINE
  5
1929
  8
0
 62
     0
 10
151.6545182742
 20
221.35605846072019
 30
0.0
 11
151.6545182742
 21
221.35605846072019
 31
0.0
  0
LINE
  5
192A
  8
0
 62
     0
 10
151.5295182742
 20
221.35605846072019
 30
0.0
 11
151.5295182742
 21
221.35605846072019
 31
0.0
  0
LINE
  5
192B
  8
0
 62
     0
 10
139.27951827419989
 20
221.35605846072019
 30
0.0
 11
139.27951827419989
 21
221.35605846072019
 31
0.0
  0
LINE
  5
192C
  8
0
 62
     0
 10
139.1545182742
 20
221.35605846072019
 30
0.0
 11
139.1545182742
 21
221.35605846072019
 31
0.0
  0
LINE
  5
192D
  8
0
 62
     0
 10
139.0295182742
 20
221.35605846072019
 30
0.0
 11
139.0295182742
 21
221.35605846072019
 31
0.0
  0
LINE
  5
192E
  8
0
 62
     0
 10
138.9045182742
 20
221.35605846072019
 30
0.0
 11
138.9045182742
 21
221.35605846072019
 31
0.0
  0
LINE
  5
192F
  8
0
 62
     0
 10
147.96701827419989
 20
221.48105846072019
 30
0.0
 11
147.96701827419989
 21
221.48105846072019
 31
0.0
  0
LINE
  5
1930
  8
0
 62
     0
 10
147.8420182742
 20
221.48105846072019
 30
0.0
 11
147.8420182742
 21
221.48105846072019
 31
0.0
  0
LINE
  5
1931
  8
0
 62
     0
 10
147.7170182742
 20
221.48105846072019
 30
0.0
 11
147.7170182742
 21
221.48105846072019
 31
0.0
  0
LINE
  5
1932
  8
0
 62
     0
 10
147.59201827419989
 20
221.48105846072019
 30
0.0
 11
147.59201827419989
 21
221.48105846072019
 31
0.0
  0
LINE
  5
1933
  8
0
 62
     0
 10
147.46701827419989
 20
221.48105846072019
 30
0.0
 11
147.46701827419989
 21
221.48105846072019
 31
0.0
  0
LINE
  5
1934
  8
0
 62
     0
 10
147.34201827419989
 20
221.48105846072019
 30
0.0
 11
147.34201827419989
 21
221.48105846072019
 31
0.0
  0
LINE
  5
1935
  8
0
 62
     0
 10
147.21701827419989
 20
221.48105846072019
 30
0.0
 11
147.21701827419989
 21
221.48105846072019
 31
0.0
  0
LINE
  5
1936
  8
0
 62
     0
 10
147.09201827419989
 20
221.48105846072019
 30
0.0
 11
147.09201827419989
 21
221.48105846072019
 31
0.0
  0
LINE
  5
1937
  8
0
 62
     0
 10
146.9670182742
 20
221.48105846072019
 30
0.0
 11
146.9670182742
 21
221.48105846072019
 31
0.0
  0
LINE
  5
1938
  8
0
 62
     0
 10
146.8420182742
 20
221.48105846072019
 30
0.0
 11
146.8420182742
 21
221.48105846072019
 31
0.0
  0
LINE
  5
1939
  8
0
 62
     0
 10
146.7170182742
 20
221.48105846072019
 30
0.0
 11
146.7170182742
 21
221.48105846072019
 31
0.0
  0
LINE
  5
193A
  8
0
 62
     0
 10
146.59201827419989
 20
221.48105846072019
 30
0.0
 11
146.59201827419989
 21
221.48105846072019
 31
0.0
  0
LINE
  5
193B
  8
0
 62
     0
 10
146.46701827419989
 20
221.48105846072019
 30
0.0
 11
146.46701827419989
 21
221.48105846072019
 31
0.0
  0
LINE
  5
193C
  8
0
 62
     0
 10
146.34201827419989
 20
221.48105846072019
 30
0.0
 11
146.34201827419989
 21
221.48105846072019
 31
0.0
  0
LINE
  5
193D
  8
0
 62
     0
 10
149.59201827419989
 20
221.48105846072019
 30
0.0
 11
149.59201827419989
 21
221.48105846072019
 31
0.0
  0
LINE
  5
193E
  8
0
 62
     0
 10
149.46701827419989
 20
221.48105846072019
 30
0.0
 11
149.46701827419989
 21
221.48105846072019
 31
0.0
  0
LINE
  5
193F
  8
0
 62
     0
 10
149.34201827419989
 20
221.48105846072019
 30
0.0
 11
149.34201827419989
 21
221.48105846072019
 31
0.0
  0
LINE
  5
1940
  8
0
 62
     0
 10
149.21701827419989
 20
221.48105846072019
 30
0.0
 11
149.21701827419989
 21
221.48105846072019
 31
0.0
  0
LINE
  5
1941
  8
0
 62
     0
 10
144.21701827419989
 20
221.48105846072019
 30
0.0
 11
144.21701827419989
 21
221.48105846072019
 31
0.0
  0
LINE
  5
1942
  8
0
 62
     0
 10
144.09201827419989
 20
221.48105846072019
 30
0.0
 11
144.09201827419989
 21
221.48105846072019
 31
0.0
  0
LINE
  5
1943
  8
0
 62
     0
 10
143.96701827419989
 20
221.48105846072019
 30
0.0
 11
143.96701827419989
 21
221.48105846072019
 31
0.0
  0
LINE
  5
1944
  8
0
 62
     0
 10
143.8420182742
 20
221.48105846072019
 30
0.0
 11
143.8420182742
 21
221.48105846072019
 31
0.0
  0
LINE
  5
1945
  8
0
 62
     0
 10
143.7170182742
 20
221.48105846072019
 30
0.0
 11
143.7170182742
 21
221.48105846072019
 31
0.0
  0
LINE
  5
1946
  8
0
 62
     0
 10
143.5920182742
 20
221.48105846072019
 30
0.0
 11
143.5920182742
 21
221.48105846072019
 31
0.0
  0
LINE
  5
1947
  8
0
 62
     0
 10
143.46701827419989
 20
221.48105846072019
 30
0.0
 11
143.46701827419989
 21
221.48105846072019
 31
0.0
  0
LINE
  5
1948
  8
0
 62
     0
 10
143.34201827419989
 20
221.48105846072019
 30
0.0
 11
143.34201827419989
 21
221.48105846072019
 31
0.0
  0
LINE
  5
1949
  8
0
 62
     0
 10
143.21701827419989
 20
221.48105846072019
 30
0.0
 11
143.21701827419989
 21
221.48105846072019
 31
0.0
  0
LINE
  5
194A
  8
0
 62
     0
 10
143.09201827419989
 20
221.48105846072019
 30
0.0
 11
143.09201827419989
 21
221.48105846072019
 31
0.0
  0
LINE
  5
194B
  8
0
 62
     0
 10
142.96701827419989
 20
221.48105846072019
 30
0.0
 11
142.96701827419989
 21
221.48105846072019
 31
0.0
  0
LINE
  5
194C
  8
0
 62
     0
 10
151.9670182742
 20
221.48105846072019
 30
0.0
 11
151.9670182742
 21
221.48105846072019
 31
0.0
  0
LINE
  5
194D
  8
0
 62
     0
 10
151.8420182742
 20
221.48105846072019
 30
0.0
 11
151.8420182742
 21
221.48105846072019
 31
0.0
  0
LINE
  5
194E
  8
0
 62
     0
 10
151.71701827419989
 20
221.48105846072019
 30
0.0
 11
151.71701827419989
 21
221.48105846072019
 31
0.0
  0
LINE
  5
194F
  8
0
 62
     0
 10
151.59201827419989
 20
221.48105846072019
 30
0.0
 11
151.59201827419989
 21
221.48105846072019
 31
0.0
  0
LINE
  5
1950
  8
0
 62
     0
 10
139.3420182742
 20
221.48105846072019
 30
0.0
 11
139.3420182742
 21
221.48105846072019
 31
0.0
  0
LINE
  5
1951
  8
0
 62
     0
 10
139.21701827419989
 20
221.48105846072019
 30
0.0
 11
139.21701827419989
 21
221.48105846072019
 31
0.0
  0
LINE
  5
1952
  8
0
 62
     0
 10
139.09201827419989
 20
221.48105846072019
 30
0.0
 11
139.09201827419989
 21
221.48105846072019
 31
0.0
  0
LINE
  5
1953
  8
0
 62
     0
 10
138.96701827419989
 20
221.48105846072019
 30
0.0
 11
138.96701827419989
 21
221.48105846072019
 31
0.0
  0
LINE
  5
1954
  8
0
 62
     0
 10
148.15451827419989
 20
221.60605846072019
 30
0.0
 11
148.15451827419989
 21
221.60605846072019
 31
0.0
  0
LINE
  5
1955
  8
0
 62
     0
 10
148.02951827419989
 20
221.60605846072019
 30
0.0
 11
148.02951827419989
 21
221.60605846072019
 31
0.0
  0
LINE
  5
1956
  8
0
 62
     0
 10
147.90451827419989
 20
221.60605846072019
 30
0.0
 11
147.90451827419989
 21
221.60605846072019
 31
0.0
  0
LINE
  5
1957
  8
0
 62
     0
 10
147.77951827419989
 20
221.60605846072019
 30
0.0
 11
147.77951827419989
 21
221.60605846072019
 31
0.0
  0
LINE
  5
1958
  8
0
 62
     0
 10
147.65451827419989
 20
221.60605846072019
 30
0.0
 11
147.65451827419989
 21
221.60605846072019
 31
0.0
  0
LINE
  5
1959
  8
0
 62
     0
 10
147.5295182742
 20
221.60605846072019
 30
0.0
 11
147.5295182742
 21
221.60605846072019
 31
0.0
  0
LINE
  5
195A
  8
0
 62
     0
 10
147.4045182742
 20
221.60605846072019
 30
0.0
 11
147.4045182742
 21
221.60605846072019
 31
0.0
  0
LINE
  5
195B
  8
0
 62
     0
 10
147.2795182742
 20
221.60605846072019
 30
0.0
 11
147.2795182742
 21
221.60605846072019
 31
0.0
  0
LINE
  5
195C
  8
0
 62
     0
 10
147.1545182742
 20
221.60605846072019
 30
0.0
 11
147.1545182742
 21
221.60605846072019
 31
0.0
  0
LINE
  5
195D
  8
0
 62
     0
 10
147.02951827419989
 20
221.60605846072019
 30
0.0
 11
147.02951827419989
 21
221.60605846072019
 31
0.0
  0
LINE
  5
195E
  8
0
 62
     0
 10
146.90451827419989
 20
221.60605846072019
 30
0.0
 11
146.90451827419989
 21
221.60605846072019
 31
0.0
  0
LINE
  5
195F
  8
0
 62
     0
 10
146.77951827419989
 20
221.60605846072019
 30
0.0
 11
146.77951827419989
 21
221.60605846072019
 31
0.0
  0
LINE
  5
1960
  8
0
 62
     0
 10
146.6545182742
 20
221.60605846072019
 30
0.0
 11
146.6545182742
 21
221.60605846072019
 31
0.0
  0
LINE
  5
1961
  8
0
 62
     0
 10
146.52951827419989
 20
221.60605846072019
 30
0.0
 11
146.52951827419989
 21
221.60605846072019
 31
0.0
  0
LINE
  5
1962
  8
0
 62
     0
 10
146.40451827419989
 20
221.60605846072019
 30
0.0
 11
146.40451827419989
 21
221.60605846072019
 31
0.0
  0
LINE
  5
1963
  8
0
 62
     0
 10
146.2795182742
 20
221.60605846072019
 30
0.0
 11
146.2795182742
 21
221.60605846072019
 31
0.0
  0
LINE
  5
1964
  8
0
 62
     0
 10
146.1545182742
 20
221.60605846072019
 30
0.0
 11
146.1545182742
 21
221.60605846072019
 31
0.0
  0
LINE
  5
1965
  8
0
 62
     0
 10
149.65451827419989
 20
221.60605846072019
 30
0.0
 11
149.65451827419989
 21
221.60605846072019
 31
0.0
  0
LINE
  5
1966
  8
0
 62
     0
 10
149.52951827419989
 20
221.60605846072019
 30
0.0
 11
149.52951827419989
 21
221.60605846072019
 31
0.0
  0
LINE
  5
1967
  8
0
 62
     0
 10
149.4045182742
 20
221.60605846072019
 30
0.0
 11
149.4045182742
 21
221.60605846072019
 31
0.0
  0
LINE
  5
1968
  8
0
 62
     0
 10
149.2795182742
 20
221.60605846072019
 30
0.0
 11
149.2795182742
 21
221.60605846072019
 31
0.0
  0
LINE
  5
1969
  8
0
 62
     0
 10
144.4045182742
 20
221.60605846072019
 30
0.0
 11
144.4045182742
 21
221.60605846072019
 31
0.0
  0
LINE
  5
196A
  8
0
 62
     0
 10
144.2795182742
 20
221.60605846072019
 30
0.0
 11
144.2795182742
 21
221.60605846072019
 31
0.0
  0
LINE
  5
196B
  8
0
 62
     0
 10
144.1545182742
 20
221.60605846072019
 30
0.0
 11
144.1545182742
 21
221.60605846072019
 31
0.0
  0
LINE
  5
196C
  8
0
 62
     0
 10
144.0295182742
 20
221.60605846072019
 30
0.0
 11
144.0295182742
 21
221.60605846072019
 31
0.0
  0
LINE
  5
196D
  8
0
 62
     0
 10
143.90451827419989
 20
221.60605846072019
 30
0.0
 11
143.90451827419989
 21
221.60605846072019
 31
0.0
  0
LINE
  5
196E
  8
0
 62
     0
 10
143.77951827419989
 20
221.60605846072019
 30
0.0
 11
143.77951827419989
 21
221.60605846072019
 31
0.0
  0
LINE
  5
196F
  8
0
 62
     0
 10
143.65451827419989
 20
221.60605846072019
 30
0.0
 11
143.65451827419989
 21
221.60605846072019
 31
0.0
  0
LINE
  5
1970
  8
0
 62
     0
 10
143.5295182742
 20
221.60605846072019
 30
0.0
 11
143.5295182742
 21
221.60605846072019
 31
0.0
  0
LINE
  5
1971
  8
0
 62
     0
 10
143.40451827419989
 20
221.60605846072019
 30
0.0
 11
143.40451827419989
 21
221.60605846072019
 31
0.0
  0
LINE
  5
1972
  8
0
 62
     0
 10
143.27951827419989
 20
221.60605846072019
 30
0.0
 11
143.27951827419989
 21
221.60605846072019
 31
0.0
  0
LINE
  5
1973
  8
0
 62
     0
 10
143.1545182742
 20
221.60605846072019
 30
0.0
 11
143.1545182742
 21
221.60605846072019
 31
0.0
  0
LINE
  5
1974
  8
0
 62
     0
 10
143.0295182742
 20
221.60605846072019
 30
0.0
 11
143.0295182742
 21
221.60605846072019
 31
0.0
  0
LINE
  5
1975
  8
0
 62
     0
 10
142.90451827419989
 20
221.60605846072019
 30
0.0
 11
142.90451827419989
 21
221.60605846072019
 31
0.0
  0
LINE
  5
1976
  8
0
 62
     0
 10
142.77951827419989
 20
221.60605846072019
 30
0.0
 11
142.77951827419989
 21
221.60605846072019
 31
0.0
  0
LINE
  5
1977
  8
0
 62
     0
 10
151.90451827419989
 20
221.60605846072019
 30
0.0
 11
151.90451827419989
 21
221.60605846072019
 31
0.0
  0
LINE
  5
1978
  8
0
 62
     0
 10
151.77951827419989
 20
221.60605846072019
 30
0.0
 11
151.77951827419989
 21
221.60605846072019
 31
0.0
  0
LINE
  5
1979
  8
0
 62
     0
 10
151.6545182742
 20
221.60605846072019
 30
0.0
 11
151.6545182742
 21
221.60605846072019
 31
0.0
  0
LINE
  5
197A
  8
0
 62
     0
 10
151.5295182742
 20
221.60605846072019
 30
0.0
 11
151.5295182742
 21
221.60605846072019
 31
0.0
  0
LINE
  5
197B
  8
0
 62
     0
 10
139.27951827419989
 20
221.60605846072019
 30
0.0
 11
139.27951827419989
 21
221.60605846072019
 31
0.0
  0
LINE
  5
197C
  8
0
 62
     0
 10
139.1545182742
 20
221.60605846072019
 30
0.0
 11
139.1545182742
 21
221.60605846072019
 31
0.0
  0
LINE
  5
197D
  8
0
 62
     0
 10
139.0295182742
 20
221.60605846072019
 30
0.0
 11
139.0295182742
 21
221.60605846072019
 31
0.0
  0
LINE
  5
197E
  8
0
 62
     0
 10
138.9045182742
 20
221.60605846072019
 30
0.0
 11
138.9045182742
 21
221.60605846072019
 31
0.0
  0
LINE
  5
197F
  8
0
 62
     0
 10
146.46701827419989
 20
221.73105846072019
 30
0.0
 11
146.46701827419989
 21
221.73105846072019
 31
0.0
  0
LINE
  5
1980
  8
0
 62
     0
 10
146.34201827419989
 20
221.73105846072019
 30
0.0
 11
146.34201827419989
 21
221.73105846072019
 31
0.0
  0
LINE
  5
1981
  8
0
 62
     0
 10
146.21701827419989
 20
221.73105846072019
 30
0.0
 11
146.21701827419989
 21
221.73105846072019
 31
0.0
  0
LINE
  5
1982
  8
0
 62
     0
 10
146.09201827419989
 20
221.73105846072019
 30
0.0
 11
146.09201827419989
 21
221.73105846072019
 31
0.0
  0
LINE
  5
1983
  8
0
 62
     0
 10
145.9670182742
 20
221.73105846072019
 30
0.0
 11
145.9670182742
 21
221.73105846072019
 31
0.0
  0
LINE
  5
1984
  8
0
 62
     0
 10
148.2170182742
 20
221.73105846072019
 30
0.0
 11
148.2170182742
 21
221.73105846072019
 31
0.0
  0
LINE
  5
1985
  8
0
 62
     0
 10
148.09201827419989
 20
221.73105846072019
 30
0.0
 11
148.09201827419989
 21
221.73105846072019
 31
0.0
  0
LINE
  5
1986
  8
0
 62
     0
 10
147.96701827419989
 20
221.73105846072019
 30
0.0
 11
147.96701827419989
 21
221.73105846072019
 31
0.0
  0
LINE
  5
1987
  8
0
 62
     0
 10
147.8420182742
 20
221.73105846072019
 30
0.0
 11
147.8420182742
 21
221.73105846072019
 31
0.0
  0
LINE
  5
1988
  8
0
 62
     0
 10
147.7170182742
 20
221.73105846072019
 30
0.0
 11
147.7170182742
 21
221.73105846072019
 31
0.0
  0
LINE
  5
1989
  8
0
 62
     0
 10
144.5920182742
 20
221.73105846072019
 30
0.0
 11
144.5920182742
 21
221.73105846072019
 31
0.0
  0
LINE
  5
198A
  8
0
 62
     0
 10
144.46701827419989
 20
221.73105846072019
 30
0.0
 11
144.46701827419989
 21
221.73105846072019
 31
0.0
  0
LINE
  5
198B
  8
0
 62
     0
 10
144.34201827419989
 20
221.73105846072019
 30
0.0
 11
144.34201827419989
 21
221.73105846072019
 31
0.0
  0
LINE
  5
198C
  8
0
 62
     0
 10
144.21701827419989
 20
221.73105846072019
 30
0.0
 11
144.21701827419989
 21
221.73105846072019
 31
0.0
  0
LINE
  5
198D
  8
0
 62
     0
 10
144.09201827419989
 20
221.73105846072019
 30
0.0
 11
144.09201827419989
 21
221.73105846072019
 31
0.0
  0
LINE
  5
198E
  8
0
 62
     0
 10
143.96701827419989
 20
221.73105846072019
 30
0.0
 11
143.96701827419989
 21
221.73105846072019
 31
0.0
  0
LINE
  5
198F
  8
0
 62
     0
 10
149.59201827419989
 20
221.73105846072019
 30
0.0
 11
149.59201827419989
 21
221.73105846072019
 31
0.0
  0
LINE
  5
1990
  8
0
 62
     0
 10
149.46701827419989
 20
221.73105846072019
 30
0.0
 11
149.46701827419989
 21
221.73105846072019
 31
0.0
  0
LINE
  5
1991
  8
0
 62
     0
 10
149.34201827419989
 20
221.73105846072019
 30
0.0
 11
149.34201827419989
 21
221.73105846072019
 31
0.0
  0
LINE
  5
1992
  8
0
 62
     0
 10
149.21701827419989
 20
221.73105846072019
 30
0.0
 11
149.21701827419989
 21
221.73105846072019
 31
0.0
  0
LINE
  5
1993
  8
0
 62
     0
 10
143.21701827419989
 20
221.73105846072019
 30
0.0
 11
143.21701827419989
 21
221.73105846072019
 31
0.0
  0
LINE
  5
1994
  8
0
 62
     0
 10
143.09201827419989
 20
221.73105846072019
 30
0.0
 11
143.09201827419989
 21
221.73105846072019
 31
0.0
  0
LINE
  5
1995
  8
0
 62
     0
 10
142.96701827419989
 20
221.73105846072019
 30
0.0
 11
142.96701827419989
 21
221.73105846072019
 31
0.0
  0
LINE
  5
1996
  8
0
 62
     0
 10
142.8420182742
 20
221.73105846072019
 30
0.0
 11
142.8420182742
 21
221.73105846072019
 31
0.0
  0
LINE
  5
1997
  8
0
 62
     0
 10
142.7170182742
 20
221.73105846072019
 30
0.0
 11
142.7170182742
 21
221.73105846072019
 31
0.0
  0
LINE
  5
1998
  8
0
 62
     0
 10
151.9670182742
 20
221.73105846072019
 30
0.0
 11
151.9670182742
 21
221.73105846072019
 31
0.0
  0
LINE
  5
1999
  8
0
 62
     0
 10
151.8420182742
 20
221.73105846072019
 30
0.0
 11
151.8420182742
 21
221.73105846072019
 31
0.0
  0
LINE
  5
199A
  8
0
 62
     0
 10
151.71701827419989
 20
221.73105846072019
 30
0.0
 11
151.71701827419989
 21
221.73105846072019
 31
0.0
  0
LINE
  5
199B
  8
0
 62
     0
 10
151.59201827419989
 20
221.73105846072019
 30
0.0
 11
151.59201827419989
 21
221.73105846072019
 31
0.0
  0
LINE
  5
199C
  8
0
 62
     0
 10
139.3420182742
 20
221.73105846072019
 30
0.0
 11
139.3420182742
 21
221.73105846072019
 31
0.0
  0
LINE
  5
199D
  8
0
 62
     0
 10
139.21701827419989
 20
221.73105846072019
 30
0.0
 11
139.21701827419989
 21
221.73105846072019
 31
0.0
  0
LINE
  5
199E
  8
0
 62
     0
 10
139.09201827419989
 20
221.73105846072019
 30
0.0
 11
139.09201827419989
 21
221.73105846072019
 31
0.0
  0
LINE
  5
199F
  8
0
 62
     0
 10
138.96701827419989
 20
221.73105846072019
 30
0.0
 11
138.96701827419989
 21
221.73105846072019
 31
0.0
  0
LINE
  5
19A0
  8
0
 62
     0
 10
146.2795182742
 20
221.85605846072019
 30
0.0
 11
146.2795182742
 21
221.85605846072019
 31
0.0
  0
LINE
  5
19A1
  8
0
 62
     0
 10
146.1545182742
 20
221.85605846072019
 30
0.0
 11
146.1545182742
 21
221.85605846072019
 31
0.0
  0
LINE
  5
19A2
  8
0
 62
     0
 10
146.02951827419989
 20
221.85605846072019
 30
0.0
 11
146.02951827419989
 21
221.85605846072019
 31
0.0
  0
LINE
  5
19A3
  8
0
 62
     0
 10
145.90451827419989
 20
221.85605846072019
 30
0.0
 11
145.90451827419989
 21
221.85605846072019
 31
0.0
  0
LINE
  5
19A4
  8
0
 62
     0
 10
148.2795182742
 20
221.85605846072019
 30
0.0
 11
148.2795182742
 21
221.85605846072019
 31
0.0
  0
LINE
  5
19A5
  8
0
 62
     0
 10
148.15451827419989
 20
221.85605846072019
 30
0.0
 11
148.15451827419989
 21
221.85605846072019
 31
0.0
  0
LINE
  5
19A6
  8
0
 62
     0
 10
148.02951827419989
 20
221.85605846072019
 30
0.0
 11
148.02951827419989
 21
221.85605846072019
 31
0.0
  0
LINE
  5
19A7
  8
0
 62
     0
 10
147.90451827419989
 20
221.85605846072019
 30
0.0
 11
147.90451827419989
 21
221.85605846072019
 31
0.0
  0
LINE
  5
19A8
  8
0
 62
     0
 10
144.65451827419989
 20
221.85605846072019
 30
0.0
 11
144.65451827419989
 21
221.85605846072019
 31
0.0
  0
LINE
  5
19A9
  8
0
 62
     0
 10
144.52951827419989
 20
221.85605846072019
 30
0.0
 11
144.52951827419989
 21
221.85605846072019
 31
0.0
  0
LINE
  5
19AA
  8
0
 62
     0
 10
144.4045182742
 20
221.85605846072019
 30
0.0
 11
144.4045182742
 21
221.85605846072019
 31
0.0
  0
LINE
  5
19AB
  8
0
 62
     0
 10
144.2795182742
 20
221.85605846072019
 30
0.0
 11
144.2795182742
 21
221.85605846072019
 31
0.0
  0
LINE
  5
19AC
  8
0
 62
     0
 10
149.65451827419989
 20
221.85605846072019
 30
0.0
 11
149.65451827419989
 21
221.85605846072019
 31
0.0
  0
LINE
  5
19AD
  8
0
 62
     0
 10
149.52951827419989
 20
221.85605846072019
 30
0.0
 11
149.52951827419989
 21
221.85605846072019
 31
0.0
  0
LINE
  5
19AE
  8
0
 62
     0
 10
149.4045182742
 20
221.85605846072019
 30
0.0
 11
149.4045182742
 21
221.85605846072019
 31
0.0
  0
LINE
  5
19AF
  8
0
 62
     0
 10
149.2795182742
 20
221.85605846072019
 30
0.0
 11
149.2795182742
 21
221.85605846072019
 31
0.0
  0
LINE
  5
19B0
  8
0
 62
     0
 10
143.0295182742
 20
221.85605846072019
 30
0.0
 11
143.0295182742
 21
221.85605846072019
 31
0.0
  0
LINE
  5
19B1
  8
0
 62
     0
 10
142.90451827419989
 20
221.85605846072019
 30
0.0
 11
142.90451827419989
 21
221.85605846072019
 31
0.0
  0
LINE
  5
19B2
  8
0
 62
     0
 10
142.77951827419989
 20
221.85605846072019
 30
0.0
 11
142.77951827419989
 21
221.85605846072019
 31
0.0
  0
LINE
  5
19B3
  8
0
 62
     0
 10
142.65451827419989
 20
221.85605846072019
 30
0.0
 11
142.65451827419989
 21
221.85605846072019
 31
0.0
  0
LINE
  5
19B4
  8
0
 62
     0
 10
142.52951827419989
 20
221.85605846072019
 30
0.0
 11
142.52951827419989
 21
221.85605846072019
 31
0.0
  0
LINE
  5
19B5
  8
0
 62
     0
 10
151.90451827419989
 20
221.85605846072019
 30
0.0
 11
151.90451827419989
 21
221.85605846072019
 31
0.0
  0
LINE
  5
19B6
  8
0
 62
     0
 10
151.77951827419989
 20
221.85605846072019
 30
0.0
 11
151.77951827419989
 21
221.85605846072019
 31
0.0
  0
LINE
  5
19B7
  8
0
 62
     0
 10
151.6545182742
 20
221.85605846072019
 30
0.0
 11
151.6545182742
 21
221.85605846072019
 31
0.0
  0
LINE
  5
19B8
  8
0
 62
     0
 10
151.5295182742
 20
221.85605846072019
 30
0.0
 11
151.5295182742
 21
221.85605846072019
 31
0.0
  0
LINE
  5
19B9
  8
0
 62
     0
 10
139.27951827419989
 20
221.85605846072019
 30
0.0
 11
139.27951827419989
 21
221.85605846072019
 31
0.0
  0
LINE
  5
19BA
  8
0
 62
     0
 10
139.1545182742
 20
221.85605846072019
 30
0.0
 11
139.1545182742
 21
221.85605846072019
 31
0.0
  0
LINE
  5
19BB
  8
0
 62
     0
 10
139.0295182742
 20
221.85605846072019
 30
0.0
 11
139.0295182742
 21
221.85605846072019
 31
0.0
  0
LINE
  5
19BC
  8
0
 62
     0
 10
138.9045182742
 20
221.85605846072019
 30
0.0
 11
138.9045182742
 21
221.85605846072019
 31
0.0
  0
LINE
  5
19BD
  8
0
 62
     0
 10
146.21701827419989
 20
221.98105846072019
 30
0.0
 11
146.21701827419989
 21
221.98105846072019
 31
0.0
  0
LINE
  5
19BE
  8
0
 62
     0
 10
146.09201827419989
 20
221.98105846072019
 30
0.0
 11
146.09201827419989
 21
221.98105846072019
 31
0.0
  0
LINE
  5
19BF
  8
0
 62
     0
 10
145.9670182742
 20
221.98105846072019
 30
0.0
 11
145.9670182742
 21
221.98105846072019
 31
0.0
  0
LINE
  5
19C0
  8
0
 62
     0
 10
145.8420182742
 20
221.98105846072019
 30
0.0
 11
145.8420182742
 21
221.98105846072019
 31
0.0
  0
LINE
  5
19C1
  8
0
 62
     0
 10
148.34201827419989
 20
221.98105846072019
 30
0.0
 11
148.34201827419989
 21
221.98105846072019
 31
0.0
  0
LINE
  5
19C2
  8
0
 62
     0
 10
148.2170182742
 20
221.98105846072019
 30
0.0
 11
148.2170182742
 21
221.98105846072019
 31
0.0
  0
LINE
  5
19C3
  8
0
 62
     0
 10
148.09201827419989
 20
221.98105846072019
 30
0.0
 11
148.09201827419989
 21
221.98105846072019
 31
0.0
  0
LINE
  5
19C4
  8
0
 62
     0
 10
147.96701827419989
 20
221.98105846072019
 30
0.0
 11
147.96701827419989
 21
221.98105846072019
 31
0.0
  0
LINE
  5
19C5
  8
0
 62
     0
 10
144.7170182742
 20
221.98105846072019
 30
0.0
 11
144.7170182742
 21
221.98105846072019
 31
0.0
  0
LINE
  5
19C6
  8
0
 62
     0
 10
144.5920182742
 20
221.98105846072019
 30
0.0
 11
144.5920182742
 21
221.98105846072019
 31
0.0
  0
LINE
  5
19C7
  8
0
 62
     0
 10
144.46701827419989
 20
221.98105846072019
 30
0.0
 11
144.46701827419989
 21
221.98105846072019
 31
0.0
  0
LINE
  5
19C8
  8
0
 62
     0
 10
144.34201827419989
 20
221.98105846072019
 30
0.0
 11
144.34201827419989
 21
221.98105846072019
 31
0.0
  0
LINE
  5
19C9
  8
0
 62
     0
 10
149.59201827419989
 20
221.98105846072019
 30
0.0
 11
149.59201827419989
 21
221.98105846072019
 31
0.0
  0
LINE
  5
19CA
  8
0
 62
     0
 10
149.46701827419989
 20
221.98105846072019
 30
0.0
 11
149.46701827419989
 21
221.98105846072019
 31
0.0
  0
LINE
  5
19CB
  8
0
 62
     0
 10
149.34201827419989
 20
221.98105846072019
 30
0.0
 11
149.34201827419989
 21
221.98105846072019
 31
0.0
  0
LINE
  5
19CC
  8
0
 62
     0
 10
149.21701827419989
 20
221.98105846072019
 30
0.0
 11
149.21701827419989
 21
221.98105846072019
 31
0.0
  0
LINE
  5
19CD
  8
0
 62
     0
 10
142.8420182742
 20
221.98105846072019
 30
0.0
 11
142.8420182742
 21
221.98105846072019
 31
0.0
  0
LINE
  5
19CE
  8
0
 62
     0
 10
142.7170182742
 20
221.98105846072019
 30
0.0
 11
142.7170182742
 21
221.98105846072019
 31
0.0
  0
LINE
  5
19CF
  8
0
 62
     0
 10
142.5920182742
 20
221.98105846072019
 30
0.0
 11
142.5920182742
 21
221.98105846072019
 31
0.0
  0
LINE
  5
19D0
  8
0
 62
     0
 10
142.4670182742
 20
221.98105846072019
 30
0.0
 11
142.4670182742
 21
221.98105846072019
 31
0.0
  0
LINE
  5
19D1
  8
0
 62
     0
 10
151.9670182742
 20
221.98105846072019
 30
0.0
 11
151.9670182742
 21
221.98105846072019
 31
0.0
  0
LINE
  5
19D2
  8
0
 62
     0
 10
151.8420182742
 20
221.98105846072019
 30
0.0
 11
151.8420182742
 21
221.98105846072019
 31
0.0
  0
LINE
  5
19D3
  8
0
 62
     0
 10
151.71701827419989
 20
221.98105846072019
 30
0.0
 11
151.71701827419989
 21
221.98105846072019
 31
0.0
  0
LINE
  5
19D4
  8
0
 62
     0
 10
151.59201827419989
 20
221.98105846072019
 30
0.0
 11
151.59201827419989
 21
221.98105846072019
 31
0.0
  0
LINE
  5
19D5
  8
0
 62
     0
 10
139.3420182742
 20
221.98105846072019
 30
0.0
 11
139.3420182742
 21
221.98105846072019
 31
0.0
  0
LINE
  5
19D6
  8
0
 62
     0
 10
139.21701827419989
 20
221.98105846072019
 30
0.0
 11
139.21701827419989
 21
221.98105846072019
 31
0.0
  0
LINE
  5
19D7
  8
0
 62
     0
 10
139.09201827419989
 20
221.98105846072019
 30
0.0
 11
139.09201827419989
 21
221.98105846072019
 31
0.0
  0
LINE
  5
19D8
  8
0
 62
     0
 10
138.96701827419989
 20
221.98105846072019
 30
0.0
 11
138.96701827419989
 21
221.98105846072019
 31
0.0
  0
LINE
  5
19D9
  8
0
 62
     0
 10
146.2795182742
 20
222.10605846072019
 30
0.0
 11
146.2795182742
 21
222.10605846072019
 31
0.0
  0
LINE
  5
19DA
  8
0
 62
     0
 10
146.1545182742
 20
222.10605846072019
 30
0.0
 11
146.1545182742
 21
222.10605846072019
 31
0.0
  0
LINE
  5
19DB
  8
0
 62
     0
 10
146.02951827419989
 20
222.10605846072019
 30
0.0
 11
146.02951827419989
 21
222.10605846072019
 31
0.0
  0
LINE
  5
19DC
  8
0
 62
     0
 10
145.90451827419989
 20
222.10605846072019
 30
0.0
 11
145.90451827419989
 21
222.10605846072019
 31
0.0
  0
LINE
  5
19DD
  8
0
 62
     0
 10
148.4045182742
 20
222.10605846072019
 30
0.0
 11
148.4045182742
 21
222.10605846072019
 31
0.0
  0
LINE
  5
19DE
  8
0
 62
     0
 10
148.2795182742
 20
222.10605846072019
 30
0.0
 11
148.2795182742
 21
222.10605846072019
 31
0.0
  0
LINE
  5
19DF
  8
0
 62
     0
 10
148.15451827419989
 20
222.10605846072019
 30
0.0
 11
148.15451827419989
 21
222.10605846072019
 31
0.0
  0
LINE
  5
19E0
  8
0
 62
     0
 10
148.02951827419989
 20
222.10605846072019
 30
0.0
 11
148.02951827419989
 21
222.10605846072019
 31
0.0
  0
LINE
  5
19E1
  8
0
 62
     0
 10
144.77951827419989
 20
222.10605846072019
 30
0.0
 11
144.77951827419989
 21
222.10605846072019
 31
0.0
  0
LINE
  5
19E2
  8
0
 62
     0
 10
144.65451827419989
 20
222.10605846072019
 30
0.0
 11
144.65451827419989
 21
222.10605846072019
 31
0.0
  0
LINE
  5
19E3
  8
0
 62
     0
 10
144.52951827419989
 20
222.10605846072019
 30
0.0
 11
144.52951827419989
 21
222.10605846072019
 31
0.0
  0
LINE
  5
19E4
  8
0
 62
     0
 10
144.4045182742
 20
222.10605846072019
 30
0.0
 11
144.4045182742
 21
222.10605846072019
 31
0.0
  0
LINE
  5
19E5
  8
0
 62
     0
 10
149.65451827419989
 20
222.10605846072019
 30
0.0
 11
149.65451827419989
 21
222.10605846072019
 31
0.0
  0
LINE
  5
19E6
  8
0
 62
     0
 10
149.52951827419989
 20
222.10605846072019
 30
0.0
 11
149.52951827419989
 21
222.10605846072019
 31
0.0
  0
LINE
  5
19E7
  8
0
 62
     0
 10
149.4045182742
 20
222.10605846072019
 30
0.0
 11
149.4045182742
 21
222.10605846072019
 31
0.0
  0
LINE
  5
19E8
  8
0
 62
     0
 10
149.2795182742
 20
222.10605846072019
 30
0.0
 11
149.2795182742
 21
222.10605846072019
 31
0.0
  0
LINE
  5
19E9
  8
0
 62
     0
 10
142.77951827419989
 20
222.10605846072019
 30
0.0
 11
142.77951827419989
 21
222.10605846072019
 31
0.0
  0
LINE
  5
19EA
  8
0
 62
     0
 10
142.65451827419989
 20
222.10605846072019
 30
0.0
 11
142.65451827419989
 21
222.10605846072019
 31
0.0
  0
LINE
  5
19EB
  8
0
 62
     0
 10
142.52951827419989
 20
222.10605846072019
 30
0.0
 11
142.52951827419989
 21
222.10605846072019
 31
0.0
  0
LINE
  5
19EC
  8
0
 62
     0
 10
142.40451827419989
 20
222.10605846072019
 30
0.0
 11
142.40451827419989
 21
222.10605846072019
 31
0.0
  0
LINE
  5
19ED
  8
0
 62
     0
 10
151.90451827419989
 20
222.10605846072019
 30
0.0
 11
151.90451827419989
 21
222.10605846072019
 31
0.0
  0
LINE
  5
19EE
  8
0
 62
     0
 10
151.77951827419989
 20
222.10605846072019
 30
0.0
 11
151.77951827419989
 21
222.10605846072019
 31
0.0
  0
LINE
  5
19EF
  8
0
 62
     0
 10
151.6545182742
 20
222.10605846072019
 30
0.0
 11
151.6545182742
 21
222.10605846072019
 31
0.0
  0
LINE
  5
19F0
  8
0
 62
     0
 10
151.5295182742
 20
222.10605846072019
 30
0.0
 11
151.5295182742
 21
222.10605846072019
 31
0.0
  0
LINE
  5
19F1
  8
0
 62
     0
 10
139.27951827419989
 20
222.10605846072019
 30
0.0
 11
139.27951827419989
 21
222.10605846072019
 31
0.0
  0
LINE
  5
19F2
  8
0
 62
     0
 10
139.1545182742
 20
222.10605846072019
 30
0.0
 11
139.1545182742
 21
222.10605846072019
 31
0.0
  0
LINE
  5
19F3
  8
0
 62
     0
 10
139.0295182742
 20
222.10605846072019
 30
0.0
 11
139.0295182742
 21
222.10605846072019
 31
0.0
  0
LINE
  5
19F4
  8
0
 62
     0
 10
138.9045182742
 20
222.10605846072019
 30
0.0
 11
138.9045182742
 21
222.10605846072019
 31
0.0
  0
LINE
  5
19F5
  8
0
 62
     0
 10
148.34201827419989
 20
222.23105846072019
 30
0.0
 11
148.34201827419989
 21
222.23105846072019
 31
0.0
  0
LINE
  5
19F6
  8
0
 62
     0
 10
148.2170182742
 20
222.23105846072019
 30
0.0
 11
148.2170182742
 21
222.23105846072019
 31
0.0
  0
LINE
  5
19F7
  8
0
 62
     0
 10
148.09201827419989
 20
222.23105846072019
 30
0.0
 11
148.09201827419989
 21
222.23105846072019
 31
0.0
  0
LINE
  5
19F8
  8
0
 62
     0
 10
147.96701827419989
 20
222.23105846072019
 30
0.0
 11
147.96701827419989
 21
222.23105846072019
 31
0.0
  0
LINE
  5
19F9
  8
0
 62
     0
 10
147.8420182742
 20
222.23105846072019
 30
0.0
 11
147.8420182742
 21
222.23105846072019
 31
0.0
  0
LINE
  5
19FA
  8
0
 62
     0
 10
144.84201827419989
 20
222.23105846072019
 30
0.0
 11
144.84201827419989
 21
222.23105846072019
 31
0.0
  0
LINE
  5
19FB
  8
0
 62
     0
 10
144.7170182742
 20
222.23105846072019
 30
0.0
 11
144.7170182742
 21
222.23105846072019
 31
0.0
  0
LINE
  5
19FC
  8
0
 62
     0
 10
144.5920182742
 20
222.23105846072019
 30
0.0
 11
144.5920182742
 21
222.23105846072019
 31
0.0
  0
LINE
  5
19FD
  8
0
 62
     0
 10
144.46701827419989
 20
222.23105846072019
 30
0.0
 11
144.46701827419989
 21
222.23105846072019
 31
0.0
  0
LINE
  5
19FE
  8
0
 62
     0
 10
149.59201827419989
 20
222.23105846072019
 30
0.0
 11
149.59201827419989
 21
222.23105846072019
 31
0.0
  0
LINE
  5
19FF
  8
0
 62
     0
 10
149.46701827419989
 20
222.23105846072019
 30
0.0
 11
149.46701827419989
 21
222.23105846072019
 31
0.0
  0
LINE
  5
1A00
  8
0
 62
     0
 10
149.34201827419989
 20
222.23105846072019
 30
0.0
 11
149.34201827419989
 21
222.23105846072019
 31
0.0
  0
LINE
  5
1A01
  8
0
 62
     0
 10
149.21701827419989
 20
222.23105846072019
 30
0.0
 11
149.21701827419989
 21
222.23105846072019
 31
0.0
  0
LINE
  5
1A02
  8
0
 62
     0
 10
142.7170182742
 20
222.23105846072019
 30
0.0
 11
142.7170182742
 21
222.23105846072019
 31
0.0
  0
LINE
  5
1A03
  8
0
 62
     0
 10
142.5920182742
 20
222.23105846072019
 30
0.0
 11
142.5920182742
 21
222.23105846072019
 31
0.0
  0
LINE
  5
1A04
  8
0
 62
     0
 10
142.4670182742
 20
222.23105846072019
 30
0.0
 11
142.4670182742
 21
222.23105846072019
 31
0.0
  0
LINE
  5
1A05
  8
0
 62
     0
 10
142.34201827419989
 20
222.23105846072019
 30
0.0
 11
142.34201827419989
 21
222.23105846072019
 31
0.0
  0
LINE
  5
1A06
  8
0
 62
     0
 10
151.9670182742
 20
222.23105846072019
 30
0.0
 11
151.9670182742
 21
222.23105846072019
 31
0.0
  0
LINE
  5
1A07
  8
0
 62
     0
 10
151.8420182742
 20
222.23105846072019
 30
0.0
 11
151.8420182742
 21
222.23105846072019
 31
0.0
  0
LINE
  5
1A08
  8
0
 62
     0
 10
151.71701827419989
 20
222.23105846072019
 30
0.0
 11
151.71701827419989
 21
222.23105846072019
 31
0.0
  0
LINE
  5
1A09
  8
0
 62
     0
 10
151.59201827419989
 20
222.23105846072019
 30
0.0
 11
151.59201827419989
 21
222.23105846072019
 31
0.0
  0
LINE
  5
1A0A
  8
0
 62
     0
 10
139.3420182742
 20
222.23105846072019
 30
0.0
 11
139.3420182742
 21
222.23105846072019
 31
0.0
  0
LINE
  5
1A0B
  8
0
 62
     0
 10
139.21701827419989
 20
222.23105846072019
 30
0.0
 11
139.21701827419989
 21
222.23105846072019
 31
0.0
  0
LINE
  5
1A0C
  8
0
 62
     0
 10
139.09201827419989
 20
222.23105846072019
 30
0.0
 11
139.09201827419989
 21
222.23105846072019
 31
0.0
  0
LINE
  5
1A0D
  8
0
 62
     0
 10
138.96701827419989
 20
222.23105846072019
 30
0.0
 11
138.96701827419989
 21
222.23105846072019
 31
0.0
  0
LINE
  5
1A0E
  8
0
 62
     0
 10
148.15451827419989
 20
222.35605846072019
 30
0.0
 11
148.15451827419989
 21
222.35605846072019
 31
0.0
  0
LINE
  5
1A0F
  8
0
 62
     0
 10
148.02951827419989
 20
222.35605846072019
 30
0.0
 11
148.02951827419989
 21
222.35605846072019
 31
0.0
  0
LINE
  5
1A10
  8
0
 62
     0
 10
147.90451827419989
 20
222.35605846072019
 30
0.0
 11
147.90451827419989
 21
222.35605846072019
 31
0.0
  0
LINE
  5
1A11
  8
0
 62
     0
 10
147.77951827419989
 20
222.35605846072019
 30
0.0
 11
147.77951827419989
 21
222.35605846072019
 31
0.0
  0
LINE
  5
1A12
  8
0
 62
     0
 10
147.65451827419989
 20
222.35605846072019
 30
0.0
 11
147.65451827419989
 21
222.35605846072019
 31
0.0
  0
LINE
  5
1A13
  8
0
 62
     0
 10
144.90451827419989
 20
222.35605846072019
 30
0.0
 11
144.90451827419989
 21
222.35605846072019
 31
0.0
  0
LINE
  5
1A14
  8
0
 62
     0
 10
144.77951827419989
 20
222.35605846072019
 30
0.0
 11
144.77951827419989
 21
222.35605846072019
 31
0.0
  0
LINE
  5
1A15
  8
0
 62
     0
 10
144.65451827419989
 20
222.35605846072019
 30
0.0
 11
144.65451827419989
 21
222.35605846072019
 31
0.0
  0
LINE
  5
1A16
  8
0
 62
     0
 10
144.52951827419989
 20
222.35605846072019
 30
0.0
 11
144.52951827419989
 21
222.35605846072019
 31
0.0
  0
LINE
  5
1A17
  8
0
 62
     0
 10
149.65451827419989
 20
222.35605846072019
 30
0.0
 11
149.65451827419989
 21
222.35605846072019
 31
0.0
  0
LINE
  5
1A18
  8
0
 62
     0
 10
149.52951827419989
 20
222.35605846072019
 30
0.0
 11
149.52951827419989
 21
222.35605846072019
 31
0.0
  0
LINE
  5
1A19
  8
0
 62
     0
 10
149.4045182742
 20
222.35605846072019
 30
0.0
 11
149.4045182742
 21
222.35605846072019
 31
0.0
  0
LINE
  5
1A1A
  8
0
 62
     0
 10
149.2795182742
 20
222.35605846072019
 30
0.0
 11
149.2795182742
 21
222.35605846072019
 31
0.0
  0
LINE
  5
1A1B
  8
0
 62
     0
 10
142.65451827419989
 20
222.35605846072019
 30
0.0
 11
142.65451827419989
 21
222.35605846072019
 31
0.0
  0
LINE
  5
1A1C
  8
0
 62
     0
 10
142.52951827419989
 20
222.35605846072019
 30
0.0
 11
142.52951827419989
 21
222.35605846072019
 31
0.0
  0
LINE
  5
1A1D
  8
0
 62
     0
 10
142.40451827419989
 20
222.35605846072019
 30
0.0
 11
142.40451827419989
 21
222.35605846072019
 31
0.0
  0
LINE
  5
1A1E
  8
0
 62
     0
 10
142.2795182742
 20
222.35605846072019
 30
0.0
 11
142.2795182742
 21
222.35605846072019
 31
0.0
  0
LINE
  5
1A1F
  8
0
 62
     0
 10
151.90451827419989
 20
222.35605846072019
 30
0.0
 11
151.90451827419989
 21
222.35605846072019
 31
0.0
  0
LINE
  5
1A20
  8
0
 62
     0
 10
151.77951827419989
 20
222.35605846072019
 30
0.0
 11
151.77951827419989
 21
222.35605846072019
 31
0.0
  0
LINE
  5
1A21
  8
0
 62
     0
 10
151.6545182742
 20
222.35605846072019
 30
0.0
 11
151.6545182742
 21
222.35605846072019
 31
0.0
  0
LINE
  5
1A22
  8
0
 62
     0
 10
151.5295182742
 20
222.35605846072019
 30
0.0
 11
151.5295182742
 21
222.35605846072019
 31
0.0
  0
LINE
  5
1A23
  8
0
 62
     0
 10
139.27951827419989
 20
222.35605846072019
 30
0.0
 11
139.27951827419989
 21
222.35605846072019
 31
0.0
  0
LINE
  5
1A24
  8
0
 62
     0
 10
139.1545182742
 20
222.35605846072019
 30
0.0
 11
139.1545182742
 21
222.35605846072019
 31
0.0
  0
LINE
  5
1A25
  8
0
 62
     0
 10
139.0295182742
 20
222.35605846072019
 30
0.0
 11
139.0295182742
 21
222.35605846072019
 31
0.0
  0
LINE
  5
1A26
  8
0
 62
     0
 10
138.9045182742
 20
222.35605846072019
 30
0.0
 11
138.9045182742
 21
222.35605846072019
 31
0.0
  0
LINE
  5
1A27
  8
0
 62
     0
 10
147.96701827419989
 20
222.48105846072019
 30
0.0
 11
147.96701827419989
 21
222.48105846072019
 31
0.0
  0
LINE
  5
1A28
  8
0
 62
     0
 10
147.8420182742
 20
222.48105846072019
 30
0.0
 11
147.8420182742
 21
222.48105846072019
 31
0.0
  0
LINE
  5
1A29
  8
0
 62
     0
 10
147.7170182742
 20
222.48105846072019
 30
0.0
 11
147.7170182742
 21
222.48105846072019
 31
0.0
  0
LINE
  5
1A2A
  8
0
 62
     0
 10
147.59201827419989
 20
222.48105846072019
 30
0.0
 11
147.59201827419989
 21
222.48105846072019
 31
0.0
  0
LINE
  5
1A2B
  8
0
 62
     0
 10
147.46701827419989
 20
222.48105846072019
 30
0.0
 11
147.46701827419989
 21
222.48105846072019
 31
0.0
  0
LINE
  5
1A2C
  8
0
 62
     0
 10
147.34201827419989
 20
222.48105846072019
 30
0.0
 11
147.34201827419989
 21
222.48105846072019
 31
0.0
  0
LINE
  5
1A2D
  8
0
 62
     0
 10
144.96701827419989
 20
222.48105846072019
 30
0.0
 11
144.96701827419989
 21
222.48105846072019
 31
0.0
  0
LINE
  5
1A2E
  8
0
 62
     0
 10
144.84201827419989
 20
222.48105846072019
 30
0.0
 11
144.84201827419989
 21
222.48105846072019
 31
0.0
  0
LINE
  5
1A2F
  8
0
 62
     0
 10
144.7170182742
 20
222.48105846072019
 30
0.0
 11
144.7170182742
 21
222.48105846072019
 31
0.0
  0
LINE
  5
1A30
  8
0
 62
     0
 10
144.5920182742
 20
222.48105846072019
 30
0.0
 11
144.5920182742
 21
222.48105846072019
 31
0.0
  0
LINE
  5
1A31
  8
0
 62
     0
 10
149.59201827419989
 20
222.48105846072019
 30
0.0
 11
149.59201827419989
 21
222.48105846072019
 31
0.0
  0
LINE
  5
1A32
  8
0
 62
     0
 10
149.46701827419989
 20
222.48105846072019
 30
0.0
 11
149.46701827419989
 21
222.48105846072019
 31
0.0
  0
LINE
  5
1A33
  8
0
 62
     0
 10
149.34201827419989
 20
222.48105846072019
 30
0.0
 11
149.34201827419989
 21
222.48105846072019
 31
0.0
  0
LINE
  5
1A34
  8
0
 62
     0
 10
149.21701827419989
 20
222.48105846072019
 30
0.0
 11
149.21701827419989
 21
222.48105846072019
 31
0.0
  0
LINE
  5
1A35
  8
0
 62
     0
 10
142.7170182742
 20
222.48105846072019
 30
0.0
 11
142.7170182742
 21
222.48105846072019
 31
0.0
  0
LINE
  5
1A36
  8
0
 62
     0
 10
142.5920182742
 20
222.48105846072019
 30
0.0
 11
142.5920182742
 21
222.48105846072019
 31
0.0
  0
LINE
  5
1A37
  8
0
 62
     0
 10
142.4670182742
 20
222.48105846072019
 30
0.0
 11
142.4670182742
 21
222.48105846072019
 31
0.0
  0
LINE
  5
1A38
  8
0
 62
     0
 10
142.34201827419989
 20
222.48105846072019
 30
0.0
 11
142.34201827419989
 21
222.48105846072019
 31
0.0
  0
LINE
  5
1A39
  8
0
 62
     0
 10
151.9670182742
 20
222.48105846072019
 30
0.0
 11
151.9670182742
 21
222.48105846072019
 31
0.0
  0
LINE
  5
1A3A
  8
0
 62
     0
 10
151.8420182742
 20
222.48105846072019
 30
0.0
 11
151.8420182742
 21
222.48105846072019
 31
0.0
  0
LINE
  5
1A3B
  8
0
 62
     0
 10
151.71701827419989
 20
222.48105846072019
 30
0.0
 11
151.71701827419989
 21
222.48105846072019
 31
0.0
  0
LINE
  5
1A3C
  8
0
 62
     0
 10
151.59201827419989
 20
222.48105846072019
 30
0.0
 11
151.59201827419989
 21
222.48105846072019
 31
0.0
  0
LINE
  5
1A3D
  8
0
 62
     0
 10
140.7170182742
 20
222.48105846072019
 30
0.0
 11
140.7170182742
 21
222.48105846072019
 31
0.0
  0
LINE
  5
1A3E
  8
0
 62
     0
 10
140.5920182742
 20
222.48105846072019
 30
0.0
 11
140.5920182742
 21
222.48105846072019
 31
0.0
  0
LINE
  5
1A3F
  8
0
 62
     0
 10
140.4670182742
 20
222.48105846072019
 30
0.0
 11
140.4670182742
 21
222.48105846072019
 31
0.0
  0
LINE
  5
1A40
  8
0
 62
     0
 10
140.34201827419989
 20
222.48105846072019
 30
0.0
 11
140.34201827419989
 21
222.48105846072019
 31
0.0
  0
LINE
  5
1A41
  8
0
 62
     0
 10
140.21701827419989
 20
222.48105846072019
 30
0.0
 11
140.21701827419989
 21
222.48105846072019
 31
0.0
  0
LINE
  5
1A42
  8
0
 62
     0
 10
140.09201827419989
 20
222.48105846072019
 30
0.0
 11
140.09201827419989
 21
222.48105846072019
 31
0.0
  0
LINE
  5
1A43
  8
0
 62
     0
 10
139.96701827419989
 20
222.48105846072019
 30
0.0
 11
139.96701827419989
 21
222.48105846072019
 31
0.0
  0
LINE
  5
1A44
  8
0
 62
     0
 10
139.84201827419989
 20
222.48105846072019
 30
0.0
 11
139.84201827419989
 21
222.48105846072019
 31
0.0
  0
LINE
  5
1A45
  8
0
 62
     0
 10
139.7170182742
 20
222.48105846072019
 30
0.0
 11
139.7170182742
 21
222.48105846072019
 31
0.0
  0
LINE
  5
1A46
  8
0
 62
     0
 10
139.5920182742
 20
222.48105846072019
 30
0.0
 11
139.5920182742
 21
222.48105846072019
 31
0.0
  0
LINE
  5
1A47
  8
0
 62
     0
 10
139.4670182742
 20
222.48105846072019
 30
0.0
 11
139.4670182742
 21
222.48105846072019
 31
0.0
  0
LINE
  5
1A48
  8
0
 62
     0
 10
139.3420182742
 20
222.48105846072019
 30
0.0
 11
139.3420182742
 21
222.48105846072019
 31
0.0
  0
LINE
  5
1A49
  8
0
 62
     0
 10
139.21701827419989
 20
222.48105846072019
 30
0.0
 11
139.21701827419989
 21
222.48105846072019
 31
0.0
  0
LINE
  5
1A4A
  8
0
 62
     0
 10
139.09201827419989
 20
222.48105846072019
 30
0.0
 11
139.09201827419989
 21
222.48105846072019
 31
0.0
  0
LINE
  5
1A4B
  8
0
 62
     0
 10
138.96701827419989
 20
222.48105846072019
 30
0.0
 11
138.96701827419989
 21
222.48105846072019
 31
0.0
  0
LINE
  5
1A4C
  8
0
 62
     0
 10
147.65451827419989
 20
222.60605846072019
 30
0.0
 11
147.65451827419989
 21
222.60605846072019
 31
0.0
  0
LINE
  5
1A4D
  8
0
 62
     0
 10
147.5295182742
 20
222.60605846072019
 30
0.0
 11
147.5295182742
 21
222.60605846072019
 31
0.0
  0
LINE
  5
1A4E
  8
0
 62
     0
 10
147.4045182742
 20
222.60605846072019
 30
0.0
 11
147.4045182742
 21
222.60605846072019
 31
0.0
  0
LINE
  5
1A4F
  8
0
 62
     0
 10
147.2795182742
 20
222.60605846072019
 30
0.0
 11
147.2795182742
 21
222.60605846072019
 31
0.0
  0
LINE
  5
1A50
  8
0
 62
     0
 10
147.1545182742
 20
222.60605846072019
 30
0.0
 11
147.1545182742
 21
222.60605846072019
 31
0.0
  0
LINE
  5
1A51
  8
0
 62
     0
 10
147.02951827419989
 20
222.60605846072019
 30
0.0
 11
147.02951827419989
 21
222.60605846072019
 31
0.0
  0
LINE
  5
1A52
  8
0
 62
     0
 10
144.90451827419989
 20
222.60605846072019
 30
0.0
 11
144.90451827419989
 21
222.60605846072019
 31
0.0
  0
LINE
  5
1A53
  8
0
 62
     0
 10
144.77951827419989
 20
222.60605846072019
 30
0.0
 11
144.77951827419989
 21
222.60605846072019
 31
0.0
  0
LINE
  5
1A54
  8
0
 62
     0
 10
144.65451827419989
 20
222.60605846072019
 30
0.0
 11
144.65451827419989
 21
222.60605846072019
 31
0.0
  0
LINE
  5
1A55
  8
0
 62
     0
 10
144.52951827419989
 20
222.60605846072019
 30
0.0
 11
144.52951827419989
 21
222.60605846072019
 31
0.0
  0
LINE
  5
1A56
  8
0
 62
     0
 10
149.65451827419989
 20
222.60605846072019
 30
0.0
 11
149.65451827419989
 21
222.60605846072019
 31
0.0
  0
LINE
  5
1A57
  8
0
 62
     0
 10
149.52951827419989
 20
222.60605846072019
 30
0.0
 11
149.52951827419989
 21
222.60605846072019
 31
0.0
  0
LINE
  5
1A58
  8
0
 62
     0
 10
149.4045182742
 20
222.60605846072019
 30
0.0
 11
149.4045182742
 21
222.60605846072019
 31
0.0
  0
LINE
  5
1A59
  8
0
 62
     0
 10
149.2795182742
 20
222.60605846072019
 30
0.0
 11
149.2795182742
 21
222.60605846072019
 31
0.0
  0
LINE
  5
1A5A
  8
0
 62
     0
 10
142.65451827419989
 20
222.60605846072019
 30
0.0
 11
142.65451827419989
 21
222.60605846072019
 31
0.0
  0
LINE
  5
1A5B
  8
0
 62
     0
 10
142.52951827419989
 20
222.60605846072019
 30
0.0
 11
142.52951827419989
 21
222.60605846072019
 31
0.0
  0
LINE
  5
1A5C
  8
0
 62
     0
 10
142.40451827419989
 20
222.60605846072019
 30
0.0
 11
142.40451827419989
 21
222.60605846072019
 31
0.0
  0
LINE
  5
1A5D
  8
0
 62
     0
 10
142.2795182742
 20
222.60605846072019
 30
0.0
 11
142.2795182742
 21
222.60605846072019
 31
0.0
  0
LINE
  5
1A5E
  8
0
 62
     0
 10
151.90451827419989
 20
222.60605846072019
 30
0.0
 11
151.90451827419989
 21
222.60605846072019
 31
0.0
  0
LINE
  5
1A5F
  8
0
 62
     0
 10
151.77951827419989
 20
222.60605846072019
 30
0.0
 11
151.77951827419989
 21
222.60605846072019
 31
0.0
  0
LINE
  5
1A60
  8
0
 62
     0
 10
151.6545182742
 20
222.60605846072019
 30
0.0
 11
151.6545182742
 21
222.60605846072019
 31
0.0
  0
LINE
  5
1A61
  8
0
 62
     0
 10
151.5295182742
 20
222.60605846072019
 30
0.0
 11
151.5295182742
 21
222.60605846072019
 31
0.0
  0
LINE
  5
1A62
  8
0
 62
     0
 10
141.0295182742
 20
222.60605846072019
 30
0.0
 11
141.0295182742
 21
222.60605846072019
 31
0.0
  0
LINE
  5
1A63
  8
0
 62
     0
 10
140.9045182742
 20
222.60605846072019
 30
0.0
 11
140.9045182742
 21
222.60605846072019
 31
0.0
  0
LINE
  5
1A64
  8
0
 62
     0
 10
140.77951827419989
 20
222.60605846072019
 30
0.0
 11
140.77951827419989
 21
222.60605846072019
 31
0.0
  0
LINE
  5
1A65
  8
0
 62
     0
 10
140.65451827419989
 20
222.60605846072019
 30
0.0
 11
140.65451827419989
 21
222.60605846072019
 31
0.0
  0
LINE
  5
1A66
  8
0
 62
     0
 10
140.52951827419989
 20
222.60605846072019
 30
0.0
 11
140.52951827419989
 21
222.60605846072019
 31
0.0
  0
LINE
  5
1A67
  8
0
 62
     0
 10
140.4045182742
 20
222.60605846072019
 30
0.0
 11
140.4045182742
 21
222.60605846072019
 31
0.0
  0
LINE
  5
1A68
  8
0
 62
     0
 10
140.27951827419989
 20
222.60605846072019
 30
0.0
 11
140.27951827419989
 21
222.60605846072019
 31
0.0
  0
LINE
  5
1A69
  8
0
 62
     0
 10
140.15451827419989
 20
222.60605846072019
 30
0.0
 11
140.15451827419989
 21
222.60605846072019
 31
0.0
  0
LINE
  5
1A6A
  8
0
 62
     0
 10
140.0295182742
 20
222.60605846072019
 30
0.0
 11
140.0295182742
 21
222.60605846072019
 31
0.0
  0
LINE
  5
1A6B
  8
0
 62
     0
 10
139.9045182742
 20
222.60605846072019
 30
0.0
 11
139.9045182742
 21
222.60605846072019
 31
0.0
  0
LINE
  5
1A6C
  8
0
 62
     0
 10
139.77951827419989
 20
222.60605846072019
 30
0.0
 11
139.77951827419989
 21
222.60605846072019
 31
0.0
  0
LINE
  5
1A6D
  8
0
 62
     0
 10
139.65451827419989
 20
222.60605846072019
 30
0.0
 11
139.65451827419989
 21
222.60605846072019
 31
0.0
  0
LINE
  5
1A6E
  8
0
 62
     0
 10
139.52951827419989
 20
222.60605846072019
 30
0.0
 11
139.52951827419989
 21
222.60605846072019
 31
0.0
  0
LINE
  5
1A6F
  8
0
 62
     0
 10
139.40451827419989
 20
222.60605846072019
 30
0.0
 11
139.40451827419989
 21
222.60605846072019
 31
0.0
  0
LINE
  5
1A70
  8
0
 62
     0
 10
139.27951827419989
 20
222.60605846072019
 30
0.0
 11
139.27951827419989
 21
222.60605846072019
 31
0.0
  0
LINE
  5
1A71
  8
0
 62
     0
 10
139.1545182742
 20
222.60605846072019
 30
0.0
 11
139.1545182742
 21
222.60605846072019
 31
0.0
  0
LINE
  5
1A72
  8
0
 62
     0
 10
139.0295182742
 20
222.60605846072019
 30
0.0
 11
139.0295182742
 21
222.60605846072019
 31
0.0
  0
LINE
  5
1A73
  8
0
 62
     0
 10
138.9045182742
 20
222.60605846072019
 30
0.0
 11
138.9045182742
 21
222.60605846072019
 31
0.0
  0
LINE
  5
1A74
  8
0
 62
     0
 10
144.96701827419989
 20
222.73105846072019
 30
0.0
 11
144.96701827419989
 21
222.73105846072019
 31
0.0
  0
LINE
  5
1A75
  8
0
 62
     0
 10
144.84201827419989
 20
222.73105846072019
 30
0.0
 11
144.84201827419989
 21
222.73105846072019
 31
0.0
  0
LINE
  5
1A76
  8
0
 62
     0
 10
144.7170182742
 20
222.73105846072019
 30
0.0
 11
144.7170182742
 21
222.73105846072019
 31
0.0
  0
LINE
  5
1A77
  8
0
 62
     0
 10
144.5920182742
 20
222.73105846072019
 30
0.0
 11
144.5920182742
 21
222.73105846072019
 31
0.0
  0
LINE
  5
1A78
  8
0
 62
     0
 10
147.34201827419989
 20
222.73105846072019
 30
0.0
 11
147.34201827419989
 21
222.73105846072019
 31
0.0
  0
LINE
  5
1A79
  8
0
 62
     0
 10
147.21701827419989
 20
222.73105846072019
 30
0.0
 11
147.21701827419989
 21
222.73105846072019
 31
0.0
  0
LINE
  5
1A7A
  8
0
 62
     0
 10
147.09201827419989
 20
222.73105846072019
 30
0.0
 11
147.09201827419989
 21
222.73105846072019
 31
0.0
  0
LINE
  5
1A7B
  8
0
 62
     0
 10
146.9670182742
 20
222.73105846072019
 30
0.0
 11
146.9670182742
 21
222.73105846072019
 31
0.0
  0
LINE
  5
1A7C
  8
0
 62
     0
 10
146.8420182742
 20
222.73105846072019
 30
0.0
 11
146.8420182742
 21
222.73105846072019
 31
0.0
  0
LINE
  5
1A7D
  8
0
 62
     0
 10
146.7170182742
 20
222.73105846072019
 30
0.0
 11
146.7170182742
 21
222.73105846072019
 31
0.0
  0
LINE
  5
1A7E
  8
0
 62
     0
 10
142.7170182742
 20
222.73105846072019
 30
0.0
 11
142.7170182742
 21
222.73105846072019
 31
0.0
  0
LINE
  5
1A7F
  8
0
 62
     0
 10
142.5920182742
 20
222.73105846072019
 30
0.0
 11
142.5920182742
 21
222.73105846072019
 31
0.0
  0
LINE
  5
1A80
  8
0
 62
     0
 10
142.4670182742
 20
222.73105846072019
 30
0.0
 11
142.4670182742
 21
222.73105846072019
 31
0.0
  0
LINE
  5
1A81
  8
0
 62
     0
 10
142.34201827419989
 20
222.73105846072019
 30
0.0
 11
142.34201827419989
 21
222.73105846072019
 31
0.0
  0
LINE
  5
1A82
  8
0
 62
     0
 10
151.9670182742
 20
222.73105846072019
 30
0.0
 11
151.9670182742
 21
222.73105846072019
 31
0.0
  0
LINE
  5
1A83
  8
0
 62
     0
 10
151.8420182742
 20
222.73105846072019
 30
0.0
 11
151.8420182742
 21
222.73105846072019
 31
0.0
  0
LINE
  5
1A84
  8
0
 62
     0
 10
151.71701827419989
 20
222.73105846072019
 30
0.0
 11
151.71701827419989
 21
222.73105846072019
 31
0.0
  0
LINE
  5
1A85
  8
0
 62
     0
 10
151.59201827419989
 20
222.73105846072019
 30
0.0
 11
151.59201827419989
 21
222.73105846072019
 31
0.0
  0
LINE
  5
1A86
  8
0
 62
     0
 10
151.46701827419989
 20
222.73105846072019
 30
0.0
 11
151.46701827419989
 21
222.73105846072019
 31
0.0
  0
LINE
  5
1A87
  8
0
 62
     0
 10
151.3420182742
 20
222.73105846072019
 30
0.0
 11
151.3420182742
 21
222.73105846072019
 31
0.0
  0
LINE
  5
1A88
  8
0
 62
     0
 10
151.21701827419989
 20
222.73105846072019
 30
0.0
 11
151.21701827419989
 21
222.73105846072019
 31
0.0
  0
LINE
  5
1A89
  8
0
 62
     0
 10
151.09201827419989
 20
222.73105846072019
 30
0.0
 11
151.09201827419989
 21
222.73105846072019
 31
0.0
  0
LINE
  5
1A8A
  8
0
 62
     0
 10
150.9670182742
 20
222.73105846072019
 30
0.0
 11
150.9670182742
 21
222.73105846072019
 31
0.0
  0
LINE
  5
1A8B
  8
0
 62
     0
 10
150.8420182742
 20
222.73105846072019
 30
0.0
 11
150.8420182742
 21
222.73105846072019
 31
0.0
  0
LINE
  5
1A8C
  8
0
 62
     0
 10
150.71701827419989
 20
222.73105846072019
 30
0.0
 11
150.71701827419989
 21
222.73105846072019
 31
0.0
  0
LINE
  5
1A8D
  8
0
 62
     0
 10
150.59201827419989
 20
222.73105846072019
 30
0.0
 11
150.59201827419989
 21
222.73105846072019
 31
0.0
  0
LINE
  5
1A8E
  8
0
 62
     0
 10
150.46701827419989
 20
222.73105846072019
 30
0.0
 11
150.46701827419989
 21
222.73105846072019
 31
0.0
  0
LINE
  5
1A8F
  8
0
 62
     0
 10
150.34201827419989
 20
222.73105846072019
 30
0.0
 11
150.34201827419989
 21
222.73105846072019
 31
0.0
  0
LINE
  5
1A90
  8
0
 62
     0
 10
150.21701827419989
 20
222.73105846072019
 30
0.0
 11
150.21701827419989
 21
222.73105846072019
 31
0.0
  0
LINE
  5
1A91
  8
0
 62
     0
 10
150.0920182742
 20
222.73105846072019
 30
0.0
 11
150.0920182742
 21
222.73105846072019
 31
0.0
  0
LINE
  5
1A92
  8
0
 62
     0
 10
149.9670182742
 20
222.73105846072019
 30
0.0
 11
149.9670182742
 21
222.73105846072019
 31
0.0
  0
LINE
  5
1A93
  8
0
 62
     0
 10
149.8420182742
 20
222.73105846072019
 30
0.0
 11
149.8420182742
 21
222.73105846072019
 31
0.0
  0
LINE
  5
1A94
  8
0
 62
     0
 10
149.7170182742
 20
222.73105846072019
 30
0.0
 11
149.7170182742
 21
222.73105846072019
 31
0.0
  0
LINE
  5
1A95
  8
0
 62
     0
 10
149.59201827419989
 20
222.73105846072019
 30
0.0
 11
149.59201827419989
 21
222.73105846072019
 31
0.0
  0
LINE
  5
1A96
  8
0
 62
     0
 10
149.46701827419989
 20
222.73105846072019
 30
0.0
 11
149.46701827419989
 21
222.73105846072019
 31
0.0
  0
LINE
  5
1A97
  8
0
 62
     0
 10
149.34201827419989
 20
222.73105846072019
 30
0.0
 11
149.34201827419989
 21
222.73105846072019
 31
0.0
  0
LINE
  5
1A98
  8
0
 62
     0
 10
149.21701827419989
 20
222.73105846072019
 30
0.0
 11
149.21701827419989
 21
222.73105846072019
 31
0.0
  0
LINE
  5
1A99
  8
0
 62
     0
 10
141.21701827419989
 20
222.73105846072019
 30
0.0
 11
141.21701827419989
 21
222.73105846072019
 31
0.0
  0
LINE
  5
1A9A
  8
0
 62
     0
 10
141.09201827419989
 20
222.73105846072019
 30
0.0
 11
141.09201827419989
 21
222.73105846072019
 31
0.0
  0
LINE
  5
1A9B
  8
0
 62
     0
 10
140.96701827419989
 20
222.73105846072019
 30
0.0
 11
140.96701827419989
 21
222.73105846072019
 31
0.0
  0
LINE
  5
1A9C
  8
0
 62
     0
 10
140.84201827419989
 20
222.73105846072019
 30
0.0
 11
140.84201827419989
 21
222.73105846072019
 31
0.0
  0
LINE
  5
1A9D
  8
0
 62
     0
 10
140.7170182742
 20
222.73105846072019
 30
0.0
 11
140.7170182742
 21
222.73105846072019
 31
0.0
  0
LINE
  5
1A9E
  8
0
 62
     0
 10
140.5920182742
 20
222.73105846072019
 30
0.0
 11
140.5920182742
 21
222.73105846072019
 31
0.0
  0
LINE
  5
1A9F
  8
0
 62
     0
 10
140.4670182742
 20
222.73105846072019
 30
0.0
 11
140.4670182742
 21
222.73105846072019
 31
0.0
  0
LINE
  5
1AA0
  8
0
 62
     0
 10
140.34201827419989
 20
222.73105846072019
 30
0.0
 11
140.34201827419989
 21
222.73105846072019
 31
0.0
  0
LINE
  5
1AA1
  8
0
 62
     0
 10
140.21701827419989
 20
222.73105846072019
 30
0.0
 11
140.21701827419989
 21
222.73105846072019
 31
0.0
  0
LINE
  5
1AA2
  8
0
 62
     0
 10
140.09201827419989
 20
222.73105846072019
 30
0.0
 11
140.09201827419989
 21
222.73105846072019
 31
0.0
  0
LINE
  5
1AA3
  8
0
 62
     0
 10
139.96701827419989
 20
222.73105846072019
 30
0.0
 11
139.96701827419989
 21
222.73105846072019
 31
0.0
  0
LINE
  5
1AA4
  8
0
 62
     0
 10
139.84201827419989
 20
222.73105846072019
 30
0.0
 11
139.84201827419989
 21
222.73105846072019
 31
0.0
  0
LINE
  5
1AA5
  8
0
 62
     0
 10
139.7170182742
 20
222.73105846072019
 30
0.0
 11
139.7170182742
 21
222.73105846072019
 31
0.0
  0
LINE
  5
1AA6
  8
0
 62
     0
 10
139.5920182742
 20
222.73105846072019
 30
0.0
 11
139.5920182742
 21
222.73105846072019
 31
0.0
  0
LINE
  5
1AA7
  8
0
 62
     0
 10
139.4670182742
 20
222.73105846072019
 30
0.0
 11
139.4670182742
 21
222.73105846072019
 31
0.0
  0
LINE
  5
1AA8
  8
0
 62
     0
 10
139.3420182742
 20
222.73105846072019
 30
0.0
 11
139.3420182742
 21
222.73105846072019
 31
0.0
  0
LINE
  5
1AA9
  8
0
 62
     0
 10
139.21701827419989
 20
222.73105846072019
 30
0.0
 11
139.21701827419989
 21
222.73105846072019
 31
0.0
  0
LINE
  5
1AAA
  8
0
 62
     0
 10
139.09201827419989
 20
222.73105846072019
 30
0.0
 11
139.09201827419989
 21
222.73105846072019
 31
0.0
  0
LINE
  5
1AAB
  8
0
 62
     0
 10
138.96701827419989
 20
222.73105846072019
 30
0.0
 11
138.96701827419989
 21
222.73105846072019
 31
0.0
  0
LINE
  5
1AAC
  8
0
 62
     0
 10
144.90451827419989
 20
222.85605846072019
 30
0.0
 11
144.90451827419989
 21
222.85605846072019
 31
0.0
  0
LINE
  5
1AAD
  8
0
 62
     0
 10
144.77951827419989
 20
222.85605846072019
 30
0.0
 11
144.77951827419989
 21
222.85605846072019
 31
0.0
  0
LINE
  5
1AAE
  8
0
 62
     0
 10
144.65451827419989
 20
222.85605846072019
 30
0.0
 11
144.65451827419989
 21
222.85605846072019
 31
0.0
  0
LINE
  5
1AAF
  8
0
 62
     0
 10
144.52951827419989
 20
222.85605846072019
 30
0.0
 11
144.52951827419989
 21
222.85605846072019
 31
0.0
  0
LINE
  5
1AB0
  8
0
 62
     0
 10
142.65451827419989
 20
222.85605846072019
 30
0.0
 11
142.65451827419989
 21
222.85605846072019
 31
0.0
  0
LINE
  5
1AB1
  8
0
 62
     0
 10
142.52951827419989
 20
222.85605846072019
 30
0.0
 11
142.52951827419989
 21
222.85605846072019
 31
0.0
  0
LINE
  5
1AB2
  8
0
 62
     0
 10
142.40451827419989
 20
222.85605846072019
 30
0.0
 11
142.40451827419989
 21
222.85605846072019
 31
0.0
  0
LINE
  5
1AB3
  8
0
 62
     0
 10
142.2795182742
 20
222.85605846072019
 30
0.0
 11
142.2795182742
 21
222.85605846072019
 31
0.0
  0
LINE
  5
1AB4
  8
0
 62
     0
 10
147.1545182742
 20
222.85605846072019
 30
0.0
 11
147.1545182742
 21
222.85605846072019
 31
0.0
  0
LINE
  5
1AB5
  8
0
 62
     0
 10
147.02951827419989
 20
222.85605846072019
 30
0.0
 11
147.02951827419989
 21
222.85605846072019
 31
0.0
  0
LINE
  5
1AB6
  8
0
 62
     0
 10
146.90451827419989
 20
222.85605846072019
 30
0.0
 11
146.90451827419989
 21
222.85605846072019
 31
0.0
  0
LINE
  5
1AB7
  8
0
 62
     0
 10
146.77951827419989
 20
222.85605846072019
 30
0.0
 11
146.77951827419989
 21
222.85605846072019
 31
0.0
  0
LINE
  5
1AB8
  8
0
 62
     0
 10
146.6545182742
 20
222.85605846072019
 30
0.0
 11
146.6545182742
 21
222.85605846072019
 31
0.0
  0
LINE
  5
1AB9
  8
0
 62
     0
 10
146.52951827419989
 20
222.85605846072019
 30
0.0
 11
146.52951827419989
 21
222.85605846072019
 31
0.0
  0
LINE
  5
1ABA
  8
0
 62
     0
 10
141.40451827419989
 20
222.85605846072019
 30
0.0
 11
141.40451827419989
 21
222.85605846072019
 31
0.0
  0
LINE
  5
1ABB
  8
0
 62
     0
 10
141.2795182742
 20
222.85605846072019
 30
0.0
 11
141.2795182742
 21
222.85605846072019
 31
0.0
  0
LINE
  5
1ABC
  8
0
 62
     0
 10
141.1545182742
 20
222.85605846072019
 30
0.0
 11
141.1545182742
 21
222.85605846072019
 31
0.0
  0
LINE
  5
1ABD
  8
0
 62
     0
 10
141.0295182742
 20
222.85605846072019
 30
0.0
 11
141.0295182742
 21
222.85605846072019
 31
0.0
  0
LINE
  5
1ABE
  8
0
 62
     0
 10
140.9045182742
 20
222.85605846072019
 30
0.0
 11
140.9045182742
 21
222.85605846072019
 31
0.0
  0
LINE
  5
1ABF
  8
0
 62
     0
 10
140.77951827419989
 20
222.85605846072019
 30
0.0
 11
140.77951827419989
 21
222.85605846072019
 31
0.0
  0
LINE
  5
1AC0
  8
0
 62
     0
 10
151.90451827419989
 20
222.85605846072019
 30
0.0
 11
151.90451827419989
 21
222.85605846072019
 31
0.0
  0
LINE
  5
1AC1
  8
0
 62
     0
 10
151.77951827419989
 20
222.85605846072019
 30
0.0
 11
151.77951827419989
 21
222.85605846072019
 31
0.0
  0
LINE
  5
1AC2
  8
0
 62
     0
 10
151.6545182742
 20
222.85605846072019
 30
0.0
 11
151.6545182742
 21
222.85605846072019
 31
0.0
  0
LINE
  5
1AC3
  8
0
 62
     0
 10
151.5295182742
 20
222.85605846072019
 30
0.0
 11
151.5295182742
 21
222.85605846072019
 31
0.0
  0
LINE
  5
1AC4
  8
0
 62
     0
 10
151.4045182742
 20
222.85605846072019
 30
0.0
 11
151.4045182742
 21
222.85605846072019
 31
0.0
  0
LINE
  5
1AC5
  8
0
 62
     0
 10
151.2795182742
 20
222.85605846072019
 30
0.0
 11
151.2795182742
 21
222.85605846072019
 31
0.0
  0
LINE
  5
1AC6
  8
0
 62
     0
 10
151.15451827419989
 20
222.85605846072019
 30
0.0
 11
151.15451827419989
 21
222.85605846072019
 31
0.0
  0
LINE
  5
1AC7
  8
0
 62
     0
 10
151.02951827419989
 20
222.85605846072019
 30
0.0
 11
151.02951827419989
 21
222.85605846072019
 31
0.0
  0
LINE
  5
1AC8
  8
0
 62
     0
 10
150.90451827419989
 20
222.85605846072019
 30
0.0
 11
150.90451827419989
 21
222.85605846072019
 31
0.0
  0
LINE
  5
1AC9
  8
0
 62
     0
 10
150.77951827419989
 20
222.85605846072019
 30
0.0
 11
150.77951827419989
 21
222.85605846072019
 31
0.0
  0
LINE
  5
1ACA
  8
0
 62
     0
 10
150.6545182742
 20
222.85605846072019
 30
0.0
 11
150.6545182742
 21
222.85605846072019
 31
0.0
  0
LINE
  5
1ACB
  8
0
 62
     0
 10
150.5295182742
 20
222.85605846072019
 30
0.0
 11
150.5295182742
 21
222.85605846072019
 31
0.0
  0
LINE
  5
1ACC
  8
0
 62
     0
 10
150.4045182742
 20
222.85605846072019
 30
0.0
 11
150.4045182742
 21
222.85605846072019
 31
0.0
  0
LINE
  5
1ACD
  8
0
 62
     0
 10
150.2795182742
 20
222.85605846072019
 30
0.0
 11
150.2795182742
 21
222.85605846072019
 31
0.0
  0
LINE
  5
1ACE
  8
0
 62
     0
 10
150.15451827419989
 20
222.85605846072019
 30
0.0
 11
150.15451827419989
 21
222.85605846072019
 31
0.0
  0
LINE
  5
1ACF
  8
0
 62
     0
 10
150.02951827419989
 20
222.85605846072019
 30
0.0
 11
150.02951827419989
 21
222.85605846072019
 31
0.0
  0
LINE
  5
1AD0
  8
0
 62
     0
 10
149.90451827419989
 20
222.85605846072019
 30
0.0
 11
149.90451827419989
 21
222.85605846072019
 31
0.0
  0
LINE
  5
1AD1
  8
0
 62
     0
 10
149.7795182742
 20
222.85605846072019
 30
0.0
 11
149.7795182742
 21
222.85605846072019
 31
0.0
  0
LINE
  5
1AD2
  8
0
 62
     0
 10
149.65451827419989
 20
222.85605846072019
 30
0.0
 11
149.65451827419989
 21
222.85605846072019
 31
0.0
  0
LINE
  5
1AD3
  8
0
 62
     0
 10
149.52951827419989
 20
222.85605846072019
 30
0.0
 11
149.52951827419989
 21
222.85605846072019
 31
0.0
  0
LINE
  5
1AD4
  8
0
 62
     0
 10
149.4045182742
 20
222.85605846072019
 30
0.0
 11
149.4045182742
 21
222.85605846072019
 31
0.0
  0
LINE
  5
1AD5
  8
0
 62
     0
 10
149.2795182742
 20
222.85605846072019
 30
0.0
 11
149.2795182742
 21
222.85605846072019
 31
0.0
  0
LINE
  5
1AD6
  8
0
 62
     0
 10
139.27951827419989
 20
222.85605846072019
 30
0.0
 11
139.27951827419989
 21
222.85605846072019
 31
0.0
  0
LINE
  5
1AD7
  8
0
 62
     0
 10
139.1545182742
 20
222.85605846072019
 30
0.0
 11
139.1545182742
 21
222.85605846072019
 31
0.0
  0
LINE
  5
1AD8
  8
0
 62
     0
 10
139.0295182742
 20
222.85605846072019
 30
0.0
 11
139.0295182742
 21
222.85605846072019
 31
0.0
  0
LINE
  5
1AD9
  8
0
 62
     0
 10
138.9045182742
 20
222.85605846072019
 30
0.0
 11
138.9045182742
 21
222.85605846072019
 31
0.0
  0
LINE
  5
1ADA
  8
0
 62
     0
 10
144.96701827419989
 20
222.98105846072019
 30
0.0
 11
144.96701827419989
 21
222.98105846072019
 31
0.0
  0
LINE
  5
1ADB
  8
0
 62
     0
 10
144.84201827419989
 20
222.98105846072019
 30
0.0
 11
144.84201827419989
 21
222.98105846072019
 31
0.0
  0
LINE
  5
1ADC
  8
0
 62
     0
 10
144.7170182742
 20
222.98105846072019
 30
0.0
 11
144.7170182742
 21
222.98105846072019
 31
0.0
  0
LINE
  5
1ADD
  8
0
 62
     0
 10
144.5920182742
 20
222.98105846072019
 30
0.0
 11
144.5920182742
 21
222.98105846072019
 31
0.0
  0
LINE
  5
1ADE
  8
0
 62
     0
 10
146.8420182742
 20
222.98105846072019
 30
0.0
 11
146.8420182742
 21
222.98105846072019
 31
0.0
  0
LINE
  5
1ADF
  8
0
 62
     0
 10
146.7170182742
 20
222.98105846072019
 30
0.0
 11
146.7170182742
 21
222.98105846072019
 31
0.0
  0
LINE
  5
1AE0
  8
0
 62
     0
 10
146.59201827419989
 20
222.98105846072019
 30
0.0
 11
146.59201827419989
 21
222.98105846072019
 31
0.0
  0
LINE
  5
1AE1
  8
0
 62
     0
 10
146.46701827419989
 20
222.98105846072019
 30
0.0
 11
146.46701827419989
 21
222.98105846072019
 31
0.0
  0
LINE
  5
1AE2
  8
0
 62
     0
 10
146.34201827419989
 20
222.98105846072019
 30
0.0
 11
146.34201827419989
 21
222.98105846072019
 31
0.0
  0
LINE
  5
1AE3
  8
0
 62
     0
 10
146.21701827419989
 20
222.98105846072019
 30
0.0
 11
146.21701827419989
 21
222.98105846072019
 31
0.0
  0
LINE
  5
1AE4
  8
0
 62
     0
 10
142.7170182742
 20
222.98105846072019
 30
0.0
 11
142.7170182742
 21
222.98105846072019
 31
0.0
  0
LINE
  5
1AE5
  8
0
 62
     0
 10
142.5920182742
 20
222.98105846072019
 30
0.0
 11
142.5920182742
 21
222.98105846072019
 31
0.0
  0
LINE
  5
1AE6
  8
0
 62
     0
 10
142.4670182742
 20
222.98105846072019
 30
0.0
 11
142.4670182742
 21
222.98105846072019
 31
0.0
  0
LINE
  5
1AE7
  8
0
 62
     0
 10
142.34201827419989
 20
222.98105846072019
 30
0.0
 11
142.34201827419989
 21
222.98105846072019
 31
0.0
  0
LINE
  5
1AE8
  8
0
 62
     0
 10
149.59201827419989
 20
222.98105846072019
 30
0.0
 11
149.59201827419989
 21
222.98105846072019
 31
0.0
  0
LINE
  5
1AE9
  8
0
 62
     0
 10
149.46701827419989
 20
222.98105846072019
 30
0.0
 11
149.46701827419989
 21
222.98105846072019
 31
0.0
  0
LINE
  5
1AEA
  8
0
 62
     0
 10
149.34201827419989
 20
222.98105846072019
 30
0.0
 11
149.34201827419989
 21
222.98105846072019
 31
0.0
  0
LINE
  5
1AEB
  8
0
 62
     0
 10
149.21701827419989
 20
222.98105846072019
 30
0.0
 11
149.21701827419989
 21
222.98105846072019
 31
0.0
  0
LINE
  5
1AEC
  8
0
 62
     0
 10
141.4670182742
 20
222.98105846072019
 30
0.0
 11
141.4670182742
 21
222.98105846072019
 31
0.0
  0
LINE
  5
1AED
  8
0
 62
     0
 10
141.34201827419989
 20
222.98105846072019
 30
0.0
 11
141.34201827419989
 21
222.98105846072019
 31
0.0
  0
LINE
  5
1AEE
  8
0
 62
     0
 10
141.21701827419989
 20
222.98105846072019
 30
0.0
 11
141.21701827419989
 21
222.98105846072019
 31
0.0
  0
LINE
  5
1AEF
  8
0
 62
     0
 10
141.09201827419989
 20
222.98105846072019
 30
0.0
 11
141.09201827419989
 21
222.98105846072019
 31
0.0
  0
LINE
  5
1AF0
  8
0
 62
     0
 10
140.96701827419989
 20
222.98105846072019
 30
0.0
 11
140.96701827419989
 21
222.98105846072019
 31
0.0
  0
LINE
  5
1AF1
  8
0
 62
     0
 10
151.9670182742
 20
222.98105846072019
 30
0.0
 11
151.9670182742
 21
222.98105846072019
 31
0.0
  0
LINE
  5
1AF2
  8
0
 62
     0
 10
151.8420182742
 20
222.98105846072019
 30
0.0
 11
151.8420182742
 21
222.98105846072019
 31
0.0
  0
LINE
  5
1AF3
  8
0
 62
     0
 10
151.71701827419989
 20
222.98105846072019
 30
0.0
 11
151.71701827419989
 21
222.98105846072019
 31
0.0
  0
LINE
  5
1AF4
  8
0
 62
     0
 10
151.59201827419989
 20
222.98105846072019
 30
0.0
 11
151.59201827419989
 21
222.98105846072019
 31
0.0
  0
LINE
  5
1AF5
  8
0
 62
     0
 10
139.3420182742
 20
222.98105846072019
 30
0.0
 11
139.3420182742
 21
222.98105846072019
 31
0.0
  0
LINE
  5
1AF6
  8
0
 62
     0
 10
139.21701827419989
 20
222.98105846072019
 30
0.0
 11
139.21701827419989
 21
222.98105846072019
 31
0.0
  0
LINE
  5
1AF7
  8
0
 62
     0
 10
139.09201827419989
 20
222.98105846072019
 30
0.0
 11
139.09201827419989
 21
222.98105846072019
 31
0.0
  0
LINE
  5
1AF8
  8
0
 62
     0
 10
138.96701827419989
 20
222.98105846072019
 30
0.0
 11
138.96701827419989
 21
222.98105846072019
 31
0.0
  0
LINE
  5
1AF9
  8
0
 62
     0
 10
144.90451827419989
 20
223.10605846072019
 30
0.0
 11
144.90451827419989
 21
223.10605846072019
 31
0.0
  0
LINE
  5
1AFA
  8
0
 62
     0
 10
144.77951827419989
 20
223.10605846072019
 30
0.0
 11
144.77951827419989
 21
223.10605846072019
 31
0.0
  0
LINE
  5
1AFB
  8
0
 62
     0
 10
144.65451827419989
 20
223.10605846072019
 30
0.0
 11
144.65451827419989
 21
223.10605846072019
 31
0.0
  0
LINE
  5
1AFC
  8
0
 62
     0
 10
144.52951827419989
 20
223.10605846072019
 30
0.0
 11
144.52951827419989
 21
223.10605846072019
 31
0.0
  0
LINE
  5
1AFD
  8
0
 62
     0
 10
146.52951827419989
 20
223.10605846072019
 30
0.0
 11
146.52951827419989
 21
223.10605846072019
 31
0.0
  0
LINE
  5
1AFE
  8
0
 62
     0
 10
146.40451827419989
 20
223.10605846072019
 30
0.0
 11
146.40451827419989
 21
223.10605846072019
 31
0.0
  0
LINE
  5
1AFF
  8
0
 62
     0
 10
146.2795182742
 20
223.10605846072019
 30
0.0
 11
146.2795182742
 21
223.10605846072019
 31
0.0
  0
LINE
  5
1B00
  8
0
 62
     0
 10
146.1545182742
 20
223.10605846072019
 30
0.0
 11
146.1545182742
 21
223.10605846072019
 31
0.0
  0
LINE
  5
1B01
  8
0
 62
     0
 10
146.02951827419989
 20
223.10605846072019
 30
0.0
 11
146.02951827419989
 21
223.10605846072019
 31
0.0
  0
LINE
  5
1B02
  8
0
 62
     0
 10
142.65451827419989
 20
223.10605846072019
 30
0.0
 11
142.65451827419989
 21
223.10605846072019
 31
0.0
  0
LINE
  5
1B03
  8
0
 62
     0
 10
142.52951827419989
 20
223.10605846072019
 30
0.0
 11
142.52951827419989
 21
223.10605846072019
 31
0.0
  0
LINE
  5
1B04
  8
0
 62
     0
 10
142.40451827419989
 20
223.10605846072019
 30
0.0
 11
142.40451827419989
 21
223.10605846072019
 31
0.0
  0
LINE
  5
1B05
  8
0
 62
     0
 10
142.2795182742
 20
223.10605846072019
 30
0.0
 11
142.2795182742
 21
223.10605846072019
 31
0.0
  0
LINE
  5
1B06
  8
0
 62
     0
 10
149.65451827419989
 20
223.10605846072019
 30
0.0
 11
149.65451827419989
 21
223.10605846072019
 31
0.0
  0
LINE
  5
1B07
  8
0
 62
     0
 10
149.52951827419989
 20
223.10605846072019
 30
0.0
 11
149.52951827419989
 21
223.10605846072019
 31
0.0
  0
LINE
  5
1B08
  8
0
 62
     0
 10
149.4045182742
 20
223.10605846072019
 30
0.0
 11
149.4045182742
 21
223.10605846072019
 31
0.0
  0
LINE
  5
1B09
  8
0
 62
     0
 10
149.2795182742
 20
223.10605846072019
 30
0.0
 11
149.2795182742
 21
223.10605846072019
 31
0.0
  0
LINE
  5
1B0A
  8
0
 62
     0
 10
141.52951827419989
 20
223.10605846072019
 30
0.0
 11
141.52951827419989
 21
223.10605846072019
 31
0.0
  0
LINE
  5
1B0B
  8
0
 62
     0
 10
141.40451827419989
 20
223.10605846072019
 30
0.0
 11
141.40451827419989
 21
223.10605846072019
 31
0.0
  0
LINE
  5
1B0C
  8
0
 62
     0
 10
141.2795182742
 20
223.10605846072019
 30
0.0
 11
141.2795182742
 21
223.10605846072019
 31
0.0
  0
LINE
  5
1B0D
  8
0
 62
     0
 10
141.1545182742
 20
223.10605846072019
 30
0.0
 11
141.1545182742
 21
223.10605846072019
 31
0.0
  0
LINE
  5
1B0E
  8
0
 62
     0
 10
151.90451827419989
 20
223.10605846072019
 30
0.0
 11
151.90451827419989
 21
223.10605846072019
 31
0.0
  0
LINE
  5
1B0F
  8
0
 62
     0
 10
151.77951827419989
 20
223.10605846072019
 30
0.0
 11
151.77951827419989
 21
223.10605846072019
 31
0.0
  0
LINE
  5
1B10
  8
0
 62
     0
 10
151.6545182742
 20
223.10605846072019
 30
0.0
 11
151.6545182742
 21
223.10605846072019
 31
0.0
  0
LINE
  5
1B11
  8
0
 62
     0
 10
151.5295182742
 20
223.10605846072019
 30
0.0
 11
151.5295182742
 21
223.10605846072019
 31
0.0
  0
LINE
  5
1B12
  8
0
 62
     0
 10
139.27951827419989
 20
223.10605846072019
 30
0.0
 11
139.27951827419989
 21
223.10605846072019
 31
0.0
  0
LINE
  5
1B13
  8
0
 62
     0
 10
139.1545182742
 20
223.10605846072019
 30
0.0
 11
139.1545182742
 21
223.10605846072019
 31
0.0
  0
LINE
  5
1B14
  8
0
 62
     0
 10
139.0295182742
 20
223.10605846072019
 30
0.0
 11
139.0295182742
 21
223.10605846072019
 31
0.0
  0
LINE
  5
1B15
  8
0
 62
     0
 10
138.9045182742
 20
223.10605846072019
 30
0.0
 11
138.9045182742
 21
223.10605846072019
 31
0.0
  0
LINE
  5
1B16
  8
0
 62
     0
 10
144.96701827419989
 20
223.23105846072019
 30
0.0
 11
144.96701827419989
 21
223.23105846072019
 31
0.0
  0
LINE
  5
1B17
  8
0
 62
     0
 10
144.84201827419989
 20
223.23105846072019
 30
0.0
 11
144.84201827419989
 21
223.23105846072019
 31
0.0
  0
LINE
  5
1B18
  8
0
 62
     0
 10
144.7170182742
 20
223.23105846072019
 30
0.0
 11
144.7170182742
 21
223.23105846072019
 31
0.0
  0
LINE
  5
1B19
  8
0
 62
     0
 10
144.5920182742
 20
223.23105846072019
 30
0.0
 11
144.5920182742
 21
223.23105846072019
 31
0.0
  0
LINE
  5
1B1A
  8
0
 62
     0
 10
146.34201827419989
 20
223.23105846072019
 30
0.0
 11
146.34201827419989
 21
223.23105846072019
 31
0.0
  0
LINE
  5
1B1B
  8
0
 62
     0
 10
146.21701827419989
 20
223.23105846072019
 30
0.0
 11
146.21701827419989
 21
223.23105846072019
 31
0.0
  0
LINE
  5
1B1C
  8
0
 62
     0
 10
146.09201827419989
 20
223.23105846072019
 30
0.0
 11
146.09201827419989
 21
223.23105846072019
 31
0.0
  0
LINE
  5
1B1D
  8
0
 62
     0
 10
145.9670182742
 20
223.23105846072019
 30
0.0
 11
145.9670182742
 21
223.23105846072019
 31
0.0
  0
LINE
  5
1B1E
  8
0
 62
     0
 10
142.7170182742
 20
223.23105846072019
 30
0.0
 11
142.7170182742
 21
223.23105846072019
 31
0.0
  0
LINE
  5
1B1F
  8
0
 62
     0
 10
142.5920182742
 20
223.23105846072019
 30
0.0
 11
142.5920182742
 21
223.23105846072019
 31
0.0
  0
LINE
  5
1B20
  8
0
 62
     0
 10
142.4670182742
 20
223.23105846072019
 30
0.0
 11
142.4670182742
 21
223.23105846072019
 31
0.0
  0
LINE
  5
1B21
  8
0
 62
     0
 10
142.34201827419989
 20
223.23105846072019
 30
0.0
 11
142.34201827419989
 21
223.23105846072019
 31
0.0
  0
LINE
  5
1B22
  8
0
 62
     0
 10
149.59201827419989
 20
223.23105846072019
 30
0.0
 11
149.59201827419989
 21
223.23105846072019
 31
0.0
  0
LINE
  5
1B23
  8
0
 62
     0
 10
149.46701827419989
 20
223.23105846072019
 30
0.0
 11
149.46701827419989
 21
223.23105846072019
 31
0.0
  0
LINE
  5
1B24
  8
0
 62
     0
 10
149.34201827419989
 20
223.23105846072019
 30
0.0
 11
149.34201827419989
 21
223.23105846072019
 31
0.0
  0
LINE
  5
1B25
  8
0
 62
     0
 10
149.21701827419989
 20
223.23105846072019
 30
0.0
 11
149.21701827419989
 21
223.23105846072019
 31
0.0
  0
LINE
  5
1B26
  8
0
 62
     0
 10
141.5920182742
 20
223.23105846072019
 30
0.0
 11
141.5920182742
 21
223.23105846072019
 31
0.0
  0
LINE
  5
1B27
  8
0
 62
     0
 10
141.4670182742
 20
223.23105846072019
 30
0.0
 11
141.4670182742
 21
223.23105846072019
 31
0.0
  0
LINE
  5
1B28
  8
0
 62
     0
 10
141.34201827419989
 20
223.23105846072019
 30
0.0
 11
141.34201827419989
 21
223.23105846072019
 31
0.0
  0
LINE
  5
1B29
  8
0
 62
     0
 10
141.21701827419989
 20
223.23105846072019
 30
0.0
 11
141.21701827419989
 21
223.23105846072019
 31
0.0
  0
LINE
  5
1B2A
  8
0
 62
     0
 10
151.9670182742
 20
223.23105846072019
 30
0.0
 11
151.9670182742
 21
223.23105846072019
 31
0.0
  0
LINE
  5
1B2B
  8
0
 62
     0
 10
151.8420182742
 20
223.23105846072019
 30
0.0
 11
151.8420182742
 21
223.23105846072019
 31
0.0
  0
LINE
  5
1B2C
  8
0
 62
     0
 10
151.71701827419989
 20
223.23105846072019
 30
0.0
 11
151.71701827419989
 21
223.23105846072019
 31
0.0
  0
LINE
  5
1B2D
  8
0
 62
     0
 10
151.59201827419989
 20
223.23105846072019
 30
0.0
 11
151.59201827419989
 21
223.23105846072019
 31
0.0
  0
LINE
  5
1B2E
  8
0
 62
     0
 10
139.3420182742
 20
223.23105846072019
 30
0.0
 11
139.3420182742
 21
223.23105846072019
 31
0.0
  0
LINE
  5
1B2F
  8
0
 62
     0
 10
139.21701827419989
 20
223.23105846072019
 30
0.0
 11
139.21701827419989
 21
223.23105846072019
 31
0.0
  0
LINE
  5
1B30
  8
0
 62
     0
 10
139.09201827419989
 20
223.23105846072019
 30
0.0
 11
139.09201827419989
 21
223.23105846072019
 31
0.0
  0
LINE
  5
1B31
  8
0
 62
     0
 10
138.96701827419989
 20
223.23105846072019
 30
0.0
 11
138.96701827419989
 21
223.23105846072019
 31
0.0
  0
LINE
  5
1B32
  8
0
 62
     0
 10
146.2795182742
 20
223.35605846072019
 30
0.0
 11
146.2795182742
 21
223.35605846072019
 31
0.0
  0
LINE
  5
1B33
  8
0
 62
     0
 10
146.1545182742
 20
223.35605846072019
 30
0.0
 11
146.1545182742
 21
223.35605846072019
 31
0.0
  0
LINE
  5
1B34
  8
0
 62
     0
 10
146.02951827419989
 20
223.35605846072019
 30
0.0
 11
146.02951827419989
 21
223.35605846072019
 31
0.0
  0
LINE
  5
1B35
  8
0
 62
     0
 10
145.90451827419989
 20
223.35605846072019
 30
0.0
 11
145.90451827419989
 21
223.35605846072019
 31
0.0
  0
LINE
  5
1B36
  8
0
 62
     0
 10
144.90451827419989
 20
223.35605846072019
 30
0.0
 11
144.90451827419989
 21
223.35605846072019
 31
0.0
  0
LINE
  5
1B37
  8
0
 62
     0
 10
144.77951827419989
 20
223.35605846072019
 30
0.0
 11
144.77951827419989
 21
223.35605846072019
 31
0.0
  0
LINE
  5
1B38
  8
0
 62
     0
 10
144.65451827419989
 20
223.35605846072019
 30
0.0
 11
144.65451827419989
 21
223.35605846072019
 31
0.0
  0
LINE
  5
1B39
  8
0
 62
     0
 10
144.52951827419989
 20
223.35605846072019
 30
0.0
 11
144.52951827419989
 21
223.35605846072019
 31
0.0
  0
LINE
  5
1B3A
  8
0
 62
     0
 10
148.4045182742
 20
223.35605846072019
 30
0.0
 11
148.4045182742
 21
223.35605846072019
 31
0.0
  0
LINE
  5
1B3B
  8
0
 62
     0
 10
148.2795182742
 20
223.35605846072019
 30
0.0
 11
148.2795182742
 21
223.35605846072019
 31
0.0
  0
LINE
  5
1B3C
  8
0
 62
     0
 10
148.15451827419989
 20
223.35605846072019
 30
0.0
 11
148.15451827419989
 21
223.35605846072019
 31
0.0
  0
LINE
  5
1B3D
  8
0
 62
     0
 10
148.02951827419989
 20
223.35605846072019
 30
0.0
 11
148.02951827419989
 21
223.35605846072019
 31
0.0
  0
LINE
  5
1B3E
  8
0
 62
     0
 10
142.65451827419989
 20
223.35605846072019
 30
0.0
 11
142.65451827419989
 21
223.35605846072019
 31
0.0
  0
LINE
  5
1B3F
  8
0
 62
     0
 10
142.52951827419989
 20
223.35605846072019
 30
0.0
 11
142.52951827419989
 21
223.35605846072019
 31
0.0
  0
LINE
  5
1B40
  8
0
 62
     0
 10
142.40451827419989
 20
223.35605846072019
 30
0.0
 11
142.40451827419989
 21
223.35605846072019
 31
0.0
  0
LINE
  5
1B41
  8
0
 62
     0
 10
142.2795182742
 20
223.35605846072019
 30
0.0
 11
142.2795182742
 21
223.35605846072019
 31
0.0
  0
LINE
  5
1B42
  8
0
 62
     0
 10
149.65451827419989
 20
223.35605846072019
 30
0.0
 11
149.65451827419989
 21
223.35605846072019
 31
0.0
  0
LINE
  5
1B43
  8
0
 62
     0
 10
149.52951827419989
 20
223.35605846072019
 30
0.0
 11
149.52951827419989
 21
223.35605846072019
 31
0.0
  0
LINE
  5
1B44
  8
0
 62
     0
 10
149.4045182742
 20
223.35605846072019
 30
0.0
 11
149.4045182742
 21
223.35605846072019
 31
0.0
  0
LINE
  5
1B45
  8
0
 62
     0
 10
149.2795182742
 20
223.35605846072019
 30
0.0
 11
149.2795182742
 21
223.35605846072019
 31
0.0
  0
LINE
  5
1B46
  8
0
 62
     0
 10
141.52951827419989
 20
223.35605846072019
 30
0.0
 11
141.52951827419989
 21
223.35605846072019
 31
0.0
  0
LINE
  5
1B47
  8
0
 62
     0
 10
141.40451827419989
 20
223.35605846072019
 30
0.0
 11
141.40451827419989
 21
223.35605846072019
 31
0.0
  0
LINE
  5
1B48
  8
0
 62
     0
 10
141.2795182742
 20
223.35605846072019
 30
0.0
 11
141.2795182742
 21
223.35605846072019
 31
0.0
  0
LINE
  5
1B49
  8
0
 62
     0
 10
141.1545182742
 20
223.35605846072019
 30
0.0
 11
141.1545182742
 21
223.35605846072019
 31
0.0
  0
LINE
  5
1B4A
  8
0
 62
     0
 10
151.90451827419989
 20
223.35605846072019
 30
0.0
 11
151.90451827419989
 21
223.35605846072019
 31
0.0
  0
LINE
  5
1B4B
  8
0
 62
     0
 10
151.77951827419989
 20
223.35605846072019
 30
0.0
 11
151.77951827419989
 21
223.35605846072019
 31
0.0
  0
LINE
  5
1B4C
  8
0
 62
     0
 10
151.6545182742
 20
223.35605846072019
 30
0.0
 11
151.6545182742
 21
223.35605846072019
 31
0.0
  0
LINE
  5
1B4D
  8
0
 62
     0
 10
151.5295182742
 20
223.35605846072019
 30
0.0
 11
151.5295182742
 21
223.35605846072019
 31
0.0
  0
LINE
  5
1B4E
  8
0
 62
     0
 10
139.27951827419989
 20
223.35605846072019
 30
0.0
 11
139.27951827419989
 21
223.35605846072019
 31
0.0
  0
LINE
  5
1B4F
  8
0
 62
     0
 10
139.1545182742
 20
223.35605846072019
 30
0.0
 11
139.1545182742
 21
223.35605846072019
 31
0.0
  0
LINE
  5
1B50
  8
0
 62
     0
 10
139.0295182742
 20
223.35605846072019
 30
0.0
 11
139.0295182742
 21
223.35605846072019
 31
0.0
  0
LINE
  5
1B51
  8
0
 62
     0
 10
138.9045182742
 20
223.35605846072019
 30
0.0
 11
138.9045182742
 21
223.35605846072019
 31
0.0
  0
LINE
  5
1B52
  8
0
 62
     0
 10
146.34201827419989
 20
223.48105846072019
 30
0.0
 11
146.34201827419989
 21
223.48105846072019
 31
0.0
  0
LINE
  5
1B53
  8
0
 62
     0
 10
146.21701827419989
 20
223.48105846072019
 30
0.0
 11
146.21701827419989
 21
223.48105846072019
 31
0.0
  0
LINE
  5
1B54
  8
0
 62
     0
 10
146.09201827419989
 20
223.48105846072019
 30
0.0
 11
146.09201827419989
 21
223.48105846072019
 31
0.0
  0
LINE
  5
1B55
  8
0
 62
     0
 10
145.9670182742
 20
223.48105846072019
 30
0.0
 11
145.9670182742
 21
223.48105846072019
 31
0.0
  0
LINE
  5
1B56
  8
0
 62
     0
 10
145.8420182742
 20
223.48105846072019
 30
0.0
 11
145.8420182742
 21
223.48105846072019
 31
0.0
  0
LINE
  5
1B57
  8
0
 62
     0
 10
144.96701827419989
 20
223.48105846072019
 30
0.0
 11
144.96701827419989
 21
223.48105846072019
 31
0.0
  0
LINE
  5
1B58
  8
0
 62
     0
 10
144.84201827419989
 20
223.48105846072019
 30
0.0
 11
144.84201827419989
 21
223.48105846072019
 31
0.0
  0
LINE
  5
1B59
  8
0
 62
     0
 10
144.7170182742
 20
223.48105846072019
 30
0.0
 11
144.7170182742
 21
223.48105846072019
 31
0.0
  0
LINE
  5
1B5A
  8
0
 62
     0
 10
144.5920182742
 20
223.48105846072019
 30
0.0
 11
144.5920182742
 21
223.48105846072019
 31
0.0
  0
LINE
  5
1B5B
  8
0
 62
     0
 10
148.34201827419989
 20
223.48105846072019
 30
0.0
 11
148.34201827419989
 21
223.48105846072019
 31
0.0
  0
LINE
  5
1B5C
  8
0
 62
     0
 10
148.2170182742
 20
223.48105846072019
 30
0.0
 11
148.2170182742
 21
223.48105846072019
 31
0.0
  0
LINE
  5
1B5D
  8
0
 62
     0
 10
148.09201827419989
 20
223.48105846072019
 30
0.0
 11
148.09201827419989
 21
223.48105846072019
 31
0.0
  0
LINE
  5
1B5E
  8
0
 62
     0
 10
147.96701827419989
 20
223.48105846072019
 30
0.0
 11
147.96701827419989
 21
223.48105846072019
 31
0.0
  0
LINE
  5
1B5F
  8
0
 62
     0
 10
142.7170182742
 20
223.48105846072019
 30
0.0
 11
142.7170182742
 21
223.48105846072019
 31
0.0
  0
LINE
  5
1B60
  8
0
 62
     0
 10
142.5920182742
 20
223.48105846072019
 30
0.0
 11
142.5920182742
 21
223.48105846072019
 31
0.0
  0
LINE
  5
1B61
  8
0
 62
     0
 10
142.4670182742
 20
223.48105846072019
 30
0.0
 11
142.4670182742
 21
223.48105846072019
 31
0.0
  0
LINE
  5
1B62
  8
0
 62
     0
 10
142.34201827419989
 20
223.48105846072019
 30
0.0
 11
142.34201827419989
 21
223.48105846072019
 31
0.0
  0
LINE
  5
1B63
  8
0
 62
     0
 10
149.59201827419989
 20
223.48105846072019
 30
0.0
 11
149.59201827419989
 21
223.48105846072019
 31
0.0
  0
LINE
  5
1B64
  8
0
 62
     0
 10
149.46701827419989
 20
223.48105846072019
 30
0.0
 11
149.46701827419989
 21
223.48105846072019
 31
0.0
  0
LINE
  5
1B65
  8
0
 62
     0
 10
149.34201827419989
 20
223.48105846072019
 30
0.0
 11
149.34201827419989
 21
223.48105846072019
 31
0.0
  0
LINE
  5
1B66
  8
0
 62
     0
 10
149.21701827419989
 20
223.48105846072019
 30
0.0
 11
149.21701827419989
 21
223.48105846072019
 31
0.0
  0
LINE
  5
1B67
  8
0
 62
     0
 10
141.4670182742
 20
223.48105846072019
 30
0.0
 11
141.4670182742
 21
223.48105846072019
 31
0.0
  0
LINE
  5
1B68
  8
0
 62
     0
 10
141.34201827419989
 20
223.48105846072019
 30
0.0
 11
141.34201827419989
 21
223.48105846072019
 31
0.0
  0
LINE
  5
1B69
  8
0
 62
     0
 10
141.21701827419989
 20
223.48105846072019
 30
0.0
 11
141.21701827419989
 21
223.48105846072019
 31
0.0
  0
LINE
  5
1B6A
  8
0
 62
     0
 10
141.09201827419989
 20
223.48105846072019
 30
0.0
 11
141.09201827419989
 21
223.48105846072019
 31
0.0
  0
LINE
  5
1B6B
  8
0
 62
     0
 10
151.9670182742
 20
223.48105846072019
 30
0.0
 11
151.9670182742
 21
223.48105846072019
 31
0.0
  0
LINE
  5
1B6C
  8
0
 62
     0
 10
151.8420182742
 20
223.48105846072019
 30
0.0
 11
151.8420182742
 21
223.48105846072019
 31
0.0
  0
LINE
  5
1B6D
  8
0
 62
     0
 10
151.71701827419989
 20
223.48105846072019
 30
0.0
 11
151.71701827419989
 21
223.48105846072019
 31
0.0
  0
LINE
  5
1B6E
  8
0
 62
     0
 10
151.59201827419989
 20
223.48105846072019
 30
0.0
 11
151.59201827419989
 21
223.48105846072019
 31
0.0
  0
LINE
  5
1B6F
  8
0
 62
     0
 10
139.3420182742
 20
223.48105846072019
 30
0.0
 11
139.3420182742
 21
223.48105846072019
 31
0.0
  0
LINE
  5
1B70
  8
0
 62
     0
 10
139.21701827419989
 20
223.48105846072019
 30
0.0
 11
139.21701827419989
 21
223.48105846072019
 31
0.0
  0
LINE
  5
1B71
  8
0
 62
     0
 10
139.09201827419989
 20
223.48105846072019
 30
0.0
 11
139.09201827419989
 21
223.48105846072019
 31
0.0
  0
LINE
  5
1B72
  8
0
 62
     0
 10
138.96701827419989
 20
223.48105846072019
 30
0.0
 11
138.96701827419989
 21
223.48105846072019
 31
0.0
  0
LINE
  5
1B73
  8
0
 62
     0
 10
146.40451827419989
 20
223.60605846072019
 30
0.0
 11
146.40451827419989
 21
223.60605846072019
 31
0.0
  0
LINE
  5
1B74
  8
0
 62
     0
 10
146.2795182742
 20
223.60605846072019
 30
0.0
 11
146.2795182742
 21
223.60605846072019
 31
0.0
  0
LINE
  5
1B75
  8
0
 62
     0
 10
146.1545182742
 20
223.60605846072019
 30
0.0
 11
146.1545182742
 21
223.60605846072019
 31
0.0
  0
LINE
  5
1B76
  8
0
 62
     0
 10
146.02951827419989
 20
223.60605846072019
 30
0.0
 11
146.02951827419989
 21
223.60605846072019
 31
0.0
  0
LINE
  5
1B77
  8
0
 62
     0
 10
145.90451827419989
 20
223.60605846072019
 30
0.0
 11
145.90451827419989
 21
223.60605846072019
 31
0.0
  0
LINE
  5
1B78
  8
0
 62
     0
 10
144.90451827419989
 20
223.60605846072019
 30
0.0
 11
144.90451827419989
 21
223.60605846072019
 31
0.0
  0
LINE
  5
1B79
  8
0
 62
     0
 10
144.77951827419989
 20
223.60605846072019
 30
0.0
 11
144.77951827419989
 21
223.60605846072019
 31
0.0
  0
LINE
  5
1B7A
  8
0
 62
     0
 10
144.65451827419989
 20
223.60605846072019
 30
0.0
 11
144.65451827419989
 21
223.60605846072019
 31
0.0
  0
LINE
  5
1B7B
  8
0
 62
     0
 10
144.52951827419989
 20
223.60605846072019
 30
0.0
 11
144.52951827419989
 21
223.60605846072019
 31
0.0
  0
LINE
  5
1B7C
  8
0
 62
     0
 10
148.2795182742
 20
223.60605846072019
 30
0.0
 11
148.2795182742
 21
223.60605846072019
 31
0.0
  0
LINE
  5
1B7D
  8
0
 62
     0
 10
148.15451827419989
 20
223.60605846072019
 30
0.0
 11
148.15451827419989
 21
223.60605846072019
 31
0.0
  0
LINE
  5
1B7E
  8
0
 62
     0
 10
148.02951827419989
 20
223.60605846072019
 30
0.0
 11
148.02951827419989
 21
223.60605846072019
 31
0.0
  0
LINE
  5
1B7F
  8
0
 62
     0
 10
147.90451827419989
 20
223.60605846072019
 30
0.0
 11
147.90451827419989
 21
223.60605846072019
 31
0.0
  0
LINE
  5
1B80
  8
0
 62
     0
 10
142.65451827419989
 20
223.60605846072019
 30
0.0
 11
142.65451827419989
 21
223.60605846072019
 31
0.0
  0
LINE
  5
1B81
  8
0
 62
     0
 10
142.52951827419989
 20
223.60605846072019
 30
0.0
 11
142.52951827419989
 21
223.60605846072019
 31
0.0
  0
LINE
  5
1B82
  8
0
 62
     0
 10
142.40451827419989
 20
223.60605846072019
 30
0.0
 11
142.40451827419989
 21
223.60605846072019
 31
0.0
  0
LINE
  5
1B83
  8
0
 62
     0
 10
142.2795182742
 20
223.60605846072019
 30
0.0
 11
142.2795182742
 21
223.60605846072019
 31
0.0
  0
LINE
  5
1B84
  8
0
 62
     0
 10
149.65451827419989
 20
223.60605846072019
 30
0.0
 11
149.65451827419989
 21
223.60605846072019
 31
0.0
  0
LINE
  5
1B85
  8
0
 62
     0
 10
149.52951827419989
 20
223.60605846072019
 30
0.0
 11
149.52951827419989
 21
223.60605846072019
 31
0.0
  0
LINE
  5
1B86
  8
0
 62
     0
 10
149.4045182742
 20
223.60605846072019
 30
0.0
 11
149.4045182742
 21
223.60605846072019
 31
0.0
  0
LINE
  5
1B87
  8
0
 62
     0
 10
149.2795182742
 20
223.60605846072019
 30
0.0
 11
149.2795182742
 21
223.60605846072019
 31
0.0
  0
LINE
  5
1B88
  8
0
 62
     0
 10
141.40451827419989
 20
223.60605846072019
 30
0.0
 11
141.40451827419989
 21
223.60605846072019
 31
0.0
  0
LINE
  5
1B89
  8
0
 62
     0
 10
141.2795182742
 20
223.60605846072019
 30
0.0
 11
141.2795182742
 21
223.60605846072019
 31
0.0
  0
LINE
  5
1B8A
  8
0
 62
     0
 10
141.1545182742
 20
223.60605846072019
 30
0.0
 11
141.1545182742
 21
223.60605846072019
 31
0.0
  0
LINE
  5
1B8B
  8
0
 62
     0
 10
141.0295182742
 20
223.60605846072019
 30
0.0
 11
141.0295182742
 21
223.60605846072019
 31
0.0
  0
LINE
  5
1B8C
  8
0
 62
     0
 10
140.9045182742
 20
223.60605846072019
 30
0.0
 11
140.9045182742
 21
223.60605846072019
 31
0.0
  0
LINE
  5
1B8D
  8
0
 62
     0
 10
151.90451827419989
 20
223.60605846072019
 30
0.0
 11
151.90451827419989
 21
223.60605846072019
 31
0.0
  0
LINE
  5
1B8E
  8
0
 62
     0
 10
151.77951827419989
 20
223.60605846072019
 30
0.0
 11
151.77951827419989
 21
223.60605846072019
 31
0.0
  0
LINE
  5
1B8F
  8
0
 62
     0
 10
151.6545182742
 20
223.60605846072019
 30
0.0
 11
151.6545182742
 21
223.60605846072019
 31
0.0
  0
LINE
  5
1B90
  8
0
 62
     0
 10
151.5295182742
 20
223.60605846072019
 30
0.0
 11
151.5295182742
 21
223.60605846072019
 31
0.0
  0
LINE
  5
1B91
  8
0
 62
     0
 10
139.27951827419989
 20
223.60605846072019
 30
0.0
 11
139.27951827419989
 21
223.60605846072019
 31
0.0
  0
LINE
  5
1B92
  8
0
 62
     0
 10
139.1545182742
 20
223.60605846072019
 30
0.0
 11
139.1545182742
 21
223.60605846072019
 31
0.0
  0
LINE
  5
1B93
  8
0
 62
     0
 10
139.0295182742
 20
223.60605846072019
 30
0.0
 11
139.0295182742
 21
223.60605846072019
 31
0.0
  0
LINE
  5
1B94
  8
0
 62
     0
 10
138.9045182742
 20
223.60605846072019
 30
0.0
 11
138.9045182742
 21
223.60605846072019
 31
0.0
  0
LINE
  5
1B95
  8
0
 62
     0
 10
146.59201827419989
 20
223.73105846072019
 30
0.0
 11
146.59201827419989
 21
223.73105846072019
 31
0.0
  0
LINE
  5
1B96
  8
0
 62
     0
 10
146.46701827419989
 20
223.73105846072019
 30
0.0
 11
146.46701827419989
 21
223.73105846072019
 31
0.0
  0
LINE
  5
1B97
  8
0
 62
     0
 10
146.34201827419989
 20
223.73105846072019
 30
0.0
 11
146.34201827419989
 21
223.73105846072019
 31
0.0
  0
LINE
  5
1B98
  8
0
 62
     0
 10
146.21701827419989
 20
223.73105846072019
 30
0.0
 11
146.21701827419989
 21
223.73105846072019
 31
0.0
  0
LINE
  5
1B99
  8
0
 62
     0
 10
146.09201827419989
 20
223.73105846072019
 30
0.0
 11
146.09201827419989
 21
223.73105846072019
 31
0.0
  0
LINE
  5
1B9A
  8
0
 62
     0
 10
144.96701827419989
 20
223.73105846072019
 30
0.0
 11
144.96701827419989
 21
223.73105846072019
 31
0.0
  0
LINE
  5
1B9B
  8
0
 62
     0
 10
144.84201827419989
 20
223.73105846072019
 30
0.0
 11
144.84201827419989
 21
223.73105846072019
 31
0.0
  0
LINE
  5
1B9C
  8
0
 62
     0
 10
144.7170182742
 20
223.73105846072019
 30
0.0
 11
144.7170182742
 21
223.73105846072019
 31
0.0
  0
LINE
  5
1B9D
  8
0
 62
     0
 10
144.5920182742
 20
223.73105846072019
 30
0.0
 11
144.5920182742
 21
223.73105846072019
 31
0.0
  0
LINE
  5
1B9E
  8
0
 62
     0
 10
148.2170182742
 20
223.73105846072019
 30
0.0
 11
148.2170182742
 21
223.73105846072019
 31
0.0
  0
LINE
  5
1B9F
  8
0
 62
     0
 10
148.09201827419989
 20
223.73105846072019
 30
0.0
 11
148.09201827419989
 21
223.73105846072019
 31
0.0
  0
LINE
  5
1BA0
  8
0
 62
     0
 10
147.96701827419989
 20
223.73105846072019
 30
0.0
 11
147.96701827419989
 21
223.73105846072019
 31
0.0
  0
LINE
  5
1BA1
  8
0
 62
     0
 10
147.8420182742
 20
223.73105846072019
 30
0.0
 11
147.8420182742
 21
223.73105846072019
 31
0.0
  0
LINE
  5
1BA2
  8
0
 62
     0
 10
147.7170182742
 20
223.73105846072019
 30
0.0
 11
147.7170182742
 21
223.73105846072019
 31
0.0
  0
LINE
  5
1BA3
  8
0
 62
     0
 10
142.7170182742
 20
223.73105846072019
 30
0.0
 11
142.7170182742
 21
223.73105846072019
 31
0.0
  0
LINE
  5
1BA4
  8
0
 62
     0
 10
142.5920182742
 20
223.73105846072019
 30
0.0
 11
142.5920182742
 21
223.73105846072019
 31
0.0
  0
LINE
  5
1BA5
  8
0
 62
     0
 10
142.4670182742
 20
223.73105846072019
 30
0.0
 11
142.4670182742
 21
223.73105846072019
 31
0.0
  0
LINE
  5
1BA6
  8
0
 62
     0
 10
142.34201827419989
 20
223.73105846072019
 30
0.0
 11
142.34201827419989
 21
223.73105846072019
 31
0.0
  0
LINE
  5
1BA7
  8
0
 62
     0
 10
149.59201827419989
 20
223.73105846072019
 30
0.0
 11
149.59201827419989
 21
223.73105846072019
 31
0.0
  0
LINE
  5
1BA8
  8
0
 62
     0
 10
149.46701827419989
 20
223.73105846072019
 30
0.0
 11
149.46701827419989
 21
223.73105846072019
 31
0.0
  0
LINE
  5
1BA9
  8
0
 62
     0
 10
149.34201827419989
 20
223.73105846072019
 30
0.0
 11
149.34201827419989
 21
223.73105846072019
 31
0.0
  0
LINE
  5
1BAA
  8
0
 62
     0
 10
149.21701827419989
 20
223.73105846072019
 30
0.0
 11
149.21701827419989
 21
223.73105846072019
 31
0.0
  0
LINE
  5
1BAB
  8
0
 62
     0
 10
141.34201827419989
 20
223.73105846072019
 30
0.0
 11
141.34201827419989
 21
223.73105846072019
 31
0.0
  0
LINE
  5
1BAC
  8
0
 62
     0
 10
141.21701827419989
 20
223.73105846072019
 30
0.0
 11
141.21701827419989
 21
223.73105846072019
 31
0.0
  0
LINE
  5
1BAD
  8
0
 62
     0
 10
141.09201827419989
 20
223.73105846072019
 30
0.0
 11
141.09201827419989
 21
223.73105846072019
 31
0.0
  0
LINE
  5
1BAE
  8
0
 62
     0
 10
140.96701827419989
 20
223.73105846072019
 30
0.0
 11
140.96701827419989
 21
223.73105846072019
 31
0.0
  0
LINE
  5
1BAF
  8
0
 62
     0
 10
140.84201827419989
 20
223.73105846072019
 30
0.0
 11
140.84201827419989
 21
223.73105846072019
 31
0.0
  0
LINE
  5
1BB0
  8
0
 62
     0
 10
140.7170182742
 20
223.73105846072019
 30
0.0
 11
140.7170182742
 21
223.73105846072019
 31
0.0
  0
LINE
  5
1BB1
  8
0
 62
     0
 10
140.5920182742
 20
223.73105846072019
 30
0.0
 11
140.5920182742
 21
223.73105846072019
 31
0.0
  0
LINE
  5
1BB2
  8
0
 62
     0
 10
151.9670182742
 20
223.73105846072019
 30
0.0
 11
151.9670182742
 21
223.73105846072019
 31
0.0
  0
LINE
  5
1BB3
  8
0
 62
     0
 10
151.8420182742
 20
223.73105846072019
 30
0.0
 11
151.8420182742
 21
223.73105846072019
 31
0.0
  0
LINE
  5
1BB4
  8
0
 62
     0
 10
151.71701827419989
 20
223.73105846072019
 30
0.0
 11
151.71701827419989
 21
223.73105846072019
 31
0.0
  0
LINE
  5
1BB5
  8
0
 62
     0
 10
151.59201827419989
 20
223.73105846072019
 30
0.0
 11
151.59201827419989
 21
223.73105846072019
 31
0.0
  0
LINE
  5
1BB6
  8
0
 62
     0
 10
139.3420182742
 20
223.73105846072019
 30
0.0
 11
139.3420182742
 21
223.73105846072019
 31
0.0
  0
LINE
  5
1BB7
  8
0
 62
     0
 10
139.21701827419989
 20
223.73105846072019
 30
0.0
 11
139.21701827419989
 21
223.73105846072019
 31
0.0
  0
LINE
  5
1BB8
  8
0
 62
     0
 10
139.09201827419989
 20
223.73105846072019
 30
0.0
 11
139.09201827419989
 21
223.73105846072019
 31
0.0
  0
LINE
  5
1BB9
  8
0
 62
     0
 10
138.96701827419989
 20
223.73105846072019
 30
0.0
 11
138.96701827419989
 21
223.73105846072019
 31
0.0
  0
LINE
  5
1BBA
  8
0
 62
     0
 10
148.02951827419989
 20
223.85605846072019
 30
0.0
 11
148.02951827419989
 21
223.85605846072019
 31
0.0
  0
LINE
  5
1BBB
  8
0
 62
     0
 10
147.90451827419989
 20
223.85605846072019
 30
0.0
 11
147.90451827419989
 21
223.85605846072019
 31
0.0
  0
LINE
  5
1BBC
  8
0
 62
     0
 10
147.77951827419989
 20
223.85605846072019
 30
0.0
 11
147.77951827419989
 21
223.85605846072019
 31
0.0
  0
LINE
  5
1BBD
  8
0
 62
     0
 10
147.65451827419989
 20
223.85605846072019
 30
0.0
 11
147.65451827419989
 21
223.85605846072019
 31
0.0
  0
LINE
  5
1BBE
  8
0
 62
     0
 10
147.5295182742
 20
223.85605846072019
 30
0.0
 11
147.5295182742
 21
223.85605846072019
 31
0.0
  0
LINE
  5
1BBF
  8
0
 62
     0
 10
147.4045182742
 20
223.85605846072019
 30
0.0
 11
147.4045182742
 21
223.85605846072019
 31
0.0
  0
LINE
  5
1BC0
  8
0
 62
     0
 10
147.2795182742
 20
223.85605846072019
 30
0.0
 11
147.2795182742
 21
223.85605846072019
 31
0.0
  0
LINE
  5
1BC1
  8
0
 62
     0
 10
147.1545182742
 20
223.85605846072019
 30
0.0
 11
147.1545182742
 21
223.85605846072019
 31
0.0
  0
LINE
  5
1BC2
  8
0
 62
     0
 10
147.02951827419989
 20
223.85605846072019
 30
0.0
 11
147.02951827419989
 21
223.85605846072019
 31
0.0
  0
LINE
  5
1BC3
  8
0
 62
     0
 10
146.90451827419989
 20
223.85605846072019
 30
0.0
 11
146.90451827419989
 21
223.85605846072019
 31
0.0
  0
LINE
  5
1BC4
  8
0
 62
     0
 10
146.77951827419989
 20
223.85605846072019
 30
0.0
 11
146.77951827419989
 21
223.85605846072019
 31
0.0
  0
LINE
  5
1BC5
  8
0
 62
     0
 10
146.6545182742
 20
223.85605846072019
 30
0.0
 11
146.6545182742
 21
223.85605846072019
 31
0.0
  0
LINE
  5
1BC6
  8
0
 62
     0
 10
146.52951827419989
 20
223.85605846072019
 30
0.0
 11
146.52951827419989
 21
223.85605846072019
 31
0.0
  0
LINE
  5
1BC7
  8
0
 62
     0
 10
146.40451827419989
 20
223.85605846072019
 30
0.0
 11
146.40451827419989
 21
223.85605846072019
 31
0.0
  0
LINE
  5
1BC8
  8
0
 62
     0
 10
146.2795182742
 20
223.85605846072019
 30
0.0
 11
146.2795182742
 21
223.85605846072019
 31
0.0
  0
LINE
  5
1BC9
  8
0
 62
     0
 10
146.1545182742
 20
223.85605846072019
 30
0.0
 11
146.1545182742
 21
223.85605846072019
 31
0.0
  0
LINE
  5
1BCA
  8
0
 62
     0
 10
144.90451827419989
 20
223.85605846072019
 30
0.0
 11
144.90451827419989
 21
223.85605846072019
 31
0.0
  0
LINE
  5
1BCB
  8
0
 62
     0
 10
144.77951827419989
 20
223.85605846072019
 30
0.0
 11
144.77951827419989
 21
223.85605846072019
 31
0.0
  0
LINE
  5
1BCC
  8
0
 62
     0
 10
144.65451827419989
 20
223.85605846072019
 30
0.0
 11
144.65451827419989
 21
223.85605846072019
 31
0.0
  0
LINE
  5
1BCD
  8
0
 62
     0
 10
144.52951827419989
 20
223.85605846072019
 30
0.0
 11
144.52951827419989
 21
223.85605846072019
 31
0.0
  0
LINE
  5
1BCE
  8
0
 62
     0
 10
149.65451827419989
 20
223.85605846072019
 30
0.0
 11
149.65451827419989
 21
223.85605846072019
 31
0.0
  0
LINE
  5
1BCF
  8
0
 62
     0
 10
149.52951827419989
 20
223.85605846072019
 30
0.0
 11
149.52951827419989
 21
223.85605846072019
 31
0.0
  0
LINE
  5
1BD0
  8
0
 62
     0
 10
149.4045182742
 20
223.85605846072019
 30
0.0
 11
149.4045182742
 21
223.85605846072019
 31
0.0
  0
LINE
  5
1BD1
  8
0
 62
     0
 10
149.2795182742
 20
223.85605846072019
 30
0.0
 11
149.2795182742
 21
223.85605846072019
 31
0.0
  0
LINE
  5
1BD2
  8
0
 62
     0
 10
142.65451827419989
 20
223.85605846072019
 30
0.0
 11
142.65451827419989
 21
223.85605846072019
 31
0.0
  0
LINE
  5
1BD3
  8
0
 62
     0
 10
142.52951827419989
 20
223.85605846072019
 30
0.0
 11
142.52951827419989
 21
223.85605846072019
 31
0.0
  0
LINE
  5
1BD4
  8
0
 62
     0
 10
142.40451827419989
 20
223.85605846072019
 30
0.0
 11
142.40451827419989
 21
223.85605846072019
 31
0.0
  0
LINE
  5
1BD5
  8
0
 62
     0
 10
142.2795182742
 20
223.85605846072019
 30
0.0
 11
142.2795182742
 21
223.85605846072019
 31
0.0
  0
LINE
  5
1BD6
  8
0
 62
     0
 10
151.90451827419989
 20
223.85605846072019
 30
0.0
 11
151.90451827419989
 21
223.85605846072019
 31
0.0
  0
LINE
  5
1BD7
  8
0
 62
     0
 10
151.77951827419989
 20
223.85605846072019
 30
0.0
 11
151.77951827419989
 21
223.85605846072019
 31
0.0
  0
LINE
  5
1BD8
  8
0
 62
     0
 10
151.6545182742
 20
223.85605846072019
 30
0.0
 11
151.6545182742
 21
223.85605846072019
 31
0.0
  0
LINE
  5
1BD9
  8
0
 62
     0
 10
151.5295182742
 20
223.85605846072019
 30
0.0
 11
151.5295182742
 21
223.85605846072019
 31
0.0
  0
LINE
  5
1BDA
  8
0
 62
     0
 10
141.1545182742
 20
223.85605846072019
 30
0.0
 11
141.1545182742
 21
223.85605846072019
 31
0.0
  0
LINE
  5
1BDB
  8
0
 62
     0
 10
141.0295182742
 20
223.85605846072019
 30
0.0
 11
141.0295182742
 21
223.85605846072019
 31
0.0
  0
LINE
  5
1BDC
  8
0
 62
     0
 10
140.9045182742
 20
223.85605846072019
 30
0.0
 11
140.9045182742
 21
223.85605846072019
 31
0.0
  0
LINE
  5
1BDD
  8
0
 62
     0
 10
140.77951827419989
 20
223.85605846072019
 30
0.0
 11
140.77951827419989
 21
223.85605846072019
 31
0.0
  0
LINE
  5
1BDE
  8
0
 62
     0
 10
140.65451827419989
 20
223.85605846072019
 30
0.0
 11
140.65451827419989
 21
223.85605846072019
 31
0.0
  0
LINE
  5
1BDF
  8
0
 62
     0
 10
140.52951827419989
 20
223.85605846072019
 30
0.0
 11
140.52951827419989
 21
223.85605846072019
 31
0.0
  0
LINE
  5
1BE0
  8
0
 62
     0
 10
140.4045182742
 20
223.85605846072019
 30
0.0
 11
140.4045182742
 21
223.85605846072019
 31
0.0
  0
LINE
  5
1BE1
  8
0
 62
     0
 10
140.27951827419989
 20
223.85605846072019
 30
0.0
 11
140.27951827419989
 21
223.85605846072019
 31
0.0
  0
LINE
  5
1BE2
  8
0
 62
     0
 10
140.15451827419989
 20
223.85605846072019
 30
0.0
 11
140.15451827419989
 21
223.85605846072019
 31
0.0
  0
LINE
  5
1BE3
  8
0
 62
     0
 10
140.0295182742
 20
223.85605846072019
 30
0.0
 11
140.0295182742
 21
223.85605846072019
 31
0.0
  0
LINE
  5
1BE4
  8
0
 62
     0
 10
139.9045182742
 20
223.85605846072019
 30
0.0
 11
139.9045182742
 21
223.85605846072019
 31
0.0
  0
LINE
  5
1BE5
  8
0
 62
     0
 10
139.77951827419989
 20
223.85605846072019
 30
0.0
 11
139.77951827419989
 21
223.85605846072019
 31
0.0
  0
LINE
  5
1BE6
  8
0
 62
     0
 10
139.65451827419989
 20
223.85605846072019
 30
0.0
 11
139.65451827419989
 21
223.85605846072019
 31
0.0
  0
LINE
  5
1BE7
  8
0
 62
     0
 10
139.52951827419989
 20
223.85605846072019
 30
0.0
 11
139.52951827419989
 21
223.85605846072019
 31
0.0
  0
LINE
  5
1BE8
  8
0
 62
     0
 10
139.40451827419989
 20
223.85605846072019
 30
0.0
 11
139.40451827419989
 21
223.85605846072019
 31
0.0
  0
LINE
  5
1BE9
  8
0
 62
     0
 10
139.27951827419989
 20
223.85605846072019
 30
0.0
 11
139.27951827419989
 21
223.85605846072019
 31
0.0
  0
LINE
  5
1BEA
  8
0
 62
     0
 10
139.1545182742
 20
223.85605846072019
 30
0.0
 11
139.1545182742
 21
223.85605846072019
 31
0.0
  0
LINE
  5
1BEB
  8
0
 62
     0
 10
139.0295182742
 20
223.85605846072019
 30
0.0
 11
139.0295182742
 21
223.85605846072019
 31
0.0
  0
LINE
  5
1BEC
  8
0
 62
     0
 10
138.9045182742
 20
223.85605846072019
 30
0.0
 11
138.9045182742
 21
223.85605846072019
 31
0.0
  0
LINE
  5
1BED
  8
0
 62
     0
 10
147.8420182742
 20
223.98105846072019
 30
0.0
 11
147.8420182742
 21
223.98105846072019
 31
0.0
  0
LINE
  5
1BEE
  8
0
 62
     0
 10
147.7170182742
 20
223.98105846072019
 30
0.0
 11
147.7170182742
 21
223.98105846072019
 31
0.0
  0
LINE
  5
1BEF
  8
0
 62
     0
 10
147.59201827419989
 20
223.98105846072019
 30
0.0
 11
147.59201827419989
 21
223.98105846072019
 31
0.0
  0
LINE
  5
1BF0
  8
0
 62
     0
 10
147.46701827419989
 20
223.98105846072019
 30
0.0
 11
147.46701827419989
 21
223.98105846072019
 31
0.0
  0
LINE
  5
1BF1
  8
0
 62
     0
 10
147.34201827419989
 20
223.98105846072019
 30
0.0
 11
147.34201827419989
 21
223.98105846072019
 31
0.0
  0
LINE
  5
1BF2
  8
0
 62
     0
 10
147.21701827419989
 20
223.98105846072019
 30
0.0
 11
147.21701827419989
 21
223.98105846072019
 31
0.0
  0
LINE
  5
1BF3
  8
0
 62
     0
 10
147.09201827419989
 20
223.98105846072019
 30
0.0
 11
147.09201827419989
 21
223.98105846072019
 31
0.0
  0
LINE
  5
1BF4
  8
0
 62
     0
 10
146.9670182742
 20
223.98105846072019
 30
0.0
 11
146.9670182742
 21
223.98105846072019
 31
0.0
  0
LINE
  5
1BF5
  8
0
 62
     0
 10
146.8420182742
 20
223.98105846072019
 30
0.0
 11
146.8420182742
 21
223.98105846072019
 31
0.0
  0
LINE
  5
1BF6
  8
0
 62
     0
 10
146.7170182742
 20
223.98105846072019
 30
0.0
 11
146.7170182742
 21
223.98105846072019
 31
0.0
  0
LINE
  5
1BF7
  8
0
 62
     0
 10
146.59201827419989
 20
223.98105846072019
 30
0.0
 11
146.59201827419989
 21
223.98105846072019
 31
0.0
  0
LINE
  5
1BF8
  8
0
 62
     0
 10
146.46701827419989
 20
223.98105846072019
 30
0.0
 11
146.46701827419989
 21
223.98105846072019
 31
0.0
  0
LINE
  5
1BF9
  8
0
 62
     0
 10
144.96701827419989
 20
223.98105846072019
 30
0.0
 11
144.96701827419989
 21
223.98105846072019
 31
0.0
  0
LINE
  5
1BFA
  8
0
 62
     0
 10
144.84201827419989
 20
223.98105846072019
 30
0.0
 11
144.84201827419989
 21
223.98105846072019
 31
0.0
  0
LINE
  5
1BFB
  8
0
 62
     0
 10
144.7170182742
 20
223.98105846072019
 30
0.0
 11
144.7170182742
 21
223.98105846072019
 31
0.0
  0
LINE
  5
1BFC
  8
0
 62
     0
 10
144.5920182742
 20
223.98105846072019
 30
0.0
 11
144.5920182742
 21
223.98105846072019
 31
0.0
  0
LINE
  5
1BFD
  8
0
 62
     0
 10
149.59201827419989
 20
223.98105846072019
 30
0.0
 11
149.59201827419989
 21
223.98105846072019
 31
0.0
  0
LINE
  5
1BFE
  8
0
 62
     0
 10
149.46701827419989
 20
223.98105846072019
 30
0.0
 11
149.46701827419989
 21
223.98105846072019
 31
0.0
  0
LINE
  5
1BFF
  8
0
 62
     0
 10
149.34201827419989
 20
223.98105846072019
 30
0.0
 11
149.34201827419989
 21
223.98105846072019
 31
0.0
  0
LINE
  5
1C00
  8
0
 62
     0
 10
149.21701827419989
 20
223.98105846072019
 30
0.0
 11
149.21701827419989
 21
223.98105846072019
 31
0.0
  0
LINE
  5
1C01
  8
0
 62
     0
 10
142.7170182742
 20
223.98105846072019
 30
0.0
 11
142.7170182742
 21
223.98105846072019
 31
0.0
  0
LINE
  5
1C02
  8
0
 62
     0
 10
142.5920182742
 20
223.98105846072019
 30
0.0
 11
142.5920182742
 21
223.98105846072019
 31
0.0
  0
LINE
  5
1C03
  8
0
 62
     0
 10
142.4670182742
 20
223.98105846072019
 30
0.0
 11
142.4670182742
 21
223.98105846072019
 31
0.0
  0
LINE
  5
1C04
  8
0
 62
     0
 10
142.34201827419989
 20
223.98105846072019
 30
0.0
 11
142.34201827419989
 21
223.98105846072019
 31
0.0
  0
LINE
  5
1C05
  8
0
 62
     0
 10
151.9670182742
 20
223.98105846072019
 30
0.0
 11
151.9670182742
 21
223.98105846072019
 31
0.0
  0
LINE
  5
1C06
  8
0
 62
     0
 10
151.8420182742
 20
223.98105846072019
 30
0.0
 11
151.8420182742
 21
223.98105846072019
 31
0.0
  0
LINE
  5
1C07
  8
0
 62
     0
 10
151.71701827419989
 20
223.98105846072019
 30
0.0
 11
151.71701827419989
 21
223.98105846072019
 31
0.0
  0
LINE
  5
1C08
  8
0
 62
     0
 10
151.59201827419989
 20
223.98105846072019
 30
0.0
 11
151.59201827419989
 21
223.98105846072019
 31
0.0
  0
LINE
  5
1C09
  8
0
 62
     0
 10
140.96701827419989
 20
223.98105846072019
 30
0.0
 11
140.96701827419989
 21
223.98105846072019
 31
0.0
  0
LINE
  5
1C0A
  8
0
 62
     0
 10
140.84201827419989
 20
223.98105846072019
 30
0.0
 11
140.84201827419989
 21
223.98105846072019
 31
0.0
  0
LINE
  5
1C0B
  8
0
 62
     0
 10
140.7170182742
 20
223.98105846072019
 30
0.0
 11
140.7170182742
 21
223.98105846072019
 31
0.0
  0
LINE
  5
1C0C
  8
0
 62
     0
 10
140.5920182742
 20
223.98105846072019
 30
0.0
 11
140.5920182742
 21
223.98105846072019
 31
0.0
  0
LINE
  5
1C0D
  8
0
 62
     0
 10
140.4670182742
 20
223.98105846072019
 30
0.0
 11
140.4670182742
 21
223.98105846072019
 31
0.0
  0
LINE
  5
1C0E
  8
0
 62
     0
 10
140.34201827419989
 20
223.98105846072019
 30
0.0
 11
140.34201827419989
 21
223.98105846072019
 31
0.0
  0
LINE
  5
1C0F
  8
0
 62
     0
 10
140.21701827419989
 20
223.98105846072019
 30
0.0
 11
140.21701827419989
 21
223.98105846072019
 31
0.0
  0
LINE
  5
1C10
  8
0
 62
     0
 10
140.09201827419989
 20
223.98105846072019
 30
0.0
 11
140.09201827419989
 21
223.98105846072019
 31
0.0
  0
LINE
  5
1C11
  8
0
 62
     0
 10
139.96701827419989
 20
223.98105846072019
 30
0.0
 11
139.96701827419989
 21
223.98105846072019
 31
0.0
  0
LINE
  5
1C12
  8
0
 62
     0
 10
139.84201827419989
 20
223.98105846072019
 30
0.0
 11
139.84201827419989
 21
223.98105846072019
 31
0.0
  0
LINE
  5
1C13
  8
0
 62
     0
 10
139.7170182742
 20
223.98105846072019
 30
0.0
 11
139.7170182742
 21
223.98105846072019
 31
0.0
  0
LINE
  5
1C14
  8
0
 62
     0
 10
139.5920182742
 20
223.98105846072019
 30
0.0
 11
139.5920182742
 21
223.98105846072019
 31
0.0
  0
LINE
  5
1C15
  8
0
 62
     0
 10
139.4670182742
 20
223.98105846072019
 30
0.0
 11
139.4670182742
 21
223.98105846072019
 31
0.0
  0
LINE
  5
1C16
  8
0
 62
     0
 10
139.3420182742
 20
223.98105846072019
 30
0.0
 11
139.3420182742
 21
223.98105846072019
 31
0.0
  0
LINE
  5
1C17
  8
0
 62
     0
 10
139.21701827419989
 20
223.98105846072019
 30
0.0
 11
139.21701827419989
 21
223.98105846072019
 31
0.0
  0
LINE
  5
1C18
  8
0
 62
     0
 10
139.09201827419989
 20
223.98105846072019
 30
0.0
 11
139.09201827419989
 21
223.98105846072019
 31
0.0
  0
LINE
  5
1C19
  8
0
 62
     0
 10
138.96701827419989
 20
223.98105846072019
 30
0.0
 11
138.96701827419989
 21
223.98105846072019
 31
0.0
  0
LINE
  5
1C1A
  8
0
 62
     0
 10
147.2795182742
 20
224.10605846072019
 30
0.0
 11
147.2795182742
 21
224.10605846072019
 31
0.0
  0
LINE
  5
1C1B
  8
0
 62
     0
 10
147.1545182742
 20
224.10605846072019
 30
0.0
 11
147.1545182742
 21
224.10605846072019
 31
0.0
  0
LINE
  5
1C1C
  8
0
 62
     0
 10
147.02951827419989
 20
224.10605846072019
 30
0.0
 11
147.02951827419989
 21
224.10605846072019
 31
0.0
  0
LINE
  5
1C1D
  8
0
 62
     0
 10
144.90451827419989
 20
224.10605846072019
 30
0.0
 11
144.90451827419989
 21
224.10605846072019
 31
0.0
  0
LINE
  5
1C1E
  8
0
 62
     0
 10
144.77951827419989
 20
224.10605846072019
 30
0.0
 11
144.77951827419989
 21
224.10605846072019
 31
0.0
  0
LINE
  5
1C1F
  8
0
 62
     0
 10
144.65451827419989
 20
224.10605846072019
 30
0.0
 11
144.65451827419989
 21
224.10605846072019
 31
0.0
  0
LINE
  5
1C20
  8
0
 62
     0
 10
144.52951827419989
 20
224.10605846072019
 30
0.0
 11
144.52951827419989
 21
224.10605846072019
 31
0.0
  0
LINE
  5
1C21
  8
0
 62
     0
 10
149.65451827419989
 20
224.10605846072019
 30
0.0
 11
149.65451827419989
 21
224.10605846072019
 31
0.0
  0
LINE
  5
1C22
  8
0
 62
     0
 10
149.52951827419989
 20
224.10605846072019
 30
0.0
 11
149.52951827419989
 21
224.10605846072019
 31
0.0
  0
LINE
  5
1C23
  8
0
 62
     0
 10
149.4045182742
 20
224.10605846072019
 30
0.0
 11
149.4045182742
 21
224.10605846072019
 31
0.0
  0
LINE
  5
1C24
  8
0
 62
     0
 10
149.2795182742
 20
224.10605846072019
 30
0.0
 11
149.2795182742
 21
224.10605846072019
 31
0.0
  0
LINE
  5
1C25
  8
0
 62
     0
 10
142.65451827419989
 20
224.10605846072019
 30
0.0
 11
142.65451827419989
 21
224.10605846072019
 31
0.0
  0
LINE
  5
1C26
  8
0
 62
     0
 10
142.52951827419989
 20
224.10605846072019
 30
0.0
 11
142.52951827419989
 21
224.10605846072019
 31
0.0
  0
LINE
  5
1C27
  8
0
 62
     0
 10
142.40451827419989
 20
224.10605846072019
 30
0.0
 11
142.40451827419989
 21
224.10605846072019
 31
0.0
  0
LINE
  5
1C28
  8
0
 62
     0
 10
142.2795182742
 20
224.10605846072019
 30
0.0
 11
142.2795182742
 21
224.10605846072019
 31
0.0
  0
LINE
  5
1C29
  8
0
 62
     0
 10
151.90451827419989
 20
224.10605846072019
 30
0.0
 11
151.90451827419989
 21
224.10605846072019
 31
0.0
  0
LINE
  5
1C2A
  8
0
 62
     0
 10
151.77951827419989
 20
224.10605846072019
 30
0.0
 11
151.77951827419989
 21
224.10605846072019
 31
0.0
  0
LINE
  5
1C2B
  8
0
 62
     0
 10
151.6545182742
 20
224.10605846072019
 30
0.0
 11
151.6545182742
 21
224.10605846072019
 31
0.0
  0
LINE
  5
1C2C
  8
0
 62
     0
 10
151.5295182742
 20
224.10605846072019
 30
0.0
 11
151.5295182742
 21
224.10605846072019
 31
0.0
  0
LINE
  5
1C2D
  8
0
 62
     0
 10
140.4045182742
 20
224.10605846072019
 30
0.0
 11
140.4045182742
 21
224.10605846072019
 31
0.0
  0
LINE
  5
1C2E
  8
0
 62
     0
 10
140.27951827419989
 20
224.10605846072019
 30
0.0
 11
140.27951827419989
 21
224.10605846072019
 31
0.0
  0
LINE
  5
1C2F
  8
0
 62
     0
 10
140.15451827419989
 20
224.10605846072019
 30
0.0
 11
140.15451827419989
 21
224.10605846072019
 31
0.0
  0
LINE
  5
1C30
  8
0
 62
     0
 10
140.0295182742
 20
224.10605846072019
 30
0.0
 11
140.0295182742
 21
224.10605846072019
 31
0.0
  0
LINE
  5
1C31
  8
0
 62
     0
 10
139.9045182742
 20
224.10605846072019
 30
0.0
 11
139.9045182742
 21
224.10605846072019
 31
0.0
  0
LINE
  5
1C32
  8
0
 62
     0
 10
139.77951827419989
 20
224.10605846072019
 30
0.0
 11
139.77951827419989
 21
224.10605846072019
 31
0.0
  0
LINE
  5
1C33
  8
0
 62
     0
 10
139.65451827419989
 20
224.10605846072019
 30
0.0
 11
139.65451827419989
 21
224.10605846072019
 31
0.0
  0
LINE
  5
1C34
  8
0
 62
     0
 10
139.52951827419989
 20
224.10605846072019
 30
0.0
 11
139.52951827419989
 21
224.10605846072019
 31
0.0
  0
LINE
  5
1C35
  8
0
 62
     0
 10
139.40451827419989
 20
224.10605846072019
 30
0.0
 11
139.40451827419989
 21
224.10605846072019
 31
0.0
  0
LINE
  5
1C36
  8
0
 62
     0
 10
139.27951827419989
 20
224.10605846072019
 30
0.0
 11
139.27951827419989
 21
224.10605846072019
 31
0.0
  0
LINE
  5
1C37
  8
0
 62
     0
 10
139.1545182742
 20
224.10605846072019
 30
0.0
 11
139.1545182742
 21
224.10605846072019
 31
0.0
  0
LINE
  5
1C38
  8
0
 62
     0
 10
139.0295182742
 20
224.10605846072019
 30
0.0
 11
139.0295182742
 21
224.10605846072019
 31
0.0
  0
LINE
  5
1C39
  8
0
 62
     0
 10
138.9045182742
 20
224.10605846072019
 30
0.0
 11
138.9045182742
 21
224.10605846072019
 31
0.0
  0
ENDBLK
  5
1C3B
  8
0
  0
ENDSEC
  0
SECTION
  2
ENTITIES
  0
CIRCLE
  5
16DC
  8
0
 10
115.8585976641041
 20
69.08229350800957
 30
0.0
 40
3.0
  0
CIRCLE
  5
16DD
  8
3
 10
115.8585976641041
 20
69.08229350800957
 30
0.0
 40
2.458499999999999
  0
LINE
  5
16DE
  8
3
 10
193.40009766410361
 20
134.39720732265079
 30
0.0
 11
192.8585976641036
 21
135.33511283494909
 31
0.0
  0
LINE
  5
16DF
  8
3
 10
198.31709766410361
 20
134.39720732265079
 30
0.0
 11
198.8585976641036
 21
135.33511283494909
 31
0.0
  0
LINE
  5
16E0
  8
0
 10
192.8585976641036
 20
134.39720732265079
 30
0.0
 11
198.8585976641036
 21
134.39720732265079
 31
0.0
  0
LINE
  5
16E1
  8
0
 10
192.8585976641036
 20
120.8972073226508
 30
0.0
 11
198.8585976641036
 21
120.8972073226508
 31
0.0
  0
LINE
  5
16E2
  8
0
 10
193.8585976641036
 20
119.8972073226508
 30
0.0
 11
192.8585976641036
 21
120.8972073226508
 31
0.0
  0
LINE
  5
16E3
  8
0
 10
198.8585976641036
 20
120.8972073226508
 30
0.0
 11
197.8585976641036
 21
119.8972073226508
 31
0.0
  0
LINE
  5
16E4
  8
0
 10
198.8585976641038
 20
135.89720732265079
 30
0.0
 11
198.8585976641036
 21
120.8972073226508
 31
0.0
  0
LINE
  5
16E5
  8
3
 10
198.31709766410361
 20
134.39720732265079
 30
0.0
 11
198.31709766410361
 21
120.3557073226507
 31
0.0
  0
LINE
  5
16E6
  8
3
 10
193.40009766410341
 20
134.39720732265079
 30
0.0
 11
193.40009766410341
 21
120.3557073226509
 31
0.0
  0
LINE
  5
16E7
  8
0
 10
192.8585976641038
 20
135.89720732265079
 30
0.0
 11
192.8585976641036
 21
120.8972073226508
 31
0.0
  0
LINE
  5
16E8
  8
0
 10
197.8585976641036
 20
119.8972073226508
 30
0.0
 11
193.8585976641036
 21
119.8972073226508
 31
0.0
  0
LINE
  5
16E9
  8
0
 10
117.8585976641038
 20
119.8972073226504
 30
0.0
 11
113.8585976641038
 21
119.8972073226504
 31
0.0
  0
LINE
  5
16EA
  8
0
 10
112.8585976641041
 20
135.8972073226505
 30
0.0
 11
112.8585976641038
 21
120.8972073226504
 31
0.0
  0
LINE
  5
16EB
  8
3
 10
113.4000976641036
 20
134.3972073226505
 30
0.0
 11
113.4000976641036
 21
120.3557073226506
 31
0.0
  0
LINE
  5
16EC
  8
3
 10
118.3170976641038
 20
134.3972073226505
 30
0.0
 11
118.3170976641038
 21
120.3557073226504
 31
0.0
  0
LINE
  5
16ED
  8
0
 10
118.8585976641041
 20
135.89720732265039
 30
0.0
 11
118.8585976641038
 21
120.8972073226504
 31
0.0
  0
LINE
  5
16EE
  8
0
 10
118.8585976641038
 20
120.8972073226504
 30
0.0
 11
117.8585976641038
 21
119.8972073226504
 31
0.0
  0
LINE
  5
16EF
  8
0
 10
113.8585976641038
 20
119.8972073226504
 30
0.0
 11
112.8585976641038
 21
120.8972073226504
 31
0.0
  0
LINE
  5
16F0
  8
0
 10
112.8585976641038
 20
120.8972073226504
 30
0.0
 11
118.8585976641038
 21
120.8972073226504
 31
0.0
  0
LINE
  5
16F1
  8
0
 10
112.8585976641038
 20
134.3972073226505
 30
0.0
 11
118.8585976641038
 21
134.3972073226505
 31
0.0
  0
LINE
  5
16F2
  8
3
 10
118.3170976641038
 20
134.3972073226505
 30
0.0
 11
118.8585976641038
 21
135.3351128349488
 31
0.0
  0
LINE
  5
16F3
  8
3
 10
113.4000976641039
 20
134.3972073226505
 30
0.0
 11
112.8585976641038
 21
135.3351128349488
 31
0.0
  0
LINE
  5
16F4
  8
1
 10
103.108597664104
 20
69.082293508009485
 30
0.0
 11
164.85859766410411
 21
69.082293508009613
 31
0.0
  0
LINE
  5
16F5
  8
1
 10
115.8585976641041
 20
56.33229350800957
 30
0.0
 11
115.8585976641041
 21
81.83229350800957
 31
0.0
  0
LINE
  5
16F6
  8
3
 10
124.5080196101071
 20
218.21212113729129
 30
0.0
 11
154.35859766410411
 21
218.2121211372914
 31
0.0
  0
LINE
  5
16F7
  8
3
 10
124.5080196101071
 20
227.21212113729129
 30
0.0
 11
154.35859766410411
 21
227.21212113729129
 31
0.0
  0
ARC
  5
16F8
  8
3
 10
154.35859766410411
 20
222.71212113729189
 30
0.0
 40
4.5
 50
270.0
 51
90.0
  0
LINE
  5
16F9
  8
0
 10
124.5080196101071
 20
228.21212113729129
 30
0.0
 11
154.35859766410411
 21
228.21212113729129
 31
0.0
  0
ARC
  5
16FA
  8
0
 10
154.35859766410411
 20
222.71212113729189
 30
0.0
 40
5.5
 50
270.0
 51
90.0
  0
LINE
  5
16FB
  8
0
 10
124.5080196101071
 20
217.21212113729129
 30
0.0
 11
154.35859766410411
 21
217.2121211372914
 31
0.0
  0
LINE
  5
16FC
  8
0
 10
115.8585976641036
 20
224.4441719434499
 30
0.0
 11
117.3585976641036
 21
223.57814653966579
 31
0.0
  0
LINE
  5
16FD
  8
0
 10
114.3585976653246
 20
223.57814654037131
 30
0.0
 11
115.8585976653246
 21
224.4441719441559
 31
0.0
  0
LINE
  5
16FE
  8
0
 10
114.3585976653246
 20
221.8460957342125
 30
0.0
 11
114.3585976653246
 21
223.57814654178119
 31
0.0
  0
LINE
  5
16FF
  8
0
 10
115.8585976641036
 20
220.98007033113299
 30
0.0
 11
114.3585976641036
 21
221.8460957349171
 31
0.0
  0
LINE
  5
1700
  8
0
 10
117.35859766288119
 20
221.84609573421159
 30
0.0
 11
115.8585976628826
 21
220.98007033042691
 31
0.0
  0
LINE
  5
1701
  8
0
 10
117.3585976628826
 20
223.57814654037139
 30
0.0
 11
117.3585976628826
 21
221.84609573280261
 31
0.0
  0
LINE
  5
1702
  8
1
 10
115.8585976641041
 20
209.9621211372914
 30
0.0
 11
115.8585976641041
 21
235.4621211372914
 31
0.0
  0
CIRCLE
  5
1703
  8
0
 10
115.8585976641041
 20
222.7121211372914
 30
0.0
 40
4.0
  0
LINE
  5
1704
  8
1
 10
103.108597664104
 20
222.71212113729129
 30
0.0
 11
164.85859766410411
 21
222.7121211372914
 31
0.0
  0
ARC
  5
1705
  8
3
 10
108.0887307449741
 20
222.7121211372914
 30
0.0
 40
14.48250673635196
 50
340.40996929184422
 51
19.59003070815578
  0
CIRCLE
  5
1706
  8
0
 10
126.798534901827
 20
222.65514081182371
 30
0.0
 40
0.7
  0
CIRCLE
  5
1707
  8
0
 10
124.6529377083959
 20
222.65514081182371
 30
0.0
 40
0.7
  0
CIRCLE
  5
1708
  8
0
 10
131.17311128451249
 20
222.7121211372914
 30
0.0
 40
0.7
  0
CIRCLE
  5
1709
  8
0
 10
129.0912380165075
 20
222.71212113729129
 30
0.0
 40
0.7
  0
CIRCLE
  5
170A
  8
0
 10
133.42721458287519
 20
222.7121211372914
 30
0.0
 40
0.7
  0
ARC
  5
170B
  8
0
 10
115.8585976641041
 20
222.7121211372914
 30
0.0
 40
7.75
 50
60.837293403825853
 51
299.16270659617408
  0
ARC
  5
170C
  8
0
 10
124.5080196101071
 20
238.21212113729129
 30
0.0
 40
10.0
 50
240.8372934038259
 51
270.0
  0
ARC
  5
170D
  8
0
 10
124.5080196101071
 20
207.21212113729129
 30
0.0
 40
10.0
 50
90.0
 51
119.1627065961745
  0
ARC
  5
170E
  8
3
 10
115.8585976641041
 20
222.7121211372914
 30
0.0
 40
6.75
 50
60.837293403825853
 51
299.16270659617408
  0
ARC
  5
170F
  8
3
 10
124.5080196101071
 20
238.21212113729129
 30
0.0
 40
11.0
 50
240.8372934038259
 51
270.0
  0
ARC
  5
1710
  8
3
 10
124.5080196101071
 20
207.21212113729129
 30
0.0
 40
11.0
 50
90.0
 51
119.1627065961745
  0
POLYLINE
  5
1711
  8
3
 66
     1
 10
0.0
 20
0.0
 30
0.0
 70
   128
  0
VERTEX
  5
18FC
  8
3
 10
138.8600654252875
 20
224.1121211372913
 30
0.0
  0
VERTEX
  5
18FD
  8
3
 10
138.8600654252875
 20
224.1121211372913
 30
0.0
  0
SEQEND
  5
18FE
  8
3
  0
POLYLINE
  5
1712
  8
3
 66
     1
 10
0.0
 20
0.0
 30
0.0
 70
     1
1001
ACAD
1000
ASC_BOUNDS
1002
{
1070
    19
1005
1764
1002
}
  0
VERTEX
  5
1713
  8
0
 10
140.26006542528779
 20
224.1121211372913
 30
0.0
  0
VERTEX
  5
1714
  8
0
 10
138.8600654252875
 20
224.1121211372913
 30
0.0
  0
VERTEX
  5
1715
  8
0
 10
138.8600654252877
 20
221.31212113729131
 30
0.0
  0
VERTEX
  5
1716
  8
0
 10
139.3600654252877
 20
221.31212113729131
 30
0.0
  0
VERTEX
  5
1717
  8
0
 10
139.36006542528801
 20
222.41212113729171
 30
0.0
  0
VERTEX
  5
1718
  8
0
 10
140.26006542528779
 20
222.41212113729171
 30
0.0
 42
0.0638662016826598
  0
VERTEX
  5
1719
  8
0
 10
140.7992947602504
 20
222.48128028890221
 30
0.0
 42
0.0768515768794634
  0
VERTEX
  5
171A
  8
0
 10
141.21465957988971
 20
222.661080373283
 30
0.0
 42
0.1071542864067526
 70
     2
 50
32.1957339347097
  0
VERTEX
  5
171B
  8
0
 10
141.51959416652011
 20
222.95998682187229
 30
0.0
 42
0.1465066387553817
 50
32.1957339347097
  0
VERTEX
  5
171C
  8
0
 10
141.6100654252877
 20
223.2621211372915
 30
0.0
 42
0.1465066387556817
  0
VERTEX
  5
171D
  8
0
 10
141.51959416651991
 20
223.56425545271091
 30
0.0
 42
0.107154286406845
  0
VERTEX
  5
171E
  8
0
 10
141.21465957988971
 20
223.86316190129989
 30
0.0
 42
0.0768515768794924
 70
     2
 50
147.80426606529031
  0
VERTEX
  5
171F
  8
0
 10
140.7992947602504
 20
224.04296198568079
 30
0.0
 42
0.0638662016826858
 50
147.80426606529031
  0
SEQEND
  5
1720
  8
0
  6
CONTINUOUS
 62
     0
  0
POLYLINE
  5
1721
  8
3
 66
     1
 10
0.0
 20
0.0
 30
0.0
 70
     1
1001
ACAD
1000
ASC_BOUNDS
1002
{
1070
    19
1005
1764
1002
}
  0
VERTEX
  5
1722
  8
0
 10
139.3600654252877
 20
222.7621211372913
 30
0.0
  0
VERTEX
  5
1723
  8
0
 10
140.26006542528779
 20
222.7621211372913
 30
0.0
 42
0.0598207225921702
  0
VERTEX
  5
1724
  8
0
 10
140.60099964459141
 20
222.803057491517
 30
0.0
 42
0.0733124203438316
  0
VERTEX
  5
1725
  8
0
 10
140.86110618929641
 20
222.90856774669811
 30
0.0
 42
0.1067926625741322
 70
     2
 50
30.46554491946257
  0
VERTEX
  5
1726
  8
0
 10
141.05452522939481
 20
223.08678035200191
 30
0.0
 42
0.1545927959857233
 50
30.46554491946257
  0
VERTEX
  5
1727
  8
0
 10
141.1100654252877
 20
223.26212113729139
 30
0.0
 42
0.1545927959856755
  0
VERTEX
  5
1728
  8
0
 10
141.05452522939481
 20
223.43746192258081
 30
0.0
 42
0.1067926625740517
  0
VERTEX
  5
1729
  8
0
 10
140.86110618929641
 20
223.61567452788461
 30
0.0
 42
0.0733124203438496
 70
     2
 50
149.53445508053741
  0
VERTEX
  5
172A
  8
0
 10
140.60099964459161
 20
223.7211847830657
 30
0.0
 42
0.0598207225922329
 50
149.53445508053741
  0
VERTEX
  5
172B
  8
0
 10
140.26006542528779
 20
223.76212113729139
 30
0.0
  0
VERTEX
  5
172C
  8
0
 10
139.3600654252877
 20
223.7621211372913
 30
0.0
  0
SEQEND
  5
172D
  8
0
  6
CONTINUOUS
 62
     0
  0
POLYLINE
  5
172E
  8
3
 66
     1
 10
0.0
 20
0.0
 30
0.0
 70
   129
1001
ACAD
1000
ASC_BOUNDS
1002
{
1070
    19
1005
1764
1002
}
  0
VERTEX
  5
18FF
  8
3
 10
145.0200893600645
 20
222.4921211372924
 30
0.0
 42
-0.8428571428574707
  0
VERTEX
  5
1900
  8
3
 10
142.22008936006449
 20
222.49212113729141
 30
0.0
  0
VERTEX
  5
1901
  8
3
 10
142.22008936006449
 20
224.11212113729141
 30
0.0
  0
VERTEX
  5
1902
  8
3
 10
142.72008936006449
 20
224.11212113729141
 30
0.0
  0
VERTEX
  5
1903
  8
3
 10
142.72008936006449
 20
222.49212113729141
 30
0.0
 42
0.9222222222221308
  0
VERTEX
  5
1904
  8
3
 10
144.5200893600647
 20
222.49212113729141
 30
0.0
  0
VERTEX
  5
1905
  8
3
 10
144.5200893600645
 20
224.11212113729141
 30
0.0
  0
VERTEX
  5
1906
  8
3
 10
145.0200893600645
 20
224.11212113729141
 30
0.0
  0
SEQEND
  5
1907
  8
3
  0
POLYLINE
  5
172F
  8
3
 66
     1
 10
0.0
 20
0.0
 30
0.0
1001
ACAD
1000
ASC_BOUNDS
1002
{
1070
    19
1005
1764
1002
}
  0
VERTEX
  5
1730
  8
0
 10
147.8989144112349
 20
223.2983209125135
 30
0.0
  0
VERTEX
  5
1731
  8
0
 10
148.41389810851629
 20
223.2983209125135
 30
0.0
 42
0.0731441652054269
 50
28.300755766006681
  0
VERTEX
  5
1732
  8
0
 10
148.43063529848791
 20
223.41212113729139
 30
0.0
 42
0.1654118402241002
  0
VERTEX
  5
1733
  8
0
 10
148.34866721782601
 20
223.65311158149649
 30
0.0
 42
0.1056769941633883
  0
VERTEX
  5
1734
  8
0
 10
148.0498741140307
 20
223.90709588412199
 30
0.0
 42
0.068731699995536
 70
     2
 50
151.69924423399331
  0
VERTEX
  5
1735
  8
0
 10
147.65456105822699
 20
224.0544025468466
 30
0.0
 42
0.0549166740501718
 50
151.69924423399331
  0
VERTEX
  5
1736
  8
0
 10
147.1306352984879
 20
224.11212113729141
 30
0.0
 42
0.054916674050175
  0
VERTEX
  5
1737
  8
0
 10
146.60670953874859
 20
224.0544025468466
 30
0.0
 42
0.068731699995473
  0
VERTEX
  5
1738
  8
0
 10
146.21139648294519
 20
223.90709588412199
 30
0.0
 42
0.1056769941631037
 70
     2
 50
208.30075576600669
  0
VERTEX
  5
1739
  8
0
 10
145.91260337914969
 20
223.65311158149649
 30
0.0
 42
0.1654118402234486
 50
208.30075576600669
  0
VERTEX
  5
173A
  8
0
 10
145.830635298488
 20
223.41212113729139
 30
0.0
 42
0.165411840223518
  0
VERTEX
  5
173B
  8
0
 10
145.91260337914969
 20
223.17113069308601
 30
0.0
 42
0.0573677152738729
  0
VERTEX
  5
173C
  8
0
 10
146.06201268058359
 20
223.01714639046071
 30
0.0
  0
VERTEX
  5
173D
  8
0
 10
147.57797830886309
 20
222.3448295990068
 30
0.0
 42
-0.0324398768999721
  0
VERTEX
  5
173E
  8
0
 10
147.69632072343731
 20
222.29496384976611
 30
0.0
 42
-0.1042029417663218
 70
     2
 50
333.43494882292202
  0
VERTEX
  5
173F
  8
0
 10
147.881798817109
 20
222.1476239568573
 30
0.0
 42
-0.1747045211885041
  0
VERTEX
  5
1740
  8
0
 10
147.93063529848791
 20
222.0121211372915
 30
0.0
 42
-0.1747045211886798
  0
VERTEX
  5
1741
  8
0
 10
147.8817988171088
 20
221.8766183177255
 30
0.0
 42
-0.1042029417661885
  0
VERTEX
  5
1742
  8
0
 10
147.69632072343731
 20
221.7292784248169
 30
0.0
 42
-0.0649481016502815
 70
     2
 50
206.56505117707789
  0
VERTEX
  5
1743
  8
0
 10
147.45417993459881
 20
221.6452735109022
 30
0.0
 42
-0.0510992989620986
  0
VERTEX
  5
1744
  8
0
 10
147.1306352984879
 20
221.61212113729141
 30
0.0
 42
-0.0510992989620986
  0
VERTEX
  5
1745
  8
0
 10
146.80709066237699
 20
221.6452735109022
 30
0.0
 42
-0.0649481016502818
  0
VERTEX
  5
1746
  8
0
 10
146.56494987353861
 20
221.7292784248169
 30
0.0
 42
-0.1042029417662831
 70
     2
 50
153.434948822922
  0
VERTEX
  5
1747
  8
0
 10
146.37947177986709
 20
221.87661831772559
 30
0.0
 42
-0.1747045211887488
  0
VERTEX
  5
1748
  8
0
 10
146.330635298488
 20
222.0121211372915
 30
0.0
 42
-0.1423055512875743
  0
VERTEX
  5
1749
  8
0
 10
146.36369356458181
 20
222.12592136206911
 30
0.0
  0
VERTEX
  5
174A
  8
0
 10
145.8473724884914
 20
222.12592136206911
 30
0.0
 42
0.0731441652080551
  0
VERTEX
  5
174B
  8
0
 10
145.830635298488
 20
222.0121211372915
 30
0.0
 42
0.1654118402234486
  0
VERTEX
  5
174C
  8
0
 10
145.91260337914969
 20
221.77113069308629
 30
0.0
 42
0.1056769941631037
  0
VERTEX
  5
174D
  8
0
 10
146.21139648294519
 20
221.51714639046091
 30
0.0
 42
0.068731699995473
 70
     2
 50
151.69924423399331
  0
VERTEX
  5
174E
  8
0
 10
146.60670953874859
 20
221.36983972773629
 30
0.0
 42
0.054916674050175
  0
VERTEX
  5
174F
  8
0
 10
147.1306352984879
 20
221.3121211372914
 30
0.0
 42
0.0549166740501718
  0
VERTEX
  5
1750
  8
0
 10
147.65456105822699
 20
221.36983972773621
 30
0.0
 42
0.068731699995536
  0
VERTEX
  5
1751
  8
0
 10
148.0498741140307
 20
221.51714639046091
 30
0.0
 42
0.1056769941633883
 70
     2
 50
208.30075576600669
  0
VERTEX
  5
1752
  8
0
 10
148.34866721782601
 20
221.77113069308629
 30
0.0
 42
0.1654118402241002
  0
VERTEX
  5
1753
  8
0
 10
148.43063529848791
 20
222.0121211372915
 30
0.0
 42
0.165411840223883
  0
VERTEX
  5
1754
  8
0
 10
148.3486672178262
 20
222.25311158149671
 30
0.0
 42
0.0573677152753158
  0
VERTEX
  5
1755
  8
0
 10
148.19925791638551
 20
222.40709588412199
 30
0.0
  0
VERTEX
  5
1756
  8
0
 10
146.5649498735406
 20
223.1292784248167
 30
0.0
 42
-0.1042029417670304
 70
     2
 50
333.43494882292202
  0
VERTEX
  5
1757
  8
0
 10
146.37947177986709
 20
223.27661831772539
 30
0.0
 42
-0.1747045211890624
  0
VERTEX
  5
1758
  8
0
 10
146.330635298488
 20
223.41212113729139
 30
0.0
 42
-0.1747045211887488
  0
VERTEX
  5
1759
  8
0
 10
146.37947177986709
 20
223.54762395685731
 30
0.0
 42
-0.1042029417662831
 50
206.565051177078
  0
VERTEX
  5
175A
  8
0
 10
146.56494987353861
 20
223.694963849766
 30
0.0
 42
-0.0649481016502818
 70
     2
 50
206.565051177078
  0
VERTEX
  5
175B
  8
0
 10
146.80709066237699
 20
223.77896876368069
 30
0.0
 42
-0.0510992989620986
  0
VERTEX
  5
175C
  8
0
 10
147.1306352984879
 20
223.8121211372914
 30
0.0
 42
-0.0510992989620986
  0
VERTEX
  5
175D
  8
0
 10
147.45417993459881
 20
223.77896876368069
 30
0.0
 42
-0.0649481016502815
 50
153.434948822922
  0
VERTEX
  5
175E
  8
0
 10
147.69632072343731
 20
223.694963849766
 30
0.0
 42
-0.1042029417661885
 70
     2
 50
153.434948822922
  0
VERTEX
  5
175F
  8
0
 10
147.8817988171088
 20
223.54762395685739
 30
0.0
 42
-0.1747045211886798
  0
VERTEX
  5
1760
  8
0
 10
147.93063529848791
 20
223.41212113729139
 30
0.0
 42
-0.1424086766312409
  0
VERTEX
  5
1761
  8
0
 10
147.8975310074122
 20
223.2982484113914
 30
0.0
 50
26.565051177078029
  0
SEQEND
  5
1762
  8
0
  6
CONTINUOUS
 62
     0
  0
POLYLINE
  5
1763
  8
3
 66
     1
 10
0.0
 20
0.0
 30
0.0
 70
   129
1001
ACAD
1000
ASC_BOUNDS
1002
{
1070
    19
1005
1764
1002
}
  0
VERTEX
  5
1908
  8
3
 10
149.69309402509199
 20
224.11212113729141
 30
0.0
  0
VERTEX
  5
1909
  8
3
 10
149.6930940250918
 20
222.9621211372914
 30
0.0
  0
VERTEX
  5
190A
  8
3
 10
151.49309402509169
 20
222.9621211372914
 30
0.0
  0
VERTEX
  5
190B
  8
3
 10
151.49309402509169
 20
224.11212113729141
 30
0.0
  0
VERTEX
  5
190C
  8
3
 10
151.99309402509169
 20
224.11212113729141
 30
0.0
  0
VERTEX
  5
190D
  8
3
 10
151.99309402509169
 20
221.3121211372914
 30
0.0
  0
VERTEX
  5
190E
  8
3
 10
151.49309402509149
 20
221.3121211372914
 30
0.0
  0
VERTEX
  5
190F
  8
3
 10
151.49309402509169
 20
222.61212113729141
 30
0.0
  0
VERTEX
  5
1910
  8
3
 10
149.69309402509151
 20
222.61212113729141
 30
0.0
  0
VERTEX
  5
1911
  8
3
 10
149.69309402509151
 20
221.3121211372914
 30
0.0
  0
VERTEX
  5
1912
  8
3
 10
149.1930940250916
 20
221.3121211372914
 30
0.0
  0
VERTEX
  5
1913
  8
3
 10
149.1930940250918
 20
224.11212113729141
 30
0.0
  0
SEQEND
  5
1914
  8
3
  0
INSERT
  5
1764
  8
3
  6
CONTINUOUS
  2
*X0
 10
0.0
 20
0.0
 30
0.0
1001
ACAD
1000
HATCH
1002
{
1070
    19
1000
DOTS
1040
2.0
1040
0.0
1000
ASC_BOUNDS
1070
     5
1070
     2
1070
     1
1005
172F
1070
     2
1070
     1
1005
1712
1070
     2
1070
     1
1005
1721
1070
     2
1070
     1
1005
172E
1070
     2
1070
     1
1005
1763
1000
ASC_SEEDPOINT
1011
-467.47048172580003
1021
0.0
1031
0.0
1021
29.856058460720192
1031
0.0
1000
R14_HATCH_DATA
1000
1764
1011
1.0
1021
0.0
1031
0.0
1021
0.0
1031
0.0
1011
0.0
1021
0.0
1031
0.0
1021
1.0
1031
0.0
1011
0.0
1021
0.0
1031
0.0
1021
0.0
1031
1.0
1040
0.0
1010
0.0
1020
0.0
1030
1.0
1000
DOTS
1070
     0
1070
     1
1071
        5
1071
        1
1071
       12
1070
     1
1040
149.69309402509199
1040
224.11212113729141
1040
149.6930940250918
1040
222.9621211372914
1070
     1
1040
149.6930940250918
1040
222.9621211372914
1040
151.49309402509169
1040
222.9621211372914
1070
     1
1040
151.49309402509169
1040
222.9621211372914
1040
151.49309402509169
1040
224.11212113729141
1070
     1
1040
151.49309402509169
1040
224.11212113729141
1040
151.99309402509169
1040
224.11212113729141
1070
     1
1040
151.99309402509169
1040
224.11212113729141
1040
151.99309402509169
1040
221.3121211372914
1070
     1
1040
151.99309402509169
1040
221.3121211372914
1040
151.49309402509149
1040
221.3121211372914
1070
     1
1040
151.49309402509149
1040
221.3121211372914
1040
151.49309402509169
1040
222.61212113729141
1070
     1
1040
151.49309402509169
1040
222.61212113729141
1040
149.69309402509151
1040
222.61212113729141
1070
     1
1040
149.69309402509151
1040
222.61212113729141
1040
149.69309402509151
1040
221.3121211372914
1070
     1
1040
149.69309402509151
1040
221.3121211372914
1040
149.1930940250916
1040
221.3121211372914
1070
     1
1040
149.1930940250916
1040
221.3121211372914
1040
149.1930940250918
1040
224.11212113729141
1070
     1
1040
149.1930940250918
1040
224.11212113729141
1040
149.69309402509199
1040
224.11212113729141
1071
        1
1005
1763
1071
        1
1071
        8
1070
     2
1040
143.62008936006441
1040
222.73262961186759
1040
1.4205084745761549
1040
0.1701310799365547
1040
2.9714615736525469
1070
     0
1070
     1
1040
142.22008936006449
1040
222.49212113729141
1040
142.22008936006449
1040
224.11212113729141
1070
     1
1040
142.22008936006449
1040
224.11212113729141
1040
142.72008936006449
1040
224.11212113729141
1070
     1
1040
142.72008936006449
1040
224.11212113729141
1040
142.72008936006449
1040
222.49212113729141
1070
     2
1040
143.62008936006461
1040
222.56507294452041
1040
0.9029518072290157
1040
3.222473388805053
1040
6.2023045719643566
1070
     1
1070
     1
1040
144.5200893600647
1040
222.49212113729141
1040
144.5200893600645
1040
224.11212113729141
1070
     1
1040
144.5200893600645
1040
224.11212113729141
1040
145.0200893600645
1040
224.11212113729141
1070
     1
1040
145.0200893600645
1040
224.11212113729141
1040
145.0200893600645
1040
222.4921211372924
1071
        1
1005
172E
1071
       16
1071
       11
1070
     1
1040
139.3600654252877
1040
222.7621211372913
1040
140.26006542528779
1040
222.7621211372913
1070
     2
1040
140.26006542528779
1040
224.20230711892111
1040
1.440185981629696
1040
4.7123889803846888
1040
4.9513870559215336
1070
     1
1070
     2
1040
140.37319006245659
1040
223.73802516232561
1040
0.962321022928365
1040
4.951387055921538
1040
5.2441130476435411
1070
     1
1070
     2
1040
140.54538065854601
1040
223.44530114897401
1040
0.6227080824000723
1040
5.2441130476432454
1040
5.6696708065080452
1070
     1
1070
     2
1040
140.80551928710989
1040
223.26212113729119
1040
0.3045461381778302
1040
5.6696708065101458
1040
6.283185307180239
1070
     1
1070
     2
1040
140.80551928710969
1040
223.26212113729159
1040
0.3045461381780115
1040
6.2831853071789316
1040
6.8966998078488562
1070
     1
1070
     2
1040
140.54538065854581
1040
223.07894112560831
1040
0.6227080824004059
1040
0.6135145006718314
1040
1.039072259536336
1070
     1
1070
     2
1040
140.37319006245701
1040
222.7862171122581
1040
0.9623210229273294
1040
1.039072259535891
1040
1.331798251257968
1070
     1
1070
     2
1040
140.26006542528791
1040
222.3219351556622
1040
1.440185981629156
1040
1.3317982512578379
1040
1.570796326794935
1070
     1
1070
     1
1040
140.26006542528779
1040
223.76212113729139
1040
139.3600654252877
1040
223.7621211372913
1070
     1
1040
139.3600654252877
1040
223.7621211372913
1040
139.3600654252877
1040
222.7621211372913
1071
        1
1005
1721
1071
        1
1071
       13
1070
     1
1040
140.26006542528779
1040
224.1121211372913
1040
138.8600654252875
1040
224.1121211372913
1070
     1
1040
138.8600654252875
1040
224.1121211372913
1040
138.8600654252877
1040
221.31212113729131
1070
     1
1040
138.8600654252877
1040
221.31212113729131
1040
139.3600654252877
1040
221.31212113729131
1070
     1
1040
139.3600654252877
1040
221.31212113729131
1040
139.36006542528801
1040
222.41212113729171
1070
     1
1040
139.36006542528801
1040
222.41212113729171
1040
140.26006542528779
1040
222.41212113729171
1070
     2
1040
140.26006542528779
1040
224.54886845889001
1040
2.1367473215983348
1040
4.7123889803846888
1040
4.9675072969369927
1070
     1
1070
     2
1040
140.42553771659141
1040
223.91439156793371
1040
1.4810476919302329
1040
4.9675072969367919
1040
5.2743105426413379
1070
     1
1070
     2
1040
140.67776016102971
1040
223.51380297970749
1040
1.0076690078986801
1040
5.2743105426416106
1040
5.7012984313821384
1070
     1
1070
     2
1040
141.06033176085191
1040
223.2621211372915
1040
0.549733664435821
1040
5.7012984313818826
1040
6.2831853071795862
1070
     1
1070
     2
1040
141.0603317608527
1040
223.2621211372915
1040
0.5497336644350526
1040
0.0
1040
0.5818868757988702
1070
     1
1070
     2
1040
140.67776016103051
1040
223.0104392948767
1040
1.007669007897255
1040
0.5818868757970561
1040
1.008874764537949
1070
     1
1070
     2
1040
140.4255377165918
1040
222.60985070664981
1040
1.481047691929656
1040
1.0088747645382521
1040
1.3156780102429091
1070
     1
1070
     2
1040
140.26006542528771
1040
221.97537381569381
1040
2.136747321597511
1040
1.3156780102424359
1040
1.570796326794843
1070
     1
1071
        1
1005
1712
1071
       33
1071
       49
1070
     1
1040
147.8989144112349
1040
223.2983209125135
1040
148.41389810851629
1040
223.2983209125135
1070
     2
1040
148.03538900308641
1040
223.41212113718481
1040
0.3952462954015362
1040
5.9911287465350993
1040
6.2831853074493162
1070
     1
1070
     2
1040
148.03538900308669
1040
223.41212113729151
1040
0.3952462954011651
1040
6.2831853071791537
1040
6.9388953764548109
1070
     1
1070
     2
1040
147.6051302320669
1040
223.0811429604754
1040
0.9380806749020205
1040
0.6557100692737518
1040
1.0768549578751281
1070
     1
1070
     2
1040
147.3189455326322
1040
222.54965709009599
1040
1.541718739145274
1040
1.0768549578754101
1040
1.3513500584825049
1070
     1
1070
     2
1040
147.1306352984879
1040
221.70536072214591
1040
2.4067604151454982
1040
1.3513500584822611
1040
1.5707963267948959
1070
     1
1070
     2
1040
147.1306352984879
1040
221.705360722145
1040
2.4067604151464081
1040
1.5707963267948959
1040
1.790242595107544
1070
     1
1070
     2
1040
146.94232506434389
1040
222.54965709009551
1040
1.54171873914586
1040
1.7902425951075429
1040
2.064737695714387
1070
     1
1070
     2
1040
146.6561403649105
1040
223.0811429604729
1040
0.9380806749048909
1040
2.0647376957148431
1040
2.4858825843151031
1070
     1
1070
     2
1040
146.22588159389051
1040
223.41212113729139
1040
0.3952462954025289
1040
2.4858825843166801
1040
3.1415926535897931
1070
     1
1070
     2
1040
146.2258815938907
1040
223.41212113729119
1040
0.3952462954026998
1040
3.141592653589361
1040
3.7973027228627561
1070
     1
1070
     2
1040
146.65614036492261
1040
223.74309931409519
1040
0.9380806749057356
1040
3.797302722844444
1040
4.0265223461331727
1070
     1
1070
     1
1040
146.06201268058359
1040
223.01714639046071
1040
147.57797830886309
1040
222.3448295990068
1070
     2
1040
147.2532603186682
1040
221.40884304022831
1040
0.9907131832019546
1040
5.0463225703502284
1040
5.1760365893856113
1070
     0
1070
     2
1040
147.4394054404782
1040
221.78113328384819
1040
0.5744800371549418
1040
5.1760365893858049
1040
5.5913494935362582
1070
     0
1070
     2
1040
147.71823244474049
1040
222.0121211372917
1040
0.2124028537474152
1040
5.5913494935391581
1040
6.2831853071803891
1070
     0
1070
     2
1040
147.71823244474029
1040
222.0121211372915
1040
0.2124028537475908
1040
6.2831853071795862
1040
6.9750211208214203
1070
     0
1070
     2
1040
147.439405440478
1040
222.24310899073481
1040
0.5744800371549731
1040
0.691835813643543
1040
1.1071487177934709
1070
     0
1070
     2
1040
147.25326031866831
1040
222.6153992343551
1040
0.9907131832022713
1040
1.107148717794231
1040
1.3665767558668851
1070
     0
1070
     2
1040
147.1306352984879
1040
223.20748520796559
1040
1.5953640706741219
1040
1.366576755866697
1040
1.5707963267948959
1070
     0
1070
     2
1040
147.1306352984879
1040
223.20748520796559
1040
1.5953640706741219
1040
1.5707963267948959
1040
1.7750158977230961
1070
     0
1070
     2
1040
147.00801027830749
1040
222.6153992343551
1040
0.9907131832022418
1040
1.775015897722912
1040
2.034443935795573
1070
     0
1070
     2
1040
146.82186515649769
1040
222.24310899073441
1040
0.5744800371545478
1040
2.0344439357963
1040
2.4497568399466001
1070
     0
1070
     2
1040
146.5430381522354
1040
222.0121211372915
1040
0.2124028537474214
1040
2.449756839947653
1040
3.1415926535897931
1070
     0
1070
     2
1040
146.54303815223511
1040
222.01212113729181
1040
0.2124028537471077
1040
3.1415926535885879
1040
3.7070184662761272
1070
     0
1070
     1
1040
146.36369356458181
1040
222.12592136206911
1040
145.8473724884914
1040
222.12592136206911
1070
     2
1040
146.2258815938907
1040
222.0121211372919
1040
0.3952462954027268
1040
2.8495360926660558
1040
3.141592653590727
1070
     1
1070
     2
1040
146.22588159389051
1040
222.0121211372915
1040
0.3952462954025293
1040
3.1415926535897931
1040
3.7973027228629048
1070
     1
1070
     2
1040
146.6561403649105
1040
222.34309931410999
1040
0.9380806749048849
1040
3.7973027228644831
1040
4.2184476114647431
1070
     1
1070
     2
1040
146.94232506434389
1040
222.8745851844873
1040
1.5417187391458591
1040
4.218447611465197
1040
4.4929427120720433
1070
     1
1070
     2
1040
147.1306352984879
1040
223.71888155243789
1040
2.4067604151464068
1040
4.4929427120720407
1040
4.7123889803846888
1070
     1
1070
     2
1040
147.1306352984879
1040
223.7188815524369
1040
2.4067604151454982
1040
4.7123889803846888
1040
4.9318352486973254
1070
     1
1070
     2
1040
147.3189455326322
1040
222.87458518448679
1040
1.5417187391452769
1040
4.9318352486970802
1040
5.2063303493041762
1070
     1
1070
     2
1040
147.6051302320669
1040
222.34309931410749
1040
0.9380806749020249
1040
5.2063303493044568
1040
5.6274752379058341
1070
     1
1070
     2
1040
148.03538900308669
1040
222.0121211372913
1040
0.3952462954011635
1040
5.6274752379043598
1040
6.283185307180017
1070
     1
1070
     2
1040
148.03538900308641
1040
222.01212113729181
1040
0.3952462954015345
1040
6.283185307178722
1040
6.9388953764535479
1070
     1
1070
     2
1040
147.6051302320665
1040
221.68114296047429
1040
0.9380806749032387
1040
0.6557100692743965
1040
0.8849296925688804
1070
     1
1070
     1
1040
148.19925791638551
1040
222.40709588412199
1040
146.5649498735406
1040
223.1292784248167
1070
     2
1040
146.82186515649619
1040
223.64310899073581
1040
0.5744800371543953
1040
2.0344439357894628
1040
2.4497568399427241
1070
     0
1070
     2
1040
146.54303815223511
1040
223.41212113729119
1040
0.21240285374713
1040
2.4497568399472112
1040
3.141592653590596
1070
     0
1070
     2
1040
146.5430381522354
1040
223.41212113729139
1040
0.2124028537474203
1040
3.1415926535897931
1040
3.8334284672319332
1070
     0
1070
     2
1040
146.82186515649769
1040
223.18113328384851
1040
0.5744800371545479
1040
3.8334284672329848
1040
4.2487413713832849
1070
     0
1070
     2
1040
147.00801027830749
1040
222.8088430402278
1040
0.9907131832022459
1040
4.2487413713840123
1040
4.5081694094566727
1070
     0
1070
     2
1040
147.1306352984879
1040
222.2167570666173
1040
1.5953640706741219
1040
4.5081694094564888
1040
4.7123889803846888
1070
     0
1070
     2
1040
147.1306352984879
1040
222.2167570666173
1040
1.5953640706741219
1040
4.7123889803846888
1040
4.9166085513128879
1070
     0
1070
     2
1040
147.25326031866831
1040
222.80884304022771
1040
0.9907131832022698
1040
4.9166085513126996
1040
5.1760365893853537
1070
     0
1070
     2
1040
147.439405440478
1040
223.18113328384811
1040
0.5744800371549673
1040
5.176036589386114
1040
5.5913494935360433
1070
     0
1070
     2
1040
147.71823244474029
1040
223.41212113729139
1040
0.212402853747589
1040
5.5913494935377521
1040
6.2831853071795862
1070
     0
1070
     2
1040
147.71823244474041
1040
223.41212113729139
1040
0.2124028537474487
1040
6.2831853071795862
1040
6.8490154277212794
1070
     0
1071
        1
1005
172F
1070
     0
1070
     1
1040
0.0
1040
2.0
1070
     0
1070
     1
1040
0.0
1040
-467.47048172580003
1040
29.856058460720192
1040
0.0625
1040
0.125
1070
     2
1040
0.0
1040
-0.125
1071
        1
1040
-467.47048172580003
1040
29.856058460720192
1040
0.0
1002
}
  0
LINE
  5
1765
  8
3
 10
53.400097664104123
 20
134.3972073226505
 30
0.0
 11
52.858597664104082
 21
135.3351128349488
 31
0.0
  0
LINE
  5
1766
  8
3
 10
58.31709766410404
 20
134.3972073226505
 30
0.0
 11
58.858597664104082
 21
135.3351128349488
 31
0.0
  0
LINE
  5
1767
  8
0
 10
52.858597664104082
 20
134.3972073226505
 30
0.0
 11
58.858597664104082
 21
134.3972073226505
 31
0.0
  0
LINE
  5
1768
  8
0
 10
52.858597664104082
 20
120.8972073226504
 30
0.0
 11
58.858597664104082
 21
120.8972073226504
 31
0.0
  0
LINE
  5
1769
  8
0
 10
53.858597664104082
 20
119.8972073226504
 30
0.0
 11
52.858597664104082
 21
120.8972073226504
 31
0.0
  0
LINE
  5
176A
  8
0
 10
58.858597664104082
 20
120.8972073226504
 30
0.0
 11
57.858597664104082
 21
119.8972073226504
 31
0.0
  0
LINE
  5
176B
  8
0
 10
58.858597664104309
 20
135.89720732265039
 30
0.0
 11
58.858597664104082
 21
120.8972073226504
 31
0.0
  0
LINE
  5
176C
  8
3
 10
58.31709766410404
 20
134.3972073226505
 30
0.0
 11
58.31709766410404
 21
120.3557073226504
 31
0.0
  0
LINE
  5
176D
  8
3
 10
53.400097664103889
 20
134.3972073226505
 30
0.0
 11
53.400097664103889
 21
120.3557073226506
 31
0.0
  0
LINE
  5
176E
  8
0
 10
52.858597664104309
 20
135.8972073226505
 30
0.0
 11
52.858597664104082
 21
120.8972073226504
 31
0.0
  0
LINE
  5
176F
  8
0
 10
57.858597664104082
 20
119.8972073226504
 30
0.0
 11
53.858597664104082
 21
119.8972073226504
 31
0.0
  0
LINE
  5
1770
  8
0
 10
192.8585976641036
 20
164.74300644971891
 30
0.0
 11
192.8585976641038
 21
154.0298835259853
 31
0.0
  0
LINE
  5
1771
  8
0
 10
198.8585976641036
 20
164.74300644971871
 30
0.0
 11
198.8585976641038
 21
154.0298835259853
 31
0.0
  0
LINE
  5
1772
  8
0
 10
190.3585976641036
 20
169.4359104502231
 30
0.0
 11
190.3585976641038
 21
154.0298835259853
 31
0.0
  0
LINE
  5
1773
  8
0
 10
201.35859766410391
 20
169.4359104502231
 30
0.0
 11
201.3585976641036
 21
154.0298835259853
 31
0.0
  0
ARC
  5
1774
  8
0
 10
195.8585976641038
 20
169.6405190927988
 30
0.0
 40
5.7433117701486651
 50
196.73721751055061
 51
343.26278248944931
  0
LINE
  5
1775
  8
1
 10
195.8585976641036
 20
176.8972073226505
 30
0.0
 11
195.8585976641038
 21
114.8972073226504
 31
0.0
  0
ARC
  5
1776
  8
0
 10
195.85859766410289
 20
156.3891870657435
 30
0.0
 40
15.508020256906979
 50
75.012719856155641
 51
104.987280143844
  0
ARC
  5
1777
  8
0
 10
199.3585976641038
 20
169.4359104502231
 30
0.0
 40
2.0
 50
359.9999999999992
 51
75.213219191446953
  0
ARC
  5
1778
  8
0
 10
210.1131591765004
 20
167.3401993768374
 30
0.0
 40
8.7761008957460263
 50
184.01506263106029
 51
203.09859419292459
  0
ARC
  5
1779
  8
0
 10
181.60403615170731
 20
167.3401993768374
 30
0.0
 40
8.7761008957460263
 50
336.90140580707521
 51
355.98493736893971
  0
ARC
  5
177A
  8
0
 10
192.3585976641038
 20
169.4359104502231
 30
0.0
 40
2.0
 50
104.786780808553
 51
180.0000000000008
  0
ARC
  5
177B
  8
0
 10
70.113159176500858
 20
167.3401993768374
 30
0.0
 40
8.7761008957460263
 50
184.01506263106029
 51
203.09859419292459
  0
LINE
  5
177C
  8
0
 10
124.5080196101069
 20
63.582293508008974
 30
0.0
 11
154.3585976641036
 21
63.58229350800903
 31
0.0
  0
LINE
  5
177D
  8
0
 10
124.5080196101069
 20
74.582293508008945
 30
0.0
 11
154.3585976641036
 21
74.582293508008888
 31
0.0
  0
ARC
  5
177E
  8
0
 10
154.3585976641036
 20
69.082293508009514
 30
0.0
 40
5.5
 50
270.0
 51
90.0
  0
ARC
  5
177F
  8
3
 10
55.858597664104082
 20
142.8321892453036
 30
0.0
 40
23.89351874999976
 50
76.435820644062986
 51
103.4559619983438
  0
ARC
  5
1780
  8
0
 10
41.604036151707533
 20
167.3401993768374
 30
0.0
 40
8.7761008957460263
 50
336.90140580707521
 51
355.98493736893971
  0
ARC
  5
1781
  8
0
 10
59.05859766410412
 20
164.09720732265041
 30
0.0
 40
0.8
 50
0.0
 51
90.0
  0
LINE
  5
1782
  8
0
 10
59.858597664104082
 20
163.89720732265019
 30
0.0
 11
59.858597664104082
 21
164.09720732265041
 31
0.0
  0
LINE
  5
1783
  8
0
 10
51.858597664104082
 20
163.89720732265019
 30
0.0
 11
51.858597664104082
 21
164.09720732265041
 31
0.0
  0
LINE
  5
1784
  8
0
 10
48.55859698063864
 20
144.8972073226503
 30
0.0
 11
63.15859834756953
 21
144.8972073226503
 31
0.0
  0
LINE
  5
1785
  8
0
 10
62.108654779507788
 20
163.89720732265019
 30
0.0
 11
49.608540548700368
 21
163.89720732265019
 31
0.0
  0
LINE
  5
1786
  8
0
 10
59.05859766410412
 20
164.89720732265039
 30
0.0
 11
52.658597664104043
 21
164.89720732265039
 31
0.0
  0
ARC
  5
1787
  8
0
 10
52.658597664104043
 20
164.09720732265041
 30
0.0
 40
0.8
 50
90.0
 51
180.0
  0
LINE
  5
1788
  8
1
 10
55.858597664104543
 20
176.89720732265039
 30
0.0
 11
55.858597664103172
 21
114.8972073226504
 31
0.0
  0
ARC
  5
1789
  8
0
 10
152.85859766410411
 20
67.082293508009542
 30
0.0
 40
1.0
 50
270.0
 51
359.9999999999992
  0
ARC
  5
178A
  8
0
 10
152.85859766410411
 20
71.082293508009542
 30
0.0
 40
1.0
 50
0.0
 51
90.0
  0
LINE
  5
178B
  8
0
 10
153.85859766410411
 20
67.082293508009542
 30
0.0
 11
153.85859766410411
 21
71.082293508009542
 31
0.0
  0
LINE
  5
178C
  8
0
 10
124.6085976641041
 20
66.082293508009599
 30
0.0
 11
152.85859766410411
 21
66.082293508009542
 31
0.0
  0
LINE
  5
178D
  8
0
 10
124.6085976641041
 20
72.08229350800957
 30
0.0
 11
152.85859766410411
 21
72.082293508009542
 31
0.0
  0
LINE
  5
178E
  8
0
 10
109.8585976641041
 20
144.89720732265019
 30
0.0
 11
109.8585976641041
 21
136.39720732265019
 31
0.0
  0
LINE
  5
178F
  8
0
 10
154.5556241794086
 20
171.8972073226501
 30
0.0
 11
157.8579201248051
 21
171.8972073226501
 31
0.0
  0
ARC
  5
1790
  8
0
 10
157.44511809496311
 20
169.51925275908809
 30
0.0
 40
2.4135188878910618
 50
358.60350426926368
 51
80.151858018774064
  0
ARC
  5
1791
  8
0
 10
119.0585976641039
 20
164.09720732265001
 30
0.0
 40
0.8
 50
44.363387169526597
 51
90.0
  0
ARC
  5
1792
  8
0
 10
156.43401628964421
 20
54.771630856249772
 30
0.0
 40
117.14063778000531
 50
90.918797737773872
 51
107.1135122987472
  0
ARC
  5
1793
  8
0
 10
112.65859766410399
 20
164.09720732265001
 30
0.0
 40
0.8
 50
90.0
 51
180.0
  0
LINE
  5
1794
  8
0
 10
119.0585976641039
 20
164.8972073226501
 30
0.0
 11
112.65859766410399
 21
164.8972073226501
 31
0.0
  0
ARC
  5
1795
  8
0
 10
155.89030903671161
 20
166.4272073226501
 30
0.0
 40
2.5299999999999989
 50
231.56563036870571
 51
308.21387582314111
  0
LINE
  5
1796
  8
0
 10
116.5655976641039
 20
163.89720732265019
 30
0.0
 11
109.6085405487003
 21
163.89720732265019
 31
0.0
  0
LINE
  5
1797
  8
0
 10
110.358597664104
 20
135.89720732265019
 30
0.0
 11
109.8585976641041
 21
136.39720732265019
 31
0.0
  0
LINE
  5
1798
  8
0
 10
108.5585969806386
 20
144.89720732265019
 30
0.0
 11
123.15859834756949
 21
144.89720732265019
 31
0.0
  0
LINE
  5
1799
  8
0
 10
109.8585976641041
 20
140.89720732265019
 30
0.0
 11
121.858597664104
 21
140.89720732265019
 31
0.0
  0
LINE
  5
179A
  8
1
 10
115.8585976641038
 20
114.8972073226504
 30
0.0
 11
115.8585976641038
 21
169.8972073226501
 31
0.0
  0
LINE
  5
179B
  8
0
 10
111.8585976641041
 20
163.89720732265019
 30
0.0
 11
111.8585976641041
 21
164.09720732265001
 31
0.0
  0
ARC
  5
179C
  8
0
 10
116.5655976641039
 20
170.46220732265019
 30
0.0
 40
6.5650000000000004
 50
270.0
 51
325.30871213972358
  0
ARC
  5
179D
  8
0
 10
164.03377069173001
 20
100.30737788634001
 30
0.0
 40
67.34455088556183
 50
103.4683897250638
 51
122.6083261623714
  0
ARC
  5
179E
  8
0
 10
149.9227783738429
 20
158.9073284813573
 30
0.0
 40
7.0700000000000003
 50
51.565630368705712
 51
102.8648555574233
  0
ARC
  5
179F
  8
0
 10
153.53374486048349
 20
169.401183405284
 30
0.0
 40
6.3244528036205443
 50
308.32142454088739
 51
0.5367721614574684
  0
LINE
  5
17A0
  8
0
 10
110.358597664104
 20
135.8972073226501
 30
0.0
 11
121.3585976641041
 21
135.89720732264999
 31
0.0
  0
LINE
  5
17A1
  8
0
 10
108.108597664104
 20
162.38411751940271
 30
0.0
 11
108.25860840371909
 21
145.1945893620007
 31
0.0
  0
ARC
  5
17A2
  8
0
 10
109.6085405487003
 20
162.3972073226503
 30
0.0
 40
1.5
 50
90.0
 51
180.49999999999969
  0
ARC
  5
17A3
  8
0
 10
108.5585969806386
 20
145.1972073226502
 30
0.0
 40
0.3
 50
180.50000000000051
 51
270.0
  0
LINE
  5
17A4
  8
0
 10
123.4935649442625
 20
149.2026734320481
 30
0.0
 11
123.458586924489
 21
145.1945893620007
 31
0.0
  0
ARC
  5
17A5
  8
0
 10
123.15859834756949
 20
145.1972073226502
 30
0.0
 40
0.3
 50
270.0
 51
359.49999999999949
  0
ARC
  5
17A6
  8
0
 10
132.9932032133722
 20
149.1197713448135
 30
0.0
 40
9.5
 50
123.5546371145853
 51
179.49999999999949
  0
ARC
  5
17A7
  8
0
 10
49.608540548700368
 20
162.3972073226503
 30
0.0
 40
1.5
 50
90.0
 51
180.49999999999969
  0
LINE
  5
17A8
  8
0
 10
48.108597664104082
 20
162.38411751940271
 30
0.0
 11
48.258608403719343
 21
145.1945893620007
 31
0.0
  0
ARC
  5
17A9
  8
0
 10
48.55859698063864
 20
145.19720732265031
 30
0.0
 40
0.3
 50
180.50000000000051
 51
270.0
  0
ARC
  5
17AA
  8
0
 10
62.108654779507788
 20
162.3972073226503
 30
0.0
 40
1.5
 50
359.50000000000028
 51
90.0
  0
LINE
  5
17AB
  8
0
 10
63.608597664104082
 20
162.38411751940271
 30
0.0
 11
63.45858692448882
 21
145.1945893620007
 31
0.0
  0
ARC
  5
17AC
  8
0
 10
63.15859834756953
 20
145.19720732265031
 30
0.0
 40
0.3
 50
270.0
 51
359.49999999999949
  0
LINE
  5
17AD
  8
0
 10
188.108597664104
 20
162.38411751940311
 30
0.0
 11
188.25860840371911
 21
145.1945893620011
 31
0.0
  0
ARC
  5
17AE
  8
0
 10
189.6085405487004
 20
162.3972073226507
 30
0.0
 40
1.5
 50
90.0
 51
180.49999999999969
  0
LINE
  5
17AF
  8
0
 10
203.6085976641036
 20
162.38411751940311
 30
0.0
 11
203.4585869244886
 21
145.1945893620011
 31
0.0
  0
ARC
  5
17B0
  8
0
 10
202.1086547795073
 20
162.3972073226507
 30
0.0
 40
1.5
 50
359.50000000000028
 51
90.0
  0
LINE
  5
17B1
  8
0
 10
202.1086547795073
 20
163.89720732265059
 30
0.0
 11
201.35859766410411
 21
163.89720732265059
 31
0.0
  0
ARC
  5
17B2
  8
0
 10
203.1585983475693
 20
145.1972073226506
 30
0.0
 40
0.3
 50
270.0
 51
359.49999999999949
  0
ARC
  5
17B3
  8
0
 10
188.55859698063841
 20
145.1972073226506
 30
0.0
 40
0.3
 50
180.50000000000051
 51
270.0
  0
LINE
  5
17B4
  8
0
 10
188.55859698063841
 20
144.89720732265059
 30
0.0
 11
203.1585983475693
 21
144.89720732265059
 31
0.0
  0
LINE
  5
17B5
  8
0
 10
190.35859766410411
 20
163.89720732265059
 30
0.0
 11
189.6085405487004
 21
163.89720732265059
 31
0.0
  0
LINE
  5
17B6
  8
0
 10
121.3585976641041
 20
135.89720732265019
 30
0.0
 11
121.858597664104
 21
136.39720732265019
 31
0.0
  0
LINE
  5
17B7
  8
0
 10
121.858597664104
 20
144.89720732265019
 30
0.0
 11
121.858597664104
 21
136.39720732265019
 31
0.0
  0
LINE
  5
17B8
  8
0
 10
201.8585976641036
 20
144.89720732265059
 30
0.0
 11
201.8585976641036
 21
136.39720732265059
 31
0.0
  0
LINE
  5
17B9
  8
0
 10
201.35859766410391
 20
135.89720732265059
 30
0.0
 11
201.85859766410391
 21
136.39720732265059
 31
0.0
  0
LINE
  5
17BA
  8
0
 10
190.3585976641036
 20
135.8972073226505
 30
0.0
 11
201.3585976641036
 21
135.89720732265039
 31
0.0
  0
LINE
  5
17BB
  8
0
 10
189.8585976641038
 20
140.89720732265059
 30
0.0
 11
201.8585976641036
 21
140.89720732265059
 31
0.0
  0
LINE
  5
17BC
  8
0
 10
190.3585976641036
 20
135.89720732265059
 30
0.0
 11
189.8585976641036
 21
136.39720732265059
 31
0.0
  0
LINE
  5
17BD
  8
0
 10
189.8585976641036
 20
144.89720732265059
 30
0.0
 11
189.8585976641038
 21
136.39720732265059
 31
0.0
  0
LINE
  5
17BE
  8
0
 10
61.858597664104082
 20
144.8972073226505
 30
0.0
 11
61.858597664104082
 21
136.39720732265059
 31
0.0
  0
LINE
  5
17BF
  8
0
 10
61.358597664104309
 20
135.89720732265059
 30
0.0
 11
61.858597664104302
 21
136.39720732265059
 31
0.0
  0
LINE
  5
17C0
  8
0
 10
50.358597664104082
 20
135.8972073226505
 30
0.0
 11
61.358597664104082
 21
135.89720732265039
 31
0.0
  0
LINE
  5
17C1
  8
0
 10
49.858597664104309
 20
140.8972073226505
 30
0.0
 11
61.858597664104082
 21
140.89720732265059
 31
0.0
  0
LINE
  5
17C2
  8
3
 10
58.483832011218283
 20
140.89720732265059
 30
0.0
 11
58.483832011218283
 21
135.89720732265039
 31
0.0
  0
LINE
  5
17C3
  8
3
 10
57.481851990628677
 20
140.89720732265059
 30
0.0
 11
57.481851990628677
 21
135.89720732265039
 31
0.0
  0
LINE
  5
17C4
  8
3
 10
56.528748932004191
 20
140.89720732265059
 30
0.0
 11
56.528748932004191
 21
135.89720732265039
 31
0.0
  0
LINE
  5
17C5
  8
3
 10
55.188446396203972
 20
140.89720732265059
 30
0.0
 11
55.188446396203972
 21
135.89720732265039
 31
0.0
  0
LINE
  5
17C6
  8
3
 10
54.235343337579479
 20
140.89720732265059
 30
0.0
 11
54.235343337579927
 21
135.8972073226505
 31
0.0
  0
LINE
  5
17C7
  8
3
 10
53.23336331698988
 20
140.89720732265059
 30
0.0
 11
53.23336331698988
 21
135.8972073226505
 31
0.0
  0
LINE
  5
17C8
  8
3
 10
52.231383296399827
 20
140.89720732265059
 30
0.0
 11
52.231383296399827
 21
135.8972073226505
 31
0.0
  0
LINE
  5
17C9
  8
3
 10
51.400472642687191
 20
140.89720732265059
 30
0.0
 11
51.400472642687191
 21
135.8972073226505
 31
0.0
  0
LINE
  5
17CA
  8
3
 10
50.642877431921761
 20
140.89720732265059
 30
0.0
 11
50.642877431921761
 21
135.8972073226505
 31
0.0
  0
LINE
  5
17CB
  8
0
 10
50.358597664104082
 20
135.89720732265059
 30
0.0
 11
49.858597664104082
 21
136.39720732265059
 31
0.0
  0
LINE
  5
17CC
  8
3
 10
61.074317896286402
 20
140.89720732265059
 30
0.0
 11
61.074317896286402
 21
135.89720732265039
 31
0.0
  0
LINE
  5
17CD
  8
3
 10
60.316722685520972
 20
140.89720732265059
 30
0.0
 11
60.316722685520972
 21
135.89720732265039
 31
0.0
  0
LINE
  5
17CE
  8
3
 10
59.485812031808329
 20
140.89720732265059
 30
0.0
 11
59.485812031808109
 21
135.89720732265039
 31
0.0
  0
LINE
  5
17CF
  8
0
 10
49.858597664104082
 20
144.8972073226505
 30
0.0
 11
49.858597664104309
 21
136.39720732265059
 31
0.0
  0
ARC
  5
17D0
  8
0
 10
59.358597664104082
 20
169.43591045022299
 30
0.0
 40
2.0
 50
359.9999999999992
 51
75.213219191446953
  0
ARC
  5
17D1
  8
0
 10
55.858597664103172
 20
156.3891870657435
 30
0.0
 40
15.508020256906979
 50
75.012719856155641
 51
104.987280143844
  0
LINE
  5
17D2
  8
0
 10
61.358597664104082
 20
169.43591045022299
 30
0.0
 11
61.358597664104082
 21
166.7257079953078
 31
0.0
  0
ARC
  5
17D3
  8
0
 10
52.358597664104082
 20
169.43591045022299
 30
0.0
 40
2.0
 50
104.786780808553
 51
180.0000000000008
  0
LINE
  5
17D4
  8
0
 10
50.358597664104082
 20
169.43591045022299
 30
0.0
 11
50.358597664104082
 21
166.72570799530189
 31
0.0
  0
ARC
  5
17D5
  8
0
 10
124.5080196101069
 20
53.582293508009542
 30
0.0
 40
10.0
 50
90.0
 51
119.1627065961745
  0
ARC
  5
17D6
  8
0
 10
124.5080196101069
 20
84.582293508009528
 30
0.0
 40
10.0
 50
240.8372934038259
 51
270.0
  0
CIRCLE
  5
17D7
  8
0
 10
115.8585976641041
 20
69.08229350800957
 30
0.0
 40
7.7500000000000142
  0
CIRCLE
  5
17D8
  8
0
 10
115.8585976641041
 20
69.08229350800957
 30
0.0
 40
5.9999999999998863
  0
LINE
  5
17D9
  8
0
 10
123.6085976641041
 20
67.08229350800957
 30
0.0
 11
123.6085976641041
 21
71.08229350800957
 31
0.0
  0
ARC
  5
17DA
  8
0
 10
124.6085976641041
 20
71.08229350800957
 30
0.0
 40
1.0
 50
90.0
 51
180.0
  0
ARC
  5
17DB
  8
0
 10
124.6085976641041
 20
67.08229350800957
 30
0.0
 40
1.0
 50
180.0000000000008
 51
270.0
  0
LINE
  5
17DC
  8
3
 10
119.48581203180829
 20
140.89720732265019
 30
0.0
 11
119.48581203180829
 21
135.89720732264999
 31
0.0
  0
LINE
  5
17DD
  8
3
 10
120.316722685521
 20
140.89720732265019
 30
0.0
 11
120.316722685521
 21
135.89720732264999
 31
0.0
  0
LINE
  5
17DE
  8
3
 10
121.0743178962864
 20
140.89720732265019
 30
0.0
 11
121.0743178962864
 21
135.89720732264999
 31
0.0
  0
LINE
  5
17DF
  8
3
 10
116.52874893200421
 20
140.89720732265019
 30
0.0
 11
116.52874893200421
 21
135.8972073226501
 31
0.0
  0
LINE
  5
17E0
  8
3
 10
117.4818519906287
 20
140.89720732265019
 30
0.0
 11
117.4818519906287
 21
135.8972073226501
 31
0.0
  0
LINE
  5
17E1
  8
3
 10
118.4838320112183
 20
140.89720732265019
 30
0.0
 11
118.4838320112183
 21
135.8972073226501
 31
0.0
  0
LINE
  5
17E2
  8
3
 10
110.642877431922
 20
140.89720732265019
 30
0.0
 11
110.642877431922
 21
135.8972073226501
 31
0.0
  0
LINE
  5
17E3
  8
3
 10
111.4004726426874
 20
140.89720732265019
 30
0.0
 11
111.4004726426874
 21
135.8972073226501
 31
0.0
  0
LINE
  5
17E4
  8
3
 10
112.2313832964
 20
140.89720732265019
 30
0.0
 11
112.2313832963998
 21
135.8972073226501
 31
0.0
  0
LINE
  5
17E5
  8
3
 10
113.23336331699009
 20
140.89720732265019
 30
0.0
 11
113.23336331699009
 21
135.8972073226501
 31
0.0
  0
LINE
  5
17E6
  8
3
 10
114.23534333757971
 20
140.89720732265019
 30
0.0
 11
114.23534333757991
 21
135.8972073226501
 31
0.0
  0
LINE
  5
17E7
  8
3
 10
115.1884463962042
 20
140.89720732265019
 30
0.0
 11
115.1884463962042
 21
135.8972073226501
 31
0.0
  0
LINE
  5
17E8
  8
3
 10
198.48383201121831
 20
140.89720732265039
 30
0.0
 11
198.48383201121831
 21
135.89720732265019
 31
0.0
  0
LINE
  5
17E9
  8
3
 10
197.48185199062871
 20
140.89720732265039
 30
0.0
 11
197.48185199062871
 21
135.89720732265019
 31
0.0
  0
LINE
  5
17EA
  8
3
 10
196.52874893200419
 20
140.89720732265039
 30
0.0
 11
196.52874893200419
 21
135.89720732265019
 31
0.0
  0
LINE
  5
17EB
  8
3
 10
201.0743178962864
 20
140.89720732265039
 30
0.0
 11
201.0743178962864
 21
135.89720732265019
 31
0.0
  0
LINE
  5
17EC
  8
3
 10
200.316722685521
 20
140.89720732265039
 30
0.0
 11
200.316722685521
 21
135.89720732265019
 31
0.0
  0
LINE
  5
17ED
  8
3
 10
199.48581203180831
 20
140.89720732265039
 30
0.0
 11
199.48581203180811
 21
135.89720732265019
 31
0.0
  0
LINE
  5
17EE
  8
3
 10
195.188446396204
 20
140.89720732265039
 30
0.0
 11
195.188446396204
 21
135.89720732265019
 31
0.0
  0
LINE
  5
17EF
  8
3
 10
194.23534333757939
 20
140.89720732265039
 30
0.0
 11
194.23534333757991
 21
135.8972073226503
 31
0.0
  0
LINE
  5
17F0
  8
3
 10
193.2333633169898
 20
140.89720732265039
 30
0.0
 11
193.2333633169898
 21
135.8972073226503
 31
0.0
  0
LINE
  5
17F1
  8
3
 10
192.2313832963998
 20
140.89720732265039
 30
0.0
 11
192.2313832963998
 21
135.8972073226503
 31
0.0
  0
LINE
  5
17F2
  8
3
 10
191.40047264268719
 20
140.89720732265039
 30
0.0
 11
191.40047264268719
 21
135.8972073226503
 31
0.0
  0
LINE
  5
17F3
  8
3
 10
190.6428774319217
 20
140.89720732265039
 30
0.0
 11
190.6428774319217
 21
135.8972073226503
 31
0.0
  0
TEXT
  5
189F
  8
0
 62
     3
 10
0.0
 20
0.0
 30
0.0
 40
10.0
  1
ESAL44CX16
  7
STANDARD1
  0
ENDSEC
  0
EOF
