  0
SECTION
  2
HEADER
  9
$ACADVER
  1
AC1009
  9
$INSBASE
 10
0.0
 20
0.0
 30
0.0
  9
$EXTMIN
 10
0.0
 20
-2.960436562073669
 30
0.0
  9
$EXTMAX
 10
237.41056287357031
 20
243.0009581114887
 30
0.0
  9
$LIMMIN
 10
0.0
 20
0.0
  9
$LIMMAX
 10
375.0
 20
270.0
  9
$ORTHOMODE
 70
     1
  9
$REGENMODE
 70
     1
  9
$FILLMODE
 70
     1
  9
$QTEXTMODE
 70
     0
  9
$MIRRTEXT
 70
     0
  9
$DRAGMODE
 70
     2
  9
$LTSCALE
 40
5.0
  9
$OSMODE
 70
  3071
  9
$ATTMODE
 70
     1
  9
$TEXTSIZE
 40
2.0
  9
$TRACEWID
 40
0.05
  9
$TEXTSTYLE
  7
STANDARD
  9
$CLAYER
  8
0
  9
$CELTYPE
  6
BYLAYER
  9
$CECOLOR
 62
   256
  9
$DIMSCALE
 40
1.0
  9
$DIMASZ
 40
2.5
  9
$DIMEXO
 40
2.0
  9
$DIMDLI
 40
0.38
  9
$DIMRND
 40
0.0
  9
$DIMDLE
 40
0.0
  9
$DIMEXE
 40
2.0
  9
$DIMTP
 40
0.0
  9
$DIMTM
 40
0.0
  9
$DIMTXT
 40
3.0
  9
$DIMCEN
 40
0.09
  9
$DIMTSZ
 40
0.0
  9
$DIMTOL
 70
     0
  9
$DIMLIM
 70
     0
  9
$DIMTIH
 70
     0
  9
$DIMTOH
 70
     0
  9
$DIMSE1
 70
     0
  9
$DIMSE2
 70
     0
  9
$DIMTAD
 70
     1
  9
$DIMZIN
 70
     0
  9
$DIMBLK
  1

  9
$DIMASO
 70
     1
  9
$DIMSHO
 70
     0
  9
$DIMPOST
  1

  9
$DIMAPOST
  1

  9
$DIMALT
 70
     0
  9
$DIMALTD
 70
     2
  9
$DIMALTF
 40
25.399999999999999
  9
$DIMLFAC
 40
1.0
  9
$DIMTOFL
 70
     0
  9
$DIMTVP
 40
1.6000000000000001
  9
$DIMTIX
 70
     1
  9
$DIMSOXD
 70
     0
  9
$DIMSAH
 70
     0
  9
$DIMBLK1
  1

  9
$DIMBLK2
  1

  9
$DIMSTYLE
  2
STANDARD
  9
$DIMCLRD
 70
     0
  9
$DIMCLRE
 70
     0
  9
$DIMCLRT
 70
     0
  9
$DIMTFAC
 40
1.0
  9
$DIMGAP
 40
0.09
  9
$LUNITS
 70
     2
  9
$LUPREC
 70
     4
  9
$SKETCHINC
 40
0.1
  9
$FILLETRAD
 40
2.5
  9
$AUNITS
 70
     0
  9
$AUPREC
 70
     0
  9
$MENU
  1
E:\r13\win\SUPPORT\ACAD
  9
$ELEVATION
 40
0.0
  9
$PELEVATION
 40
0.0
  9
$THICKNESS
 40
0.0
  9
$LIMCHECK
 70
     0
  9
$BLIPMODE
 70
     0
  9
$CHAMFERA
 40
0.0
  9
$CHAMFERB
 40
0.0
  9
$SKPOLY
 70
     0
  9
$TDCREATE
 40
2448650.5678784722
  9
$TDUPDATE
 40
2456598.6870112042
  9
$TDINDWG
 40
0.0825490278
  9
$TDUSRTIMER
 40
0.0825490278
  9
$USRTIMER
 70
     1
  9
$ANGBASE
 50
0.0
  9
$ANGDIR
 70
     0
  9
$PDMODE
 70
     0
  9
$PDSIZE
 40
0.0
  9
$PLINEWID
 40
0.0
  9
$COORDS
 70
     1
  9
$SPLFRAME
 70
     0
  9
$SPLINETYPE
 70
     6
  9
$SPLINESEGS
 70
     8
  9
$ATTDIA
 70
     0
  9
$ATTREQ
 70
     1
  9
$HANDLING
 70
     1
  9
$HANDSEED
  5
1B5E
  9
$SURFTAB1
 70
     6
  9
$SURFTAB2
 70
     6
  9
$SURFTYPE
 70
     6
  9
$SURFU
 70
     6
  9
$SURFV
 70
     6
  9
$UCSNAME
  2

  9
$UCSORG
 10
0.0
 20
0.0
 30
0.0
  9
$UCSXDIR
 10
1.0
 20
0.0
 30
0.0
  9
$UCSYDIR
 10
0.0
 20
1.0
 30
0.0
  9
$PUCSNAME
  2

  9
$PUCSORG
 10
0.0
 20
0.0
 30
0.0
  9
$PUCSXDIR
 10
1.0
 20
0.0
 30
0.0
  9
$PUCSYDIR
 10
0.0
 20
1.0
 30
0.0
  9
$USERI1
 70
     0
  9
$USERI2
 70
     1
  9
$USERI3
 70
     1
  9
$USERI4
 70
     0
  9
$USERI5
 70
     0
  9
$USERR1
 40
0.0
  9
$USERR2
 40
0.0
  9
$USERR3
 40
0.0
  9
$USERR4
 40
0.0
  9
$USERR5
 40
0.0
  9
$WORLDVIEW
 70
     1
  9
$SHADEDGE
 70
     3
  9
$SHADEDIF
 70
    70
  9
$TILEMODE
 70
     1
  9
$MAXACTVP
 70
    16
  9
$PLIMCHECK
 70
     0
  9
$PEXTMIN
 10
1.0000000000000000E+020
 20
1.0000000000000000E+020
 30
1.0000000000000000E+020
  9
$PEXTMAX
 10
-1.0000000000000000E+020
 20
-1.0000000000000000E+020
 30
-1.0000000000000000E+020
  9
$PLIMMIN
 10
0.0
 20
0.0
  9
$PLIMMAX
 10
12.0
 20
9.0
  9
$UNITMODE
 70
     0
  9
$VISRETAIN
 70
     0
  9
$PLINEGEN
 70
     1
  9
$PSLTSCALE
 70
     0
  0
ENDSEC
  0
SECTION
  2
TABLES
  0
TABLE
  2
VPORT
 70
     1
  0
VPORT
  2
*ACTIVE
 70
     0
 10
0.0
 20
0.0
 11
1.0
 21
1.0
 12
187.49427839065231
 22
169.9063198933564
 13
0.0
 23
0.0
 14
10.0
 24
10.0
 15
10.0
 25
10.0
 16
0.0
 26
0.0
 36
1.0
 17
0.0
 27
0.0
 37
0.0
 40
348.89937369551939
 41
1.831871345029239
 42
50.0
 43
0.0
 44
0.0
 50
0.0
 51
0.0
 71
     0
 72
   500
 73
     1
 74
     0
 75
     0
 76
     0
 77
     0
 78
     2
  0
ENDTAB
  0
TABLE
  2
LTYPE
 70
     4
  0
LTYPE
  2
CONTINUOUS
 70
     0
  3
Solid Line
 72
    65
 73
     0
 40
0.0
  0
LTYPE
  2
CENTER
 70
     0
  3
____ _ ____ _ ____ _ ____ _ ____ _ ____ _ ____
 72
    65
 73
     4
 40
2.0
 49
1.25
 49
-0.25
 49
0.25
 49
-0.25
  0
LTYPE
  2
HIDDEN
 70
     0
  3
_ _ _ _ _ _ _ _ _ _ _ _ _ _ _ _ _ _ _ _ _ _ _
 72
    65
 73
     2
 40
0.375
 49
0.25
 49
-0.125
  0
LTYPE
  2
PHANTOM2
 70
     0
  3
___ _ _ ___ _ _ ___ _ _ ___ _ _
 72
    65
 73
     6
 40
1.25
 49
0.625
 49
-0.125
 49
0.125
 49
-0.125
 49
0.125
 49
-0.125
  0
ENDTAB
  0
TABLE
  2
LAYER
 70
     5
  0
LAYER
  2
0
 70
     0
 62
     7
  6
CONTINUOUS
  0
LAYER
  2
1
 70
     0
 62
     1
  6
CENTER
  0
LAYER
  2
2
 70
     0
 62
     2
  6
HIDDEN
  0
LAYER
  2
3
 70
     0
 62
     3
  6
CONTINUOUS
  0
LAYER
  2
DEFPOINTS
 70
     0
 62
     7
  6
CONTINUOUS
  0
ENDTAB
  0
TABLE
  2
STYLE
 70
     2
  0
STYLE
  2
STANDARD
 70
     0
 40
0.0
 41
1.0
 50
0.0
 71
     0
 42
2.0
  3
TXT
  4
BIGFONT
  0
STYLE
  2
STANDARD1
 70
     0
 40
0.0
 41
1.0
 50
0.0
 71
     0
 42
3.0
  3
txt
  4

  0
ENDTAB
  0
TABLE
  2
VIEW
 70
     2
  0
VIEW
  2
ALL
 70
     0
 40
270.0
 10
220.99159663865549
 20
135.0
 41
0.0
 11
0.0
 21
0.0
 31
1.0
 12
0.0
 22
0.0
 32
0.0
 42
0.0
 43
0.0
 44
0.0
 50
0.0
 71
     0
  0
VIEW
  2
OLE1
 70
     0
 40
84.232556595683945
 10
256.65089750907902
 20
140.8336166439891
 41
151.80039875697
 11
0.0
 21
0.0
 31
1.0
 12
0.0
 22
0.0
 32
0.0
 42
50.0
 43
0.0
 44
0.0
 50
0.0
 71
     0
  0
ENDTAB
  0
TABLE
  2
UCS
 70
     0
  0
ENDTAB
  0
TABLE
  2
APPID
 70
     4
  0
APPID
  2
ACAD
 70
     0
  0
APPID
  2
ACAD_EXEMPT_FROM_CAD_STANDARDS
 70
     0
  0
APPID
  2
ACAD_MLEADERVER
 70
     0
  0
APPID
  2
ACAD_NAV_VCDISPLAY
 70
     0
  0
ENDTAB
  0
TABLE
  2
DIMSTYLE
 70
     1
  0
DIMSTYLE
  2
STANDARD
 70
     0
  3

  4

  5

  6

  7

 40
1.0
 41
0.18
 42
0.0625
 43
0.38
 44
0.18
 45
0.0
 46
0.0
 47
0.0
 48
0.0
140
0.18
141
0.09
142
0.0
143
25.399999999999999
144
1.0
145
0.0
146
1.0
147
0.09
 71
     0
 72
     0
 73
     1
 74
     1
 75
     0
 76
     0
 77
     0
 78
     0
170
     0
171
     2
172
     0
173
     0
174
     0
175
     0
176
     0
177
     0
178
     0
  0
ENDTAB
  0
ENDSEC
  0
SECTION
  2
BLOCKS
  0
BLOCK
  8
0
  2
$MODEL_SPACE
 70
     0
 10
0.0
 20
0.0
 30
0.0
  3
$MODEL_SPACE
  1

  0
ENDBLK
  5
217
  8
0
  0
BLOCK
 67
     1
  8
0
  2
$PAPER_SPACE
 70
     0
 10
0.0
 20
0.0
 30
0.0
  3
$PAPER_SPACE
  1

  0
ENDBLK
  5
215
 67
     1
  8
0
  0
BLOCK
  8
0
  2
*X0
 70
     1
 10
0.0
 20
0.0
 30
0.0
  3
*X0
  1

  0
LINE
  5
1834
  8
0
 62
     0
 10
158.82564311279481
 20
226.56372571638619
 30
0.0
 11
158.82564311279481
 21
226.56372571638619
 31
0.0
  0
LINE
  5
1835
  8
0
 62
     0
 10
158.64707168422331
 20
226.56372571638619
 30
0.0
 11
158.64707168422331
 21
226.56372571638619
 31
0.0
  0
LINE
  5
1836
  8
0
 62
     0
 10
158.46850025565189
 20
226.56372571638619
 30
0.0
 11
158.46850025565189
 21
226.56372571638619
 31
0.0
  0
LINE
  5
1837
  8
0
 62
     0
 10
158.2899288270805
 20
226.56372571638619
 30
0.0
 11
158.2899288270805
 21
226.56372571638619
 31
0.0
  0
LINE
  5
1838
  8
0
 62
     0
 10
158.11135739850911
 20
226.56372571638619
 30
0.0
 11
158.11135739850911
 21
226.56372571638619
 31
0.0
  0
LINE
  5
1839
  8
0
 62
     0
 10
157.9327859699377
 20
226.56372571638619
 30
0.0
 11
157.9327859699377
 21
226.56372571638619
 31
0.0
  0
LINE
  5
183A
  8
0
 62
     0
 10
157.75421454136631
 20
226.56372571638619
 30
0.0
 11
157.75421454136631
 21
226.56372571638619
 31
0.0
  0
LINE
  5
183B
  8
0
 62
     0
 10
161.86135739850911
 20
226.56372571638619
 30
0.0
 11
161.86135739850911
 21
226.56372571638619
 31
0.0
  0
LINE
  5
183C
  8
0
 62
     0
 10
161.6827859699377
 20
226.56372571638619
 30
0.0
 11
161.6827859699377
 21
226.56372571638619
 31
0.0
  0
LINE
  5
183D
  8
0
 62
     0
 10
161.5042145413662
 20
226.56372571638619
 30
0.0
 11
161.5042145413662
 21
226.56372571638619
 31
0.0
  0
LINE
  5
183E
  8
0
 62
     0
 10
161.32564311279481
 20
226.56372571638619
 30
0.0
 11
161.32564311279481
 21
226.56372571638619
 31
0.0
  0
LINE
  5
183F
  8
0
 62
     0
 10
153.64707168422331
 20
226.56372571638619
 30
0.0
 11
153.64707168422331
 21
226.56372571638619
 31
0.0
  0
LINE
  5
1840
  8
0
 62
     0
 10
153.46850025565189
 20
226.56372571638619
 30
0.0
 11
153.46850025565189
 21
226.56372571638619
 31
0.0
  0
LINE
  5
1841
  8
0
 62
     0
 10
153.2899288270805
 20
226.56372571638619
 30
0.0
 11
153.2899288270805
 21
226.56372571638619
 31
0.0
  0
LINE
  5
1842
  8
0
 62
     0
 10
153.11135739850911
 20
226.56372571638619
 30
0.0
 11
153.11135739850911
 21
226.56372571638619
 31
0.0
  0
LINE
  5
1843
  8
0
 62
     0
 10
152.9327859699377
 20
226.56372571638619
 30
0.0
 11
152.9327859699377
 21
226.56372571638619
 31
0.0
  0
LINE
  5
1844
  8
0
 62
     0
 10
152.75421454136631
 20
226.56372571638619
 30
0.0
 11
152.75421454136631
 21
226.56372571638619
 31
0.0
  0
LINE
  5
1845
  8
0
 62
     0
 10
165.07564311279469
 20
226.56372571638619
 30
0.0
 11
165.07564311279469
 21
226.56372571638619
 31
0.0
  0
LINE
  5
1846
  8
0
 62
     0
 10
164.89707168422331
 20
226.56372571638619
 30
0.0
 11
164.89707168422331
 21
226.56372571638619
 31
0.0
  0
LINE
  5
1847
  8
0
 62
     0
 10
164.71850025565189
 20
226.56372571638619
 30
0.0
 11
164.71850025565189
 21
226.56372571638619
 31
0.0
  0
LINE
  5
1848
  8
0
 62
     0
 10
164.5399288270805
 20
226.56372571638619
 30
0.0
 11
164.5399288270805
 21
226.56372571638619
 31
0.0
  0
LINE
  5
1849
  8
0
 62
     0
 10
147.0399288270805
 20
226.56372571638619
 30
0.0
 11
147.0399288270805
 21
226.56372571638619
 31
0.0
  0
LINE
  5
184A
  8
0
 62
     0
 10
146.86135739850911
 20
226.56372571638619
 30
0.0
 11
146.86135739850911
 21
226.56372571638619
 31
0.0
  0
LINE
  5
184B
  8
0
 62
     0
 10
146.6827859699377
 20
226.56372571638619
 30
0.0
 11
146.6827859699377
 21
226.56372571638619
 31
0.0
  0
LINE
  5
184C
  8
0
 62
     0
 10
146.50421454136631
 20
226.56372571638619
 30
0.0
 11
146.50421454136631
 21
226.56372571638619
 31
0.0
  0
LINE
  5
184D
  8
0
 62
     0
 10
159.45064311279469
 20
226.74229714495769
 30
0.0
 11
159.45064311279469
 21
226.74229714495769
 31
0.0
  0
LINE
  5
184E
  8
0
 62
     0
 10
159.27207168422331
 20
226.74229714495769
 30
0.0
 11
159.27207168422331
 21
226.74229714495769
 31
0.0
  0
LINE
  5
184F
  8
0
 62
     0
 10
159.0935002556518
 20
226.74229714495769
 30
0.0
 11
159.0935002556518
 21
226.74229714495769
 31
0.0
  0
LINE
  5
1850
  8
0
 62
     0
 10
158.91492882708039
 20
226.74229714495769
 30
0.0
 11
158.91492882708039
 21
226.74229714495769
 31
0.0
  0
LINE
  5
1851
  8
0
 62
     0
 10
158.736357398509
 20
226.74229714495769
 30
0.0
 11
158.736357398509
 21
226.74229714495769
 31
0.0
  0
LINE
  5
1852
  8
0
 62
     0
 10
158.55778596993761
 20
226.74229714495769
 30
0.0
 11
158.55778596993761
 21
226.74229714495769
 31
0.0
  0
LINE
  5
1853
  8
0
 62
     0
 10
158.3792145413662
 20
226.74229714495769
 30
0.0
 11
158.3792145413662
 21
226.74229714495769
 31
0.0
  0
LINE
  5
1854
  8
0
 62
     0
 10
158.20064311279481
 20
226.74229714495769
 30
0.0
 11
158.20064311279481
 21
226.74229714495769
 31
0.0
  0
LINE
  5
1855
  8
0
 62
     0
 10
158.02207168422339
 20
226.74229714495769
 30
0.0
 11
158.02207168422339
 21
226.74229714495769
 31
0.0
  0
LINE
  5
1856
  8
0
 62
     0
 10
157.84350025565189
 20
226.74229714495769
 30
0.0
 11
157.84350025565189
 21
226.74229714495769
 31
0.0
  0
LINE
  5
1857
  8
0
 62
     0
 10
157.6649288270805
 20
226.74229714495769
 30
0.0
 11
157.6649288270805
 21
226.74229714495769
 31
0.0
  0
LINE
  5
1858
  8
0
 62
     0
 10
157.48635739850911
 20
226.74229714495769
 30
0.0
 11
157.48635739850911
 21
226.74229714495769
 31
0.0
  0
LINE
  5
1859
  8
0
 62
     0
 10
157.3077859699377
 20
226.74229714495769
 30
0.0
 11
157.3077859699377
 21
226.74229714495769
 31
0.0
  0
LINE
  5
185A
  8
0
 62
     0
 10
157.12921454136631
 20
226.74229714495769
 30
0.0
 11
157.12921454136631
 21
226.74229714495769
 31
0.0
  0
LINE
  5
185B
  8
0
 62
     0
 10
161.77207168422339
 20
226.74229714495769
 30
0.0
 11
161.77207168422339
 21
226.74229714495769
 31
0.0
  0
LINE
  5
185C
  8
0
 62
     0
 10
161.593500255652
 20
226.74229714495769
 30
0.0
 11
161.593500255652
 21
226.74229714495769
 31
0.0
  0
LINE
  5
185D
  8
0
 62
     0
 10
161.41492882708059
 20
226.74229714495769
 30
0.0
 11
161.41492882708059
 21
226.74229714495769
 31
0.0
  0
LINE
  5
185E
  8
0
 62
     0
 10
161.23635739850911
 20
226.74229714495769
 30
0.0
 11
161.23635739850911
 21
226.74229714495769
 31
0.0
  0
LINE
  5
185F
  8
0
 62
     0
 10
154.09350025565189
 20
226.74229714495769
 30
0.0
 11
154.09350025565189
 21
226.74229714495769
 31
0.0
  0
LINE
  5
1860
  8
0
 62
     0
 10
153.91492882708039
 20
226.74229714495769
 30
0.0
 11
153.91492882708039
 21
226.74229714495769
 31
0.0
  0
LINE
  5
1861
  8
0
 62
     0
 10
153.736357398509
 20
226.74229714495769
 30
0.0
 11
153.736357398509
 21
226.74229714495769
 31
0.0
  0
LINE
  5
1862
  8
0
 62
     0
 10
153.55778596993761
 20
226.74229714495769
 30
0.0
 11
153.55778596993761
 21
226.74229714495769
 31
0.0
  0
LINE
  5
1863
  8
0
 62
     0
 10
153.3792145413662
 20
226.74229714495769
 30
0.0
 11
153.3792145413662
 21
226.74229714495769
 31
0.0
  0
LINE
  5
1864
  8
0
 62
     0
 10
153.20064311279481
 20
226.74229714495769
 30
0.0
 11
153.20064311279481
 21
226.74229714495769
 31
0.0
  0
LINE
  5
1865
  8
0
 62
     0
 10
153.02207168422339
 20
226.74229714495769
 30
0.0
 11
153.02207168422339
 21
226.74229714495769
 31
0.0
  0
LINE
  5
1866
  8
0
 62
     0
 10
152.843500255652
 20
226.74229714495769
 30
0.0
 11
152.843500255652
 21
226.74229714495769
 31
0.0
  0
LINE
  5
1867
  8
0
 62
     0
 10
152.6649288270805
 20
226.74229714495769
 30
0.0
 11
152.6649288270805
 21
226.74229714495769
 31
0.0
  0
LINE
  5
1868
  8
0
 62
     0
 10
152.48635739850911
 20
226.74229714495769
 30
0.0
 11
152.48635739850911
 21
226.74229714495769
 31
0.0
  0
LINE
  5
1869
  8
0
 62
     0
 10
152.3077859699377
 20
226.74229714495769
 30
0.0
 11
152.3077859699377
 21
226.74229714495769
 31
0.0
  0
LINE
  5
186A
  8
0
 62
     0
 10
165.1649288270805
 20
226.74229714495769
 30
0.0
 11
165.1649288270805
 21
226.74229714495769
 31
0.0
  0
LINE
  5
186B
  8
0
 62
     0
 10
164.98635739850911
 20
226.74229714495769
 30
0.0
 11
164.98635739850911
 21
226.74229714495769
 31
0.0
  0
LINE
  5
186C
  8
0
 62
     0
 10
164.8077859699377
 20
226.74229714495769
 30
0.0
 11
164.8077859699377
 21
226.74229714495769
 31
0.0
  0
LINE
  5
186D
  8
0
 62
     0
 10
164.62921454136631
 20
226.74229714495769
 30
0.0
 11
164.62921454136631
 21
226.74229714495769
 31
0.0
  0
LINE
  5
186E
  8
0
 62
     0
 10
147.12921454136631
 20
226.74229714495769
 30
0.0
 11
147.12921454136631
 21
226.74229714495769
 31
0.0
  0
LINE
  5
186F
  8
0
 62
     0
 10
146.95064311279489
 20
226.74229714495769
 30
0.0
 11
146.95064311279489
 21
226.74229714495769
 31
0.0
  0
LINE
  5
1870
  8
0
 62
     0
 10
146.7720716842235
 20
226.74229714495769
 30
0.0
 11
146.7720716842235
 21
226.74229714495769
 31
0.0
  0
LINE
  5
1871
  8
0
 62
     0
 10
146.593500255652
 20
226.74229714495769
 30
0.0
 11
146.593500255652
 21
226.74229714495769
 31
0.0
  0
LINE
  5
1872
  8
0
 62
     0
 10
159.71850025565189
 20
226.92086857352911
 30
0.0
 11
159.71850025565189
 21
226.92086857352911
 31
0.0
  0
LINE
  5
1873
  8
0
 62
     0
 10
159.5399288270805
 20
226.92086857352911
 30
0.0
 11
159.5399288270805
 21
226.92086857352911
 31
0.0
  0
LINE
  5
1874
  8
0
 62
     0
 10
159.36135739850911
 20
226.92086857352911
 30
0.0
 11
159.36135739850911
 21
226.92086857352911
 31
0.0
  0
LINE
  5
1875
  8
0
 62
     0
 10
159.1827859699377
 20
226.92086857352911
 30
0.0
 11
159.1827859699377
 21
226.92086857352911
 31
0.0
  0
LINE
  5
1876
  8
0
 62
     0
 10
159.00421454136631
 20
226.92086857352911
 30
0.0
 11
159.00421454136631
 21
226.92086857352911
 31
0.0
  0
LINE
  5
1877
  8
0
 62
     0
 10
158.82564311279481
 20
226.92086857352911
 30
0.0
 11
158.82564311279481
 21
226.92086857352911
 31
0.0
  0
LINE
  5
1878
  8
0
 62
     0
 10
158.64707168422339
 20
226.92086857352911
 30
0.0
 11
158.64707168422339
 21
226.92086857352911
 31
0.0
  0
LINE
  5
1879
  8
0
 62
     0
 10
158.468500255652
 20
226.92086857352911
 30
0.0
 11
158.468500255652
 21
226.92086857352911
 31
0.0
  0
LINE
  5
187A
  8
0
 62
     0
 10
158.28992882708059
 20
226.92086857352911
 30
0.0
 11
158.28992882708059
 21
226.92086857352911
 31
0.0
  0
LINE
  5
187B
  8
0
 62
     0
 10
158.1113573985092
 20
226.92086857352911
 30
0.0
 11
158.1113573985092
 21
226.92086857352911
 31
0.0
  0
LINE
  5
187C
  8
0
 62
     0
 10
157.93278596993781
 20
226.92086857352911
 30
0.0
 11
157.93278596993781
 21
226.92086857352911
 31
0.0
  0
LINE
  5
187D
  8
0
 62
     0
 10
157.75421454136631
 20
226.92086857352911
 30
0.0
 11
157.75421454136631
 21
226.92086857352911
 31
0.0
  0
LINE
  5
187E
  8
0
 62
     0
 10
157.57564311279489
 20
226.92086857352911
 30
0.0
 11
157.57564311279489
 21
226.92086857352911
 31
0.0
  0
LINE
  5
187F
  8
0
 62
     0
 10
157.3970716842235
 20
226.92086857352911
 30
0.0
 11
157.3970716842235
 21
226.92086857352911
 31
0.0
  0
LINE
  5
1880
  8
0
 62
     0
 10
157.21850025565209
 20
226.92086857352911
 30
0.0
 11
157.21850025565209
 21
226.92086857352911
 31
0.0
  0
LINE
  5
1881
  8
0
 62
     0
 10
157.0399288270807
 20
226.92086857352911
 30
0.0
 11
157.0399288270807
 21
226.92086857352911
 31
0.0
  0
LINE
  5
1882
  8
0
 62
     0
 10
156.86135739850931
 20
226.92086857352911
 30
0.0
 11
156.86135739850931
 21
226.92086857352911
 31
0.0
  0
LINE
  5
1883
  8
0
 62
     0
 10
161.8613573985092
 20
226.92086857352911
 30
0.0
 11
161.8613573985092
 21
226.92086857352911
 31
0.0
  0
LINE
  5
1884
  8
0
 62
     0
 10
161.68278596993781
 20
226.92086857352911
 30
0.0
 11
161.68278596993781
 21
226.92086857352911
 31
0.0
  0
LINE
  5
1885
  8
0
 62
     0
 10
161.50421454136631
 20
226.92086857352911
 30
0.0
 11
161.50421454136631
 21
226.92086857352911
 31
0.0
  0
LINE
  5
1886
  8
0
 62
     0
 10
161.32564311279489
 20
226.92086857352911
 30
0.0
 11
161.32564311279489
 21
226.92086857352911
 31
0.0
  0
LINE
  5
1887
  8
0
 62
     0
 10
154.361357398509
 20
226.92086857352911
 30
0.0
 11
154.361357398509
 21
226.92086857352911
 31
0.0
  0
LINE
  5
1888
  8
0
 62
     0
 10
154.18278596993761
 20
226.92086857352911
 30
0.0
 11
154.18278596993761
 21
226.92086857352911
 31
0.0
  0
LINE
  5
1889
  8
0
 62
     0
 10
154.0042145413662
 20
226.92086857352911
 30
0.0
 11
154.0042145413662
 21
226.92086857352911
 31
0.0
  0
LINE
  5
188A
  8
0
 62
     0
 10
153.82564311279481
 20
226.92086857352911
 30
0.0
 11
153.82564311279481
 21
226.92086857352911
 31
0.0
  0
LINE
  5
188B
  8
0
 62
     0
 10
153.64707168422331
 20
226.92086857352911
 30
0.0
 11
153.64707168422331
 21
226.92086857352911
 31
0.0
  0
LINE
  5
188C
  8
0
 62
     0
 10
153.46850025565189
 20
226.92086857352911
 30
0.0
 11
153.46850025565189
 21
226.92086857352911
 31
0.0
  0
LINE
  5
188D
  8
0
 62
     0
 10
153.2899288270805
 20
226.92086857352911
 30
0.0
 11
153.2899288270805
 21
226.92086857352911
 31
0.0
  0
LINE
  5
188E
  8
0
 62
     0
 10
153.11135739850911
 20
226.92086857352911
 30
0.0
 11
153.11135739850911
 21
226.92086857352911
 31
0.0
  0
LINE
  5
188F
  8
0
 62
     0
 10
152.9327859699377
 20
226.92086857352911
 30
0.0
 11
152.9327859699377
 21
226.92086857352911
 31
0.0
  0
LINE
  5
1890
  8
0
 62
     0
 10
152.75421454136631
 20
226.92086857352911
 30
0.0
 11
152.75421454136631
 21
226.92086857352911
 31
0.0
  0
LINE
  5
1891
  8
0
 62
     0
 10
152.57564311279481
 20
226.92086857352911
 30
0.0
 11
152.57564311279481
 21
226.92086857352911
 31
0.0
  0
LINE
  5
1892
  8
0
 62
     0
 10
152.39707168422339
 20
226.92086857352911
 30
0.0
 11
152.39707168422339
 21
226.92086857352911
 31
0.0
  0
LINE
  5
1893
  8
0
 62
     0
 10
152.218500255652
 20
226.92086857352911
 30
0.0
 11
152.218500255652
 21
226.92086857352911
 31
0.0
  0
LINE
  5
1894
  8
0
 62
     0
 10
152.03992882708059
 20
226.92086857352911
 30
0.0
 11
152.03992882708059
 21
226.92086857352911
 31
0.0
  0
LINE
  5
1895
  8
0
 62
     0
 10
165.07564311279481
 20
226.92086857352911
 30
0.0
 11
165.07564311279481
 21
226.92086857352911
 31
0.0
  0
LINE
  5
1896
  8
0
 62
     0
 10
164.89707168422339
 20
226.92086857352911
 30
0.0
 11
164.89707168422339
 21
226.92086857352911
 31
0.0
  0
LINE
  5
1897
  8
0
 62
     0
 10
164.718500255652
 20
226.92086857352911
 30
0.0
 11
164.718500255652
 21
226.92086857352911
 31
0.0
  0
LINE
  5
1898
  8
0
 62
     0
 10
164.53992882708059
 20
226.92086857352911
 30
0.0
 11
164.53992882708059
 21
226.92086857352911
 31
0.0
  0
LINE
  5
1899
  8
0
 62
     0
 10
147.03992882708059
 20
226.92086857352911
 30
0.0
 11
147.03992882708059
 21
226.92086857352911
 31
0.0
  0
LINE
  5
189A
  8
0
 62
     0
 10
146.8613573985092
 20
226.92086857352911
 30
0.0
 11
146.8613573985092
 21
226.92086857352911
 31
0.0
  0
LINE
  5
189B
  8
0
 62
     0
 10
146.68278596993781
 20
226.92086857352911
 30
0.0
 11
146.68278596993781
 21
226.92086857352911
 31
0.0
  0
LINE
  5
189C
  8
0
 62
     0
 10
146.50421454136639
 20
226.92086857352911
 30
0.0
 11
146.50421454136639
 21
226.92086857352911
 31
0.0
  0
LINE
  5
189D
  8
0
 62
     0
 10
157.3077859699377
 20
227.09944000210061
 30
0.0
 11
157.3077859699377
 21
227.09944000210061
 31
0.0
  0
LINE
  5
189E
  8
0
 62
     0
 10
157.12921454136631
 20
227.09944000210061
 30
0.0
 11
157.12921454136631
 21
227.09944000210061
 31
0.0
  0
LINE
  5
189F
  8
0
 62
     0
 10
156.95064311279489
 20
227.09944000210061
 30
0.0
 11
156.95064311279489
 21
227.09944000210061
 31
0.0
  0
LINE
  5
18A0
  8
0
 62
     0
 10
156.7720716842235
 20
227.09944000210061
 30
0.0
 11
156.7720716842235
 21
227.09944000210061
 31
0.0
  0
LINE
  5
18A1
  8
0
 62
     0
 10
156.593500255652
 20
227.09944000210061
 30
0.0
 11
156.593500255652
 21
227.09944000210061
 31
0.0
  0
LINE
  5
18A2
  8
0
 62
     0
 10
159.8077859699377
 20
227.09944000210061
 30
0.0
 11
159.8077859699377
 21
227.09944000210061
 31
0.0
  0
LINE
  5
18A3
  8
0
 62
     0
 10
159.62921454136631
 20
227.09944000210061
 30
0.0
 11
159.62921454136631
 21
227.09944000210061
 31
0.0
  0
LINE
  5
18A4
  8
0
 62
     0
 10
159.45064311279489
 20
227.09944000210061
 30
0.0
 11
159.45064311279489
 21
227.09944000210061
 31
0.0
  0
LINE
  5
18A5
  8
0
 62
     0
 10
159.2720716842235
 20
227.09944000210061
 30
0.0
 11
159.2720716842235
 21
227.09944000210061
 31
0.0
  0
LINE
  5
18A6
  8
0
 62
     0
 10
159.093500255652
 20
227.09944000210061
 30
0.0
 11
159.093500255652
 21
227.09944000210061
 31
0.0
  0
LINE
  5
18A7
  8
0
 62
     0
 10
154.6292145413662
 20
227.09944000210061
 30
0.0
 11
154.6292145413662
 21
227.09944000210061
 31
0.0
  0
LINE
  5
18A8
  8
0
 62
     0
 10
154.45064311279481
 20
227.09944000210061
 30
0.0
 11
154.45064311279481
 21
227.09944000210061
 31
0.0
  0
LINE
  5
18A9
  8
0
 62
     0
 10
154.27207168422339
 20
227.09944000210061
 30
0.0
 11
154.27207168422339
 21
227.09944000210061
 31
0.0
  0
LINE
  5
18AA
  8
0
 62
     0
 10
154.093500255652
 20
227.09944000210061
 30
0.0
 11
154.093500255652
 21
227.09944000210061
 31
0.0
  0
LINE
  5
18AB
  8
0
 62
     0
 10
153.91492882708059
 20
227.09944000210061
 30
0.0
 11
153.91492882708059
 21
227.09944000210061
 31
0.0
  0
LINE
  5
18AC
  8
0
 62
     0
 10
153.73635739850911
 20
227.09944000210061
 30
0.0
 11
153.73635739850911
 21
227.09944000210061
 31
0.0
  0
LINE
  5
18AD
  8
0
 62
     0
 10
161.77207168422339
 20
227.09944000210061
 30
0.0
 11
161.77207168422339
 21
227.09944000210061
 31
0.0
  0
LINE
  5
18AE
  8
0
 62
     0
 10
161.593500255652
 20
227.09944000210061
 30
0.0
 11
161.593500255652
 21
227.09944000210061
 31
0.0
  0
LINE
  5
18AF
  8
0
 62
     0
 10
161.41492882708059
 20
227.09944000210061
 30
0.0
 11
161.41492882708059
 21
227.09944000210061
 31
0.0
  0
LINE
  5
18B0
  8
0
 62
     0
 10
161.23635739850911
 20
227.09944000210061
 30
0.0
 11
161.23635739850911
 21
227.09944000210061
 31
0.0
  0
LINE
  5
18B1
  8
0
 62
     0
 10
152.66492882708059
 20
227.09944000210061
 30
0.0
 11
152.66492882708059
 21
227.09944000210061
 31
0.0
  0
LINE
  5
18B2
  8
0
 62
     0
 10
152.4863573985092
 20
227.09944000210061
 30
0.0
 11
152.4863573985092
 21
227.09944000210061
 31
0.0
  0
LINE
  5
18B3
  8
0
 62
     0
 10
152.30778596993781
 20
227.09944000210061
 30
0.0
 11
152.30778596993781
 21
227.09944000210061
 31
0.0
  0
LINE
  5
18B4
  8
0
 62
     0
 10
152.12921454136631
 20
227.09944000210061
 30
0.0
 11
152.12921454136631
 21
227.09944000210061
 31
0.0
  0
LINE
  5
18B5
  8
0
 62
     0
 10
151.95064311279489
 20
227.09944000210061
 30
0.0
 11
151.95064311279489
 21
227.09944000210061
 31
0.0
  0
LINE
  5
18B6
  8
0
 62
     0
 10
165.1649288270805
 20
227.09944000210061
 30
0.0
 11
165.1649288270805
 21
227.09944000210061
 31
0.0
  0
LINE
  5
18B7
  8
0
 62
     0
 10
164.98635739850911
 20
227.09944000210061
 30
0.0
 11
164.98635739850911
 21
227.09944000210061
 31
0.0
  0
LINE
  5
18B8
  8
0
 62
     0
 10
164.8077859699377
 20
227.09944000210061
 30
0.0
 11
164.8077859699377
 21
227.09944000210061
 31
0.0
  0
LINE
  5
18B9
  8
0
 62
     0
 10
164.62921454136631
 20
227.09944000210061
 30
0.0
 11
164.62921454136631
 21
227.09944000210061
 31
0.0
  0
LINE
  5
18BA
  8
0
 62
     0
 10
147.12921454136631
 20
227.09944000210061
 30
0.0
 11
147.12921454136631
 21
227.09944000210061
 31
0.0
  0
LINE
  5
18BB
  8
0
 62
     0
 10
146.95064311279489
 20
227.09944000210061
 30
0.0
 11
146.95064311279489
 21
227.09944000210061
 31
0.0
  0
LINE
  5
18BC
  8
0
 62
     0
 10
146.7720716842235
 20
227.09944000210061
 30
0.0
 11
146.7720716842235
 21
227.09944000210061
 31
0.0
  0
LINE
  5
18BD
  8
0
 62
     0
 10
146.593500255652
 20
227.09944000210061
 30
0.0
 11
146.593500255652
 21
227.09944000210061
 31
0.0
  0
LINE
  5
18BE
  8
0
 62
     0
 10
157.0399288270805
 20
227.27801143067191
 30
0.0
 11
157.0399288270805
 21
227.27801143067191
 31
0.0
  0
LINE
  5
18BF
  8
0
 62
     0
 10
156.86135739850911
 20
227.27801143067191
 30
0.0
 11
156.86135739850911
 21
227.27801143067191
 31
0.0
  0
LINE
  5
18C0
  8
0
 62
     0
 10
156.6827859699377
 20
227.27801143067191
 30
0.0
 11
156.6827859699377
 21
227.27801143067191
 31
0.0
  0
LINE
  5
18C1
  8
0
 62
     0
 10
156.50421454136631
 20
227.27801143067191
 30
0.0
 11
156.50421454136631
 21
227.27801143067191
 31
0.0
  0
LINE
  5
18C2
  8
0
 62
     0
 10
159.89707168422339
 20
227.27801143067191
 30
0.0
 11
159.89707168422339
 21
227.27801143067191
 31
0.0
  0
LINE
  5
18C3
  8
0
 62
     0
 10
159.718500255652
 20
227.27801143067191
 30
0.0
 11
159.718500255652
 21
227.27801143067191
 31
0.0
  0
LINE
  5
18C4
  8
0
 62
     0
 10
159.53992882708059
 20
227.27801143067191
 30
0.0
 11
159.53992882708059
 21
227.27801143067191
 31
0.0
  0
LINE
  5
18C5
  8
0
 62
     0
 10
159.3613573985092
 20
227.27801143067191
 30
0.0
 11
159.3613573985092
 21
227.27801143067191
 31
0.0
  0
LINE
  5
18C6
  8
0
 62
     0
 10
154.71850025565189
 20
227.27801143067191
 30
0.0
 11
154.71850025565189
 21
227.27801143067191
 31
0.0
  0
LINE
  5
18C7
  8
0
 62
     0
 10
154.5399288270805
 20
227.27801143067191
 30
0.0
 11
154.5399288270805
 21
227.27801143067191
 31
0.0
  0
LINE
  5
18C8
  8
0
 62
     0
 10
154.36135739850911
 20
227.27801143067191
 30
0.0
 11
154.36135739850911
 21
227.27801143067191
 31
0.0
  0
LINE
  5
18C9
  8
0
 62
     0
 10
154.1827859699377
 20
227.27801143067191
 30
0.0
 11
154.1827859699377
 21
227.27801143067191
 31
0.0
  0
LINE
  5
18CA
  8
0
 62
     0
 10
161.86135739850911
 20
227.27801143067191
 30
0.0
 11
161.86135739850911
 21
227.27801143067191
 31
0.0
  0
LINE
  5
18CB
  8
0
 62
     0
 10
161.6827859699377
 20
227.27801143067191
 30
0.0
 11
161.6827859699377
 21
227.27801143067191
 31
0.0
  0
LINE
  5
18CC
  8
0
 62
     0
 10
161.5042145413662
 20
227.27801143067191
 30
0.0
 11
161.5042145413662
 21
227.27801143067191
 31
0.0
  0
LINE
  5
18CD
  8
0
 62
     0
 10
161.32564311279481
 20
227.27801143067191
 30
0.0
 11
161.32564311279481
 21
227.27801143067191
 31
0.0
  0
LINE
  5
18CE
  8
0
 62
     0
 10
152.39707168422339
 20
227.27801143067191
 30
0.0
 11
152.39707168422339
 21
227.27801143067191
 31
0.0
  0
LINE
  5
18CF
  8
0
 62
     0
 10
152.21850025565189
 20
227.27801143067191
 30
0.0
 11
152.21850025565189
 21
227.27801143067191
 31
0.0
  0
LINE
  5
18D0
  8
0
 62
     0
 10
152.0399288270805
 20
227.27801143067191
 30
0.0
 11
152.0399288270805
 21
227.27801143067191
 31
0.0
  0
LINE
  5
18D1
  8
0
 62
     0
 10
151.86135739850911
 20
227.27801143067191
 30
0.0
 11
151.86135739850911
 21
227.27801143067191
 31
0.0
  0
LINE
  5
18D2
  8
0
 62
     0
 10
151.6827859699377
 20
227.27801143067191
 30
0.0
 11
151.6827859699377
 21
227.27801143067191
 31
0.0
  0
LINE
  5
18D3
  8
0
 62
     0
 10
165.07564311279481
 20
227.27801143067191
 30
0.0
 11
165.07564311279481
 21
227.27801143067191
 31
0.0
  0
LINE
  5
18D4
  8
0
 62
     0
 10
164.89707168422339
 20
227.27801143067191
 30
0.0
 11
164.89707168422339
 21
227.27801143067191
 31
0.0
  0
LINE
  5
18D5
  8
0
 62
     0
 10
164.718500255652
 20
227.27801143067191
 30
0.0
 11
164.718500255652
 21
227.27801143067191
 31
0.0
  0
LINE
  5
18D6
  8
0
 62
     0
 10
164.53992882708059
 20
227.27801143067191
 30
0.0
 11
164.53992882708059
 21
227.27801143067191
 31
0.0
  0
LINE
  5
18D7
  8
0
 62
     0
 10
147.0399288270805
 20
227.27801143067191
 30
0.0
 11
147.0399288270805
 21
227.27801143067191
 31
0.0
  0
LINE
  5
18D8
  8
0
 62
     0
 10
146.86135739850911
 20
227.27801143067191
 30
0.0
 11
146.86135739850911
 21
227.27801143067191
 31
0.0
  0
LINE
  5
18D9
  8
0
 62
     0
 10
146.6827859699377
 20
227.27801143067191
 30
0.0
 11
146.6827859699377
 21
227.27801143067191
 31
0.0
  0
LINE
  5
18DA
  8
0
 62
     0
 10
146.50421454136631
 20
227.27801143067191
 30
0.0
 11
146.50421454136631
 21
227.27801143067191
 31
0.0
  0
LINE
  5
18DB
  8
0
 62
     0
 10
156.95064311279481
 20
227.45658285924341
 30
0.0
 11
156.95064311279481
 21
227.45658285924341
 31
0.0
  0
LINE
  5
18DC
  8
0
 62
     0
 10
156.77207168422339
 20
227.45658285924341
 30
0.0
 11
156.77207168422339
 21
227.45658285924341
 31
0.0
  0
LINE
  5
18DD
  8
0
 62
     0
 10
156.593500255652
 20
227.45658285924341
 30
0.0
 11
156.593500255652
 21
227.45658285924341
 31
0.0
  0
LINE
  5
18DE
  8
0
 62
     0
 10
156.41492882708059
 20
227.45658285924341
 30
0.0
 11
156.41492882708059
 21
227.45658285924341
 31
0.0
  0
LINE
  5
18DF
  8
0
 62
     0
 10
159.9863573985092
 20
227.45658285924341
 30
0.0
 11
159.9863573985092
 21
227.45658285924341
 31
0.0
  0
LINE
  5
18E0
  8
0
 62
     0
 10
159.80778596993781
 20
227.45658285924341
 30
0.0
 11
159.80778596993781
 21
227.45658285924341
 31
0.0
  0
LINE
  5
18E1
  8
0
 62
     0
 10
159.62921454136631
 20
227.45658285924341
 30
0.0
 11
159.62921454136631
 21
227.45658285924341
 31
0.0
  0
LINE
  5
18E2
  8
0
 62
     0
 10
159.45064311279489
 20
227.45658285924341
 30
0.0
 11
159.45064311279489
 21
227.45658285924341
 31
0.0
  0
LINE
  5
18E3
  8
0
 62
     0
 10
154.8077859699377
 20
227.45658285924341
 30
0.0
 11
154.8077859699377
 21
227.45658285924341
 31
0.0
  0
LINE
  5
18E4
  8
0
 62
     0
 10
154.62921454136631
 20
227.45658285924341
 30
0.0
 11
154.62921454136631
 21
227.45658285924341
 31
0.0
  0
LINE
  5
18E5
  8
0
 62
     0
 10
154.45064311279489
 20
227.45658285924341
 30
0.0
 11
154.45064311279489
 21
227.45658285924341
 31
0.0
  0
LINE
  5
18E6
  8
0
 62
     0
 10
154.2720716842235
 20
227.45658285924341
 30
0.0
 11
154.2720716842235
 21
227.45658285924341
 31
0.0
  0
LINE
  5
18E7
  8
0
 62
     0
 10
161.77207168422339
 20
227.45658285924341
 30
0.0
 11
161.77207168422339
 21
227.45658285924341
 31
0.0
  0
LINE
  5
18E8
  8
0
 62
     0
 10
161.593500255652
 20
227.45658285924341
 30
0.0
 11
161.593500255652
 21
227.45658285924341
 31
0.0
  0
LINE
  5
18E9
  8
0
 62
     0
 10
161.41492882708059
 20
227.45658285924341
 30
0.0
 11
161.41492882708059
 21
227.45658285924341
 31
0.0
  0
LINE
  5
18EA
  8
0
 62
     0
 10
161.23635739850911
 20
227.45658285924341
 30
0.0
 11
161.23635739850911
 21
227.45658285924341
 31
0.0
  0
LINE
  5
18EB
  8
0
 62
     0
 10
152.12921454136631
 20
227.45658285924341
 30
0.0
 11
152.12921454136631
 21
227.45658285924341
 31
0.0
  0
LINE
  5
18EC
  8
0
 62
     0
 10
151.95064311279489
 20
227.45658285924341
 30
0.0
 11
151.95064311279489
 21
227.45658285924341
 31
0.0
  0
LINE
  5
18ED
  8
0
 62
     0
 10
151.7720716842235
 20
227.45658285924341
 30
0.0
 11
151.7720716842235
 21
227.45658285924341
 31
0.0
  0
LINE
  5
18EE
  8
0
 62
     0
 10
151.593500255652
 20
227.45658285924341
 30
0.0
 11
151.593500255652
 21
227.45658285924341
 31
0.0
  0
LINE
  5
18EF
  8
0
 62
     0
 10
165.16492882708059
 20
227.45658285924341
 30
0.0
 11
165.16492882708059
 21
227.45658285924341
 31
0.0
  0
LINE
  5
18F0
  8
0
 62
     0
 10
164.9863573985092
 20
227.45658285924341
 30
0.0
 11
164.9863573985092
 21
227.45658285924341
 31
0.0
  0
LINE
  5
18F1
  8
0
 62
     0
 10
164.80778596993781
 20
227.45658285924341
 30
0.0
 11
164.80778596993781
 21
227.45658285924341
 31
0.0
  0
LINE
  5
18F2
  8
0
 62
     0
 10
164.62921454136639
 20
227.45658285924341
 30
0.0
 11
164.62921454136639
 21
227.45658285924341
 31
0.0
  0
LINE
  5
18F3
  8
0
 62
     0
 10
147.12921454136631
 20
227.45658285924341
 30
0.0
 11
147.12921454136631
 21
227.45658285924341
 31
0.0
  0
LINE
  5
18F4
  8
0
 62
     0
 10
146.95064311279489
 20
227.45658285924341
 30
0.0
 11
146.95064311279489
 21
227.45658285924341
 31
0.0
  0
LINE
  5
18F5
  8
0
 62
     0
 10
146.7720716842235
 20
227.45658285924341
 30
0.0
 11
146.7720716842235
 21
227.45658285924341
 31
0.0
  0
LINE
  5
18F6
  8
0
 62
     0
 10
146.593500255652
 20
227.45658285924341
 30
0.0
 11
146.593500255652
 21
227.45658285924341
 31
0.0
  0
LINE
  5
18F7
  8
0
 62
     0
 10
157.0399288270805
 20
227.6351542878148
 30
0.0
 11
157.0399288270805
 21
227.6351542878148
 31
0.0
  0
LINE
  5
18F8
  8
0
 62
     0
 10
156.86135739850911
 20
227.6351542878148
 30
0.0
 11
156.86135739850911
 21
227.6351542878148
 31
0.0
  0
LINE
  5
18F9
  8
0
 62
     0
 10
156.6827859699377
 20
227.6351542878148
 30
0.0
 11
156.6827859699377
 21
227.6351542878148
 31
0.0
  0
LINE
  5
18FA
  8
0
 62
     0
 10
156.50421454136631
 20
227.6351542878148
 30
0.0
 11
156.50421454136631
 21
227.6351542878148
 31
0.0
  0
LINE
  5
18FB
  8
0
 62
     0
 10
160.07564311279481
 20
227.6351542878148
 30
0.0
 11
160.07564311279481
 21
227.6351542878148
 31
0.0
  0
LINE
  5
18FC
  8
0
 62
     0
 10
159.89707168422339
 20
227.6351542878148
 30
0.0
 11
159.89707168422339
 21
227.6351542878148
 31
0.0
  0
LINE
  5
18FD
  8
0
 62
     0
 10
159.718500255652
 20
227.6351542878148
 30
0.0
 11
159.718500255652
 21
227.6351542878148
 31
0.0
  0
LINE
  5
18FE
  8
0
 62
     0
 10
159.53992882708059
 20
227.6351542878148
 30
0.0
 11
159.53992882708059
 21
227.6351542878148
 31
0.0
  0
LINE
  5
18FF
  8
0
 62
     0
 10
154.89707168422339
 20
227.6351542878148
 30
0.0
 11
154.89707168422339
 21
227.6351542878148
 31
0.0
  0
LINE
  5
1900
  8
0
 62
     0
 10
154.718500255652
 20
227.6351542878148
 30
0.0
 11
154.718500255652
 21
227.6351542878148
 31
0.0
  0
LINE
  5
1901
  8
0
 62
     0
 10
154.53992882708059
 20
227.6351542878148
 30
0.0
 11
154.53992882708059
 21
227.6351542878148
 31
0.0
  0
LINE
  5
1902
  8
0
 62
     0
 10
154.3613573985092
 20
227.6351542878148
 30
0.0
 11
154.3613573985092
 21
227.6351542878148
 31
0.0
  0
LINE
  5
1903
  8
0
 62
     0
 10
161.86135739850911
 20
227.6351542878148
 30
0.0
 11
161.86135739850911
 21
227.6351542878148
 31
0.0
  0
LINE
  5
1904
  8
0
 62
     0
 10
161.6827859699377
 20
227.6351542878148
 30
0.0
 11
161.6827859699377
 21
227.6351542878148
 31
0.0
  0
LINE
  5
1905
  8
0
 62
     0
 10
161.5042145413662
 20
227.6351542878148
 30
0.0
 11
161.5042145413662
 21
227.6351542878148
 31
0.0
  0
LINE
  5
1906
  8
0
 62
     0
 10
161.32564311279481
 20
227.6351542878148
 30
0.0
 11
161.32564311279481
 21
227.6351542878148
 31
0.0
  0
LINE
  5
1907
  8
0
 62
     0
 10
152.0399288270805
 20
227.6351542878148
 30
0.0
 11
152.0399288270805
 21
227.6351542878148
 31
0.0
  0
LINE
  5
1908
  8
0
 62
     0
 10
151.86135739850911
 20
227.6351542878148
 30
0.0
 11
151.86135739850911
 21
227.6351542878148
 31
0.0
  0
LINE
  5
1909
  8
0
 62
     0
 10
151.6827859699377
 20
227.6351542878148
 30
0.0
 11
151.6827859699377
 21
227.6351542878148
 31
0.0
  0
LINE
  5
190A
  8
0
 62
     0
 10
151.50421454136631
 20
227.6351542878148
 30
0.0
 11
151.50421454136631
 21
227.6351542878148
 31
0.0
  0
LINE
  5
190B
  8
0
 62
     0
 10
165.07564311279481
 20
227.6351542878148
 30
0.0
 11
165.07564311279481
 21
227.6351542878148
 31
0.0
  0
LINE
  5
190C
  8
0
 62
     0
 10
164.89707168422339
 20
227.6351542878148
 30
0.0
 11
164.89707168422339
 21
227.6351542878148
 31
0.0
  0
LINE
  5
190D
  8
0
 62
     0
 10
164.718500255652
 20
227.6351542878148
 30
0.0
 11
164.718500255652
 21
227.6351542878148
 31
0.0
  0
LINE
  5
190E
  8
0
 62
     0
 10
164.53992882708059
 20
227.6351542878148
 30
0.0
 11
164.53992882708059
 21
227.6351542878148
 31
0.0
  0
LINE
  5
190F
  8
0
 62
     0
 10
147.0399288270805
 20
227.6351542878148
 30
0.0
 11
147.0399288270805
 21
227.6351542878148
 31
0.0
  0
LINE
  5
1910
  8
0
 62
     0
 10
146.86135739850911
 20
227.6351542878148
 30
0.0
 11
146.86135739850911
 21
227.6351542878148
 31
0.0
  0
LINE
  5
1911
  8
0
 62
     0
 10
146.6827859699377
 20
227.6351542878148
 30
0.0
 11
146.6827859699377
 21
227.6351542878148
 31
0.0
  0
LINE
  5
1912
  8
0
 62
     0
 10
146.50421454136631
 20
227.6351542878148
 30
0.0
 11
146.50421454136631
 21
227.6351542878148
 31
0.0
  0
LINE
  5
1913
  8
0
 62
     0
 10
159.986357398509
 20
227.81372571638619
 30
0.0
 11
159.986357398509
 21
227.81372571638619
 31
0.0
  0
LINE
  5
1914
  8
0
 62
     0
 10
159.80778596993761
 20
227.81372571638619
 30
0.0
 11
159.80778596993761
 21
227.81372571638619
 31
0.0
  0
LINE
  5
1915
  8
0
 62
     0
 10
159.6292145413662
 20
227.81372571638619
 30
0.0
 11
159.6292145413662
 21
227.81372571638619
 31
0.0
  0
LINE
  5
1916
  8
0
 62
     0
 10
159.45064311279481
 20
227.81372571638619
 30
0.0
 11
159.45064311279481
 21
227.81372571638619
 31
0.0
  0
LINE
  5
1917
  8
0
 62
     0
 10
159.27207168422339
 20
227.81372571638619
 30
0.0
 11
159.27207168422339
 21
227.81372571638619
 31
0.0
  0
LINE
  5
1918
  8
0
 62
     0
 10
154.986357398509
 20
227.81372571638619
 30
0.0
 11
154.986357398509
 21
227.81372571638619
 31
0.0
  0
LINE
  5
1919
  8
0
 62
     0
 10
154.80778596993761
 20
227.81372571638619
 30
0.0
 11
154.80778596993761
 21
227.81372571638619
 31
0.0
  0
LINE
  5
191A
  8
0
 62
     0
 10
154.6292145413662
 20
227.81372571638619
 30
0.0
 11
154.6292145413662
 21
227.81372571638619
 31
0.0
  0
LINE
  5
191B
  8
0
 62
     0
 10
154.45064311279481
 20
227.81372571638619
 30
0.0
 11
154.45064311279481
 21
227.81372571638619
 31
0.0
  0
LINE
  5
191C
  8
0
 62
     0
 10
161.77207168422331
 20
227.81372571638619
 30
0.0
 11
161.77207168422331
 21
227.81372571638619
 31
0.0
  0
LINE
  5
191D
  8
0
 62
     0
 10
161.59350025565189
 20
227.81372571638619
 30
0.0
 11
161.59350025565189
 21
227.81372571638619
 31
0.0
  0
LINE
  5
191E
  8
0
 62
     0
 10
161.4149288270805
 20
227.81372571638619
 30
0.0
 11
161.4149288270805
 21
227.81372571638619
 31
0.0
  0
LINE
  5
191F
  8
0
 62
     0
 10
161.236357398509
 20
227.81372571638619
 30
0.0
 11
161.236357398509
 21
227.81372571638619
 31
0.0
  0
LINE
  5
1920
  8
0
 62
     0
 10
151.95064311279469
 20
227.81372571638619
 30
0.0
 11
151.95064311279469
 21
227.81372571638619
 31
0.0
  0
LINE
  5
1921
  8
0
 62
     0
 10
151.77207168422331
 20
227.81372571638619
 30
0.0
 11
151.77207168422331
 21
227.81372571638619
 31
0.0
  0
LINE
  5
1922
  8
0
 62
     0
 10
151.59350025565189
 20
227.81372571638619
 30
0.0
 11
151.59350025565189
 21
227.81372571638619
 31
0.0
  0
LINE
  5
1923
  8
0
 62
     0
 10
151.4149288270805
 20
227.81372571638619
 30
0.0
 11
151.4149288270805
 21
227.81372571638619
 31
0.0
  0
LINE
  5
1924
  8
0
 62
     0
 10
165.1649288270805
 20
227.81372571638619
 30
0.0
 11
165.1649288270805
 21
227.81372571638619
 31
0.0
  0
LINE
  5
1925
  8
0
 62
     0
 10
164.98635739850911
 20
227.81372571638619
 30
0.0
 11
164.98635739850911
 21
227.81372571638619
 31
0.0
  0
LINE
  5
1926
  8
0
 62
     0
 10
164.8077859699377
 20
227.81372571638619
 30
0.0
 11
164.8077859699377
 21
227.81372571638619
 31
0.0
  0
LINE
  5
1927
  8
0
 62
     0
 10
164.62921454136631
 20
227.81372571638619
 30
0.0
 11
164.62921454136631
 21
227.81372571638619
 31
0.0
  0
LINE
  5
1928
  8
0
 62
     0
 10
147.1292145413662
 20
227.81372571638619
 30
0.0
 11
147.1292145413662
 21
227.81372571638619
 31
0.0
  0
LINE
  5
1929
  8
0
 62
     0
 10
146.95064311279469
 20
227.81372571638619
 30
0.0
 11
146.95064311279469
 21
227.81372571638619
 31
0.0
  0
LINE
  5
192A
  8
0
 62
     0
 10
146.77207168422331
 20
227.81372571638619
 30
0.0
 11
146.77207168422331
 21
227.81372571638619
 31
0.0
  0
LINE
  5
192B
  8
0
 62
     0
 10
146.59350025565189
 20
227.81372571638619
 30
0.0
 11
146.59350025565189
 21
227.81372571638619
 31
0.0
  0
LINE
  5
192C
  8
0
 62
     0
 10
159.71850025565189
 20
227.99229714495769
 30
0.0
 11
159.71850025565189
 21
227.99229714495769
 31
0.0
  0
LINE
  5
192D
  8
0
 62
     0
 10
159.5399288270805
 20
227.99229714495769
 30
0.0
 11
159.5399288270805
 21
227.99229714495769
 31
0.0
  0
LINE
  5
192E
  8
0
 62
     0
 10
159.36135739850911
 20
227.99229714495769
 30
0.0
 11
159.36135739850911
 21
227.99229714495769
 31
0.0
  0
LINE
  5
192F
  8
0
 62
     0
 10
159.1827859699377
 20
227.99229714495769
 30
0.0
 11
159.1827859699377
 21
227.99229714495769
 31
0.0
  0
LINE
  5
1930
  8
0
 62
     0
 10
159.00421454136631
 20
227.99229714495769
 30
0.0
 11
159.00421454136631
 21
227.99229714495769
 31
0.0
  0
LINE
  5
1931
  8
0
 62
     0
 10
155.07564311279481
 20
227.99229714495769
 30
0.0
 11
155.07564311279481
 21
227.99229714495769
 31
0.0
  0
LINE
  5
1932
  8
0
 62
     0
 10
154.89707168422339
 20
227.99229714495769
 30
0.0
 11
154.89707168422339
 21
227.99229714495769
 31
0.0
  0
LINE
  5
1933
  8
0
 62
     0
 10
154.718500255652
 20
227.99229714495769
 30
0.0
 11
154.718500255652
 21
227.99229714495769
 31
0.0
  0
LINE
  5
1934
  8
0
 62
     0
 10
154.53992882708059
 20
227.99229714495769
 30
0.0
 11
154.53992882708059
 21
227.99229714495769
 31
0.0
  0
LINE
  5
1935
  8
0
 62
     0
 10
161.86135739850911
 20
227.99229714495769
 30
0.0
 11
161.86135739850911
 21
227.99229714495769
 31
0.0
  0
LINE
  5
1936
  8
0
 62
     0
 10
161.6827859699377
 20
227.99229714495769
 30
0.0
 11
161.6827859699377
 21
227.99229714495769
 31
0.0
  0
LINE
  5
1937
  8
0
 62
     0
 10
161.5042145413662
 20
227.99229714495769
 30
0.0
 11
161.5042145413662
 21
227.99229714495769
 31
0.0
  0
LINE
  5
1938
  8
0
 62
     0
 10
161.32564311279481
 20
227.99229714495769
 30
0.0
 11
161.32564311279481
 21
227.99229714495769
 31
0.0
  0
LINE
  5
1939
  8
0
 62
     0
 10
151.861357398509
 20
227.99229714495769
 30
0.0
 11
151.861357398509
 21
227.99229714495769
 31
0.0
  0
LINE
  5
193A
  8
0
 62
     0
 10
151.68278596993761
 20
227.99229714495769
 30
0.0
 11
151.68278596993761
 21
227.99229714495769
 31
0.0
  0
LINE
  5
193B
  8
0
 62
     0
 10
151.5042145413662
 20
227.99229714495769
 30
0.0
 11
151.5042145413662
 21
227.99229714495769
 31
0.0
  0
LINE
  5
193C
  8
0
 62
     0
 10
151.32564311279481
 20
227.99229714495769
 30
0.0
 11
151.32564311279481
 21
227.99229714495769
 31
0.0
  0
LINE
  5
193D
  8
0
 62
     0
 10
165.07564311279481
 20
227.99229714495769
 30
0.0
 11
165.07564311279481
 21
227.99229714495769
 31
0.0
  0
LINE
  5
193E
  8
0
 62
     0
 10
164.89707168422339
 20
227.99229714495769
 30
0.0
 11
164.89707168422339
 21
227.99229714495769
 31
0.0
  0
LINE
  5
193F
  8
0
 62
     0
 10
164.718500255652
 20
227.99229714495769
 30
0.0
 11
164.718500255652
 21
227.99229714495769
 31
0.0
  0
LINE
  5
1940
  8
0
 62
     0
 10
164.53992882708059
 20
227.99229714495769
 30
0.0
 11
164.53992882708059
 21
227.99229714495769
 31
0.0
  0
LINE
  5
1941
  8
0
 62
     0
 10
147.0399288270805
 20
227.99229714495769
 30
0.0
 11
147.0399288270805
 21
227.99229714495769
 31
0.0
  0
LINE
  5
1942
  8
0
 62
     0
 10
146.86135739850911
 20
227.99229714495769
 30
0.0
 11
146.86135739850911
 21
227.99229714495769
 31
0.0
  0
LINE
  5
1943
  8
0
 62
     0
 10
146.6827859699377
 20
227.99229714495769
 30
0.0
 11
146.6827859699377
 21
227.99229714495769
 31
0.0
  0
LINE
  5
1944
  8
0
 62
     0
 10
146.50421454136631
 20
227.99229714495769
 30
0.0
 11
146.50421454136631
 21
227.99229714495769
 31
0.0
  0
LINE
  5
1945
  8
0
 62
     0
 10
159.45064311279489
 20
228.17086857352911
 30
0.0
 11
159.45064311279489
 21
228.17086857352911
 31
0.0
  0
LINE
  5
1946
  8
0
 62
     0
 10
159.2720716842235
 20
228.17086857352911
 30
0.0
 11
159.2720716842235
 21
228.17086857352911
 31
0.0
  0
LINE
  5
1947
  8
0
 62
     0
 10
159.09350025565209
 20
228.17086857352911
 30
0.0
 11
159.09350025565209
 21
228.17086857352911
 31
0.0
  0
LINE
  5
1948
  8
0
 62
     0
 10
158.91492882708059
 20
228.17086857352911
 30
0.0
 11
158.91492882708059
 21
228.17086857352911
 31
0.0
  0
LINE
  5
1949
  8
0
 62
     0
 10
158.7363573985092
 20
228.17086857352911
 30
0.0
 11
158.7363573985092
 21
228.17086857352911
 31
0.0
  0
LINE
  5
194A
  8
0
 62
     0
 10
158.55778596993781
 20
228.17086857352911
 30
0.0
 11
158.55778596993781
 21
228.17086857352911
 31
0.0
  0
LINE
  5
194B
  8
0
 62
     0
 10
155.16492882708059
 20
228.17086857352911
 30
0.0
 11
155.16492882708059
 21
228.17086857352911
 31
0.0
  0
LINE
  5
194C
  8
0
 62
     0
 10
154.9863573985092
 20
228.17086857352911
 30
0.0
 11
154.9863573985092
 21
228.17086857352911
 31
0.0
  0
LINE
  5
194D
  8
0
 62
     0
 10
154.80778596993781
 20
228.17086857352911
 30
0.0
 11
154.80778596993781
 21
228.17086857352911
 31
0.0
  0
LINE
  5
194E
  8
0
 62
     0
 10
154.62921454136639
 20
228.17086857352911
 30
0.0
 11
154.62921454136639
 21
228.17086857352911
 31
0.0
  0
LINE
  5
194F
  8
0
 62
     0
 10
161.7720716842235
 20
228.17086857352911
 30
0.0
 11
161.7720716842235
 21
228.17086857352911
 31
0.0
  0
LINE
  5
1950
  8
0
 62
     0
 10
161.59350025565209
 20
228.17086857352911
 30
0.0
 11
161.59350025565209
 21
228.17086857352911
 31
0.0
  0
LINE
  5
1951
  8
0
 62
     0
 10
161.4149288270807
 20
228.17086857352911
 30
0.0
 11
161.4149288270807
 21
228.17086857352911
 31
0.0
  0
LINE
  5
1952
  8
0
 62
     0
 10
161.23635739850931
 20
228.17086857352911
 30
0.0
 11
161.23635739850931
 21
228.17086857352911
 31
0.0
  0
LINE
  5
1953
  8
0
 62
     0
 10
151.95064311279481
 20
228.17086857352911
 30
0.0
 11
151.95064311279481
 21
228.17086857352911
 31
0.0
  0
LINE
  5
1954
  8
0
 62
     0
 10
151.77207168422339
 20
228.17086857352911
 30
0.0
 11
151.77207168422339
 21
228.17086857352911
 31
0.0
  0
LINE
  5
1955
  8
0
 62
     0
 10
151.593500255652
 20
228.17086857352911
 30
0.0
 11
151.593500255652
 21
228.17086857352911
 31
0.0
  0
LINE
  5
1956
  8
0
 62
     0
 10
151.41492882708059
 20
228.17086857352911
 30
0.0
 11
151.41492882708059
 21
228.17086857352911
 31
0.0
  0
LINE
  5
1957
  8
0
 62
     0
 10
165.16492882708059
 20
228.17086857352911
 30
0.0
 11
165.16492882708059
 21
228.17086857352911
 31
0.0
  0
LINE
  5
1958
  8
0
 62
     0
 10
164.9863573985092
 20
228.17086857352911
 30
0.0
 11
164.9863573985092
 21
228.17086857352911
 31
0.0
  0
LINE
  5
1959
  8
0
 62
     0
 10
164.80778596993781
 20
228.17086857352911
 30
0.0
 11
164.80778596993781
 21
228.17086857352911
 31
0.0
  0
LINE
  5
195A
  8
0
 62
     0
 10
164.62921454136639
 20
228.17086857352911
 30
0.0
 11
164.62921454136639
 21
228.17086857352911
 31
0.0
  0
LINE
  5
195B
  8
0
 62
     0
 10
149.09350025565189
 20
228.17086857352911
 30
0.0
 11
149.09350025565189
 21
228.17086857352911
 31
0.0
  0
LINE
  5
195C
  8
0
 62
     0
 10
148.9149288270805
 20
228.17086857352911
 30
0.0
 11
148.9149288270805
 21
228.17086857352911
 31
0.0
  0
LINE
  5
195D
  8
0
 62
     0
 10
148.736357398509
 20
228.17086857352911
 30
0.0
 11
148.736357398509
 21
228.17086857352911
 31
0.0
  0
LINE
  5
195E
  8
0
 62
     0
 10
148.55778596993761
 20
228.17086857352911
 30
0.0
 11
148.55778596993761
 21
228.17086857352911
 31
0.0
  0
LINE
  5
195F
  8
0
 62
     0
 10
148.3792145413662
 20
228.17086857352911
 30
0.0
 11
148.3792145413662
 21
228.17086857352911
 31
0.0
  0
LINE
  5
1960
  8
0
 62
     0
 10
148.20064311279481
 20
228.17086857352911
 30
0.0
 11
148.20064311279481
 21
228.17086857352911
 31
0.0
  0
LINE
  5
1961
  8
0
 62
     0
 10
148.02207168422339
 20
228.17086857352911
 30
0.0
 11
148.02207168422339
 21
228.17086857352911
 31
0.0
  0
LINE
  5
1962
  8
0
 62
     0
 10
147.843500255652
 20
228.17086857352911
 30
0.0
 11
147.843500255652
 21
228.17086857352911
 31
0.0
  0
LINE
  5
1963
  8
0
 62
     0
 10
147.6649288270805
 20
228.17086857352911
 30
0.0
 11
147.6649288270805
 21
228.17086857352911
 31
0.0
  0
LINE
  5
1964
  8
0
 62
     0
 10
147.48635739850911
 20
228.17086857352911
 30
0.0
 11
147.48635739850911
 21
228.17086857352911
 31
0.0
  0
LINE
  5
1965
  8
0
 62
     0
 10
147.3077859699377
 20
228.17086857352911
 30
0.0
 11
147.3077859699377
 21
228.17086857352911
 31
0.0
  0
LINE
  5
1966
  8
0
 62
     0
 10
147.12921454136631
 20
228.17086857352911
 30
0.0
 11
147.12921454136631
 21
228.17086857352911
 31
0.0
  0
LINE
  5
1967
  8
0
 62
     0
 10
146.95064311279489
 20
228.17086857352911
 30
0.0
 11
146.95064311279489
 21
228.17086857352911
 31
0.0
  0
LINE
  5
1968
  8
0
 62
     0
 10
146.7720716842235
 20
228.17086857352911
 30
0.0
 11
146.7720716842235
 21
228.17086857352911
 31
0.0
  0
LINE
  5
1969
  8
0
 62
     0
 10
146.593500255652
 20
228.17086857352911
 30
0.0
 11
146.593500255652
 21
228.17086857352911
 31
0.0
  0
LINE
  5
196A
  8
0
 62
     0
 10
159.0042145413662
 20
228.34944000210049
 30
0.0
 11
159.0042145413662
 21
228.34944000210049
 31
0.0
  0
LINE
  5
196B
  8
0
 62
     0
 10
158.82564311279481
 20
228.34944000210049
 30
0.0
 11
158.82564311279481
 21
228.34944000210049
 31
0.0
  0
LINE
  5
196C
  8
0
 62
     0
 10
158.64707168422339
 20
228.34944000210049
 30
0.0
 11
158.64707168422339
 21
228.34944000210049
 31
0.0
  0
LINE
  5
196D
  8
0
 62
     0
 10
158.468500255652
 20
228.34944000210049
 30
0.0
 11
158.468500255652
 21
228.34944000210049
 31
0.0
  0
LINE
  5
196E
  8
0
 62
     0
 10
158.28992882708059
 20
228.34944000210049
 30
0.0
 11
158.28992882708059
 21
228.34944000210049
 31
0.0
  0
LINE
  5
196F
  8
0
 62
     0
 10
158.11135739850911
 20
228.34944000210049
 30
0.0
 11
158.11135739850911
 21
228.34944000210049
 31
0.0
  0
LINE
  5
1970
  8
0
 62
     0
 10
155.07564311279481
 20
228.34944000210049
 30
0.0
 11
155.07564311279481
 21
228.34944000210049
 31
0.0
  0
LINE
  5
1971
  8
0
 62
     0
 10
154.89707168422339
 20
228.34944000210049
 30
0.0
 11
154.89707168422339
 21
228.34944000210049
 31
0.0
  0
LINE
  5
1972
  8
0
 62
     0
 10
154.718500255652
 20
228.34944000210049
 30
0.0
 11
154.718500255652
 21
228.34944000210049
 31
0.0
  0
LINE
  5
1973
  8
0
 62
     0
 10
154.53992882708059
 20
228.34944000210049
 30
0.0
 11
154.53992882708059
 21
228.34944000210049
 31
0.0
  0
LINE
  5
1974
  8
0
 62
     0
 10
161.8613573985092
 20
228.34944000210049
 30
0.0
 11
161.8613573985092
 21
228.34944000210049
 31
0.0
  0
LINE
  5
1975
  8
0
 62
     0
 10
161.68278596993781
 20
228.34944000210049
 30
0.0
 11
161.68278596993781
 21
228.34944000210049
 31
0.0
  0
LINE
  5
1976
  8
0
 62
     0
 10
161.50421454136631
 20
228.34944000210049
 30
0.0
 11
161.50421454136631
 21
228.34944000210049
 31
0.0
  0
LINE
  5
1977
  8
0
 62
     0
 10
161.32564311279489
 20
228.34944000210049
 30
0.0
 11
161.32564311279489
 21
228.34944000210049
 31
0.0
  0
LINE
  5
1978
  8
0
 62
     0
 10
151.8613573985092
 20
228.34944000210049
 30
0.0
 11
151.8613573985092
 21
228.34944000210049
 31
0.0
  0
LINE
  5
1979
  8
0
 62
     0
 10
151.68278596993781
 20
228.34944000210049
 30
0.0
 11
151.68278596993781
 21
228.34944000210049
 31
0.0
  0
LINE
  5
197A
  8
0
 62
     0
 10
151.50421454136631
 20
228.34944000210049
 30
0.0
 11
151.50421454136631
 21
228.34944000210049
 31
0.0
  0
LINE
  5
197B
  8
0
 62
     0
 10
151.32564311279489
 20
228.34944000210049
 30
0.0
 11
151.32564311279489
 21
228.34944000210049
 31
0.0
  0
LINE
  5
197C
  8
0
 62
     0
 10
165.07564311279481
 20
228.34944000210049
 30
0.0
 11
165.07564311279481
 21
228.34944000210049
 31
0.0
  0
LINE
  5
197D
  8
0
 62
     0
 10
164.89707168422339
 20
228.34944000210049
 30
0.0
 11
164.89707168422339
 21
228.34944000210049
 31
0.0
  0
LINE
  5
197E
  8
0
 62
     0
 10
164.718500255652
 20
228.34944000210049
 30
0.0
 11
164.718500255652
 21
228.34944000210049
 31
0.0
  0
LINE
  5
197F
  8
0
 62
     0
 10
164.53992882708059
 20
228.34944000210049
 30
0.0
 11
164.53992882708059
 21
228.34944000210049
 31
0.0
  0
LINE
  5
1980
  8
0
 62
     0
 10
149.5399288270803
 20
228.34944000210049
 30
0.0
 11
149.5399288270803
 21
228.34944000210049
 31
0.0
  0
LINE
  5
1981
  8
0
 62
     0
 10
149.36135739850889
 20
228.34944000210049
 30
0.0
 11
149.36135739850889
 21
228.34944000210049
 31
0.0
  0
LINE
  5
1982
  8
0
 62
     0
 10
149.1827859699375
 20
228.34944000210049
 30
0.0
 11
149.1827859699375
 21
228.34944000210049
 31
0.0
  0
LINE
  5
1983
  8
0
 62
     0
 10
149.00421454136611
 20
228.34944000210049
 30
0.0
 11
149.00421454136611
 21
228.34944000210049
 31
0.0
  0
LINE
  5
1984
  8
0
 62
     0
 10
148.82564311279469
 20
228.34944000210049
 30
0.0
 11
148.82564311279469
 21
228.34944000210049
 31
0.0
  0
LINE
  5
1985
  8
0
 62
     0
 10
148.64707168422331
 20
228.34944000210049
 30
0.0
 11
148.64707168422331
 21
228.34944000210049
 31
0.0
  0
LINE
  5
1986
  8
0
 62
     0
 10
148.4685002556518
 20
228.34944000210049
 30
0.0
 11
148.4685002556518
 21
228.34944000210049
 31
0.0
  0
LINE
  5
1987
  8
0
 62
     0
 10
148.28992882708039
 20
228.34944000210049
 30
0.0
 11
148.28992882708039
 21
228.34944000210049
 31
0.0
  0
LINE
  5
1988
  8
0
 62
     0
 10
148.111357398509
 20
228.34944000210049
 30
0.0
 11
148.111357398509
 21
228.34944000210049
 31
0.0
  0
LINE
  5
1989
  8
0
 62
     0
 10
147.93278596993761
 20
228.34944000210049
 30
0.0
 11
147.93278596993761
 21
228.34944000210049
 31
0.0
  0
LINE
  5
198A
  8
0
 62
     0
 10
147.7542145413662
 20
228.34944000210049
 30
0.0
 11
147.7542145413662
 21
228.34944000210049
 31
0.0
  0
LINE
  5
198B
  8
0
 62
     0
 10
147.57564311279481
 20
228.34944000210049
 30
0.0
 11
147.57564311279481
 21
228.34944000210049
 31
0.0
  0
LINE
  5
198C
  8
0
 62
     0
 10
147.39707168422331
 20
228.34944000210049
 30
0.0
 11
147.39707168422331
 21
228.34944000210049
 31
0.0
  0
LINE
  5
198D
  8
0
 62
     0
 10
147.21850025565189
 20
228.34944000210049
 30
0.0
 11
147.21850025565189
 21
228.34944000210049
 31
0.0
  0
LINE
  5
198E
  8
0
 62
     0
 10
147.0399288270805
 20
228.34944000210049
 30
0.0
 11
147.0399288270805
 21
228.34944000210049
 31
0.0
  0
LINE
  5
198F
  8
0
 62
     0
 10
146.86135739850911
 20
228.34944000210049
 30
0.0
 11
146.86135739850911
 21
228.34944000210049
 31
0.0
  0
LINE
  5
1990
  8
0
 62
     0
 10
146.6827859699377
 20
228.34944000210049
 30
0.0
 11
146.6827859699377
 21
228.34944000210049
 31
0.0
  0
LINE
  5
1991
  8
0
 62
     0
 10
146.50421454136631
 20
228.34944000210049
 30
0.0
 11
146.50421454136631
 21
228.34944000210049
 31
0.0
  0
LINE
  5
1992
  8
0
 62
     0
 10
155.1649288270805
 20
228.52801143067191
 30
0.0
 11
155.1649288270805
 21
228.52801143067191
 31
0.0
  0
LINE
  5
1993
  8
0
 62
     0
 10
154.98635739850911
 20
228.52801143067191
 30
0.0
 11
154.98635739850911
 21
228.52801143067191
 31
0.0
  0
LINE
  5
1994
  8
0
 62
     0
 10
154.8077859699377
 20
228.52801143067191
 30
0.0
 11
154.8077859699377
 21
228.52801143067191
 31
0.0
  0
LINE
  5
1995
  8
0
 62
     0
 10
154.62921454136631
 20
228.52801143067191
 30
0.0
 11
154.62921454136631
 21
228.52801143067191
 31
0.0
  0
LINE
  5
1996
  8
0
 62
     0
 10
158.5577859699377
 20
228.52801143067191
 30
0.0
 11
158.5577859699377
 21
228.52801143067191
 31
0.0
  0
LINE
  5
1997
  8
0
 62
     0
 10
158.37921454136631
 20
228.52801143067191
 30
0.0
 11
158.37921454136631
 21
228.52801143067191
 31
0.0
  0
LINE
  5
1998
  8
0
 62
     0
 10
158.20064311279481
 20
228.52801143067191
 30
0.0
 11
158.20064311279481
 21
228.52801143067191
 31
0.0
  0
LINE
  5
1999
  8
0
 62
     0
 10
158.02207168422339
 20
228.52801143067191
 30
0.0
 11
158.02207168422339
 21
228.52801143067191
 31
0.0
  0
LINE
  5
199A
  8
0
 62
     0
 10
157.843500255652
 20
228.52801143067191
 30
0.0
 11
157.843500255652
 21
228.52801143067191
 31
0.0
  0
LINE
  5
199B
  8
0
 62
     0
 10
157.66492882708059
 20
228.52801143067191
 30
0.0
 11
157.66492882708059
 21
228.52801143067191
 31
0.0
  0
LINE
  5
199C
  8
0
 62
     0
 10
151.95064311279481
 20
228.52801143067191
 30
0.0
 11
151.95064311279481
 21
228.52801143067191
 31
0.0
  0
LINE
  5
199D
  8
0
 62
     0
 10
151.77207168422339
 20
228.52801143067191
 30
0.0
 11
151.77207168422339
 21
228.52801143067191
 31
0.0
  0
LINE
  5
199E
  8
0
 62
     0
 10
151.593500255652
 20
228.52801143067191
 30
0.0
 11
151.593500255652
 21
228.52801143067191
 31
0.0
  0
LINE
  5
199F
  8
0
 62
     0
 10
151.41492882708059
 20
228.52801143067191
 30
0.0
 11
151.41492882708059
 21
228.52801143067191
 31
0.0
  0
LINE
  5
19A0
  8
0
 62
     0
 10
165.1649288270803
 20
228.52801143067191
 30
0.0
 11
165.1649288270803
 21
228.52801143067191
 31
0.0
  0
LINE
  5
19A1
  8
0
 62
     0
 10
164.98635739850889
 20
228.52801143067191
 30
0.0
 11
164.98635739850889
 21
228.52801143067191
 31
0.0
  0
LINE
  5
19A2
  8
0
 62
     0
 10
164.8077859699375
 20
228.52801143067191
 30
0.0
 11
164.8077859699375
 21
228.52801143067191
 31
0.0
  0
LINE
  5
19A3
  8
0
 62
     0
 10
164.629214541366
 20
228.52801143067191
 30
0.0
 11
164.629214541366
 21
228.52801143067191
 31
0.0
  0
LINE
  5
19A4
  8
0
 62
     0
 10
164.45064311279461
 20
228.52801143067191
 30
0.0
 11
164.45064311279461
 21
228.52801143067191
 31
0.0
  0
LINE
  5
19A5
  8
0
 62
     0
 10
164.27207168422319
 20
228.52801143067191
 30
0.0
 11
164.27207168422319
 21
228.52801143067191
 31
0.0
  0
LINE
  5
19A6
  8
0
 62
     0
 10
164.0935002556518
 20
228.52801143067191
 30
0.0
 11
164.0935002556518
 21
228.52801143067191
 31
0.0
  0
LINE
  5
19A7
  8
0
 62
     0
 10
163.91492882708039
 20
228.52801143067191
 30
0.0
 11
163.91492882708039
 21
228.52801143067191
 31
0.0
  0
LINE
  5
19A8
  8
0
 62
     0
 10
163.736357398509
 20
228.52801143067191
 30
0.0
 11
163.736357398509
 21
228.52801143067191
 31
0.0
  0
LINE
  5
19A9
  8
0
 62
     0
 10
163.55778596993761
 20
228.52801143067191
 30
0.0
 11
163.55778596993761
 21
228.52801143067191
 31
0.0
  0
LINE
  5
19AA
  8
0
 62
     0
 10
163.37921454136611
 20
228.52801143067191
 30
0.0
 11
163.37921454136611
 21
228.52801143067191
 31
0.0
  0
LINE
  5
19AB
  8
0
 62
     0
 10
163.20064311279469
 20
228.52801143067191
 30
0.0
 11
163.20064311279469
 21
228.52801143067191
 31
0.0
  0
LINE
  5
19AC
  8
0
 62
     0
 10
163.02207168422331
 20
228.52801143067191
 30
0.0
 11
163.02207168422331
 21
228.52801143067191
 31
0.0
  0
LINE
  5
19AD
  8
0
 62
     0
 10
162.84350025565189
 20
228.52801143067191
 30
0.0
 11
162.84350025565189
 21
228.52801143067191
 31
0.0
  0
LINE
  5
19AE
  8
0
 62
     0
 10
162.6649288270805
 20
228.52801143067191
 30
0.0
 11
162.6649288270805
 21
228.52801143067191
 31
0.0
  0
LINE
  5
19AF
  8
0
 62
     0
 10
162.48635739850911
 20
228.52801143067191
 30
0.0
 11
162.48635739850911
 21
228.52801143067191
 31
0.0
  0
LINE
  5
19B0
  8
0
 62
     0
 10
162.30778596993761
 20
228.52801143067191
 30
0.0
 11
162.30778596993761
 21
228.52801143067191
 31
0.0
  0
LINE
  5
19B1
  8
0
 62
     0
 10
162.1292145413662
 20
228.52801143067191
 30
0.0
 11
162.1292145413662
 21
228.52801143067191
 31
0.0
  0
LINE
  5
19B2
  8
0
 62
     0
 10
161.95064311279481
 20
228.52801143067191
 30
0.0
 11
161.95064311279481
 21
228.52801143067191
 31
0.0
  0
LINE
  5
19B3
  8
0
 62
     0
 10
161.77207168422339
 20
228.52801143067191
 30
0.0
 11
161.77207168422339
 21
228.52801143067191
 31
0.0
  0
LINE
  5
19B4
  8
0
 62
     0
 10
161.593500255652
 20
228.52801143067191
 30
0.0
 11
161.593500255652
 21
228.52801143067191
 31
0.0
  0
LINE
  5
19B5
  8
0
 62
     0
 10
161.41492882708059
 20
228.52801143067191
 30
0.0
 11
161.41492882708059
 21
228.52801143067191
 31
0.0
  0
LINE
  5
19B6
  8
0
 62
     0
 10
161.23635739850911
 20
228.52801143067191
 30
0.0
 11
161.23635739850911
 21
228.52801143067191
 31
0.0
  0
LINE
  5
19B7
  8
0
 62
     0
 10
149.80778596993741
 20
228.52801143067191
 30
0.0
 11
149.80778596993741
 21
228.52801143067191
 31
0.0
  0
LINE
  5
19B8
  8
0
 62
     0
 10
149.629214541366
 20
228.52801143067191
 30
0.0
 11
149.629214541366
 21
228.52801143067191
 31
0.0
  0
LINE
  5
19B9
  8
0
 62
     0
 10
149.45064311279461
 20
228.52801143067191
 30
0.0
 11
149.45064311279461
 21
228.52801143067191
 31
0.0
  0
LINE
  5
19BA
  8
0
 62
     0
 10
149.27207168422319
 20
228.52801143067191
 30
0.0
 11
149.27207168422319
 21
228.52801143067191
 31
0.0
  0
LINE
  5
19BB
  8
0
 62
     0
 10
149.0935002556518
 20
228.52801143067191
 30
0.0
 11
149.0935002556518
 21
228.52801143067191
 31
0.0
  0
LINE
  5
19BC
  8
0
 62
     0
 10
148.9149288270803
 20
228.52801143067191
 30
0.0
 11
148.9149288270803
 21
228.52801143067191
 31
0.0
  0
LINE
  5
19BD
  8
0
 62
     0
 10
148.73635739850889
 20
228.52801143067191
 30
0.0
 11
148.73635739850889
 21
228.52801143067191
 31
0.0
  0
LINE
  5
19BE
  8
0
 62
     0
 10
148.5577859699375
 20
228.52801143067191
 30
0.0
 11
148.5577859699375
 21
228.52801143067191
 31
0.0
  0
LINE
  5
19BF
  8
0
 62
     0
 10
148.37921454136611
 20
228.52801143067191
 30
0.0
 11
148.37921454136611
 21
228.52801143067191
 31
0.0
  0
LINE
  5
19C0
  8
0
 62
     0
 10
148.20064311279469
 20
228.52801143067191
 30
0.0
 11
148.20064311279469
 21
228.52801143067191
 31
0.0
  0
LINE
  5
19C1
  8
0
 62
     0
 10
148.02207168422319
 20
228.52801143067191
 30
0.0
 11
148.02207168422319
 21
228.52801143067191
 31
0.0
  0
LINE
  5
19C2
  8
0
 62
     0
 10
147.8435002556518
 20
228.52801143067191
 30
0.0
 11
147.8435002556518
 21
228.52801143067191
 31
0.0
  0
LINE
  5
19C3
  8
0
 62
     0
 10
147.66492882708039
 20
228.52801143067191
 30
0.0
 11
147.66492882708039
 21
228.52801143067191
 31
0.0
  0
LINE
  5
19C4
  8
0
 62
     0
 10
147.486357398509
 20
228.52801143067191
 30
0.0
 11
147.486357398509
 21
228.52801143067191
 31
0.0
  0
LINE
  5
19C5
  8
0
 62
     0
 10
147.30778596993761
 20
228.52801143067191
 30
0.0
 11
147.30778596993761
 21
228.52801143067191
 31
0.0
  0
LINE
  5
19C6
  8
0
 62
     0
 10
147.1292145413662
 20
228.52801143067191
 30
0.0
 11
147.1292145413662
 21
228.52801143067191
 31
0.0
  0
LINE
  5
19C7
  8
0
 62
     0
 10
146.95064311279469
 20
228.52801143067191
 30
0.0
 11
146.95064311279469
 21
228.52801143067191
 31
0.0
  0
LINE
  5
19C8
  8
0
 62
     0
 10
146.77207168422331
 20
228.52801143067191
 30
0.0
 11
146.77207168422331
 21
228.52801143067191
 31
0.0
  0
LINE
  5
19C9
  8
0
 62
     0
 10
146.59350025565189
 20
228.52801143067191
 30
0.0
 11
146.59350025565189
 21
228.52801143067191
 31
0.0
  0
LINE
  5
19CA
  8
0
 62
     0
 10
155.07564311279481
 20
228.70658285924341
 30
0.0
 11
155.07564311279481
 21
228.70658285924341
 31
0.0
  0
LINE
  5
19CB
  8
0
 62
     0
 10
154.89707168422339
 20
228.70658285924341
 30
0.0
 11
154.89707168422339
 21
228.70658285924341
 31
0.0
  0
LINE
  5
19CC
  8
0
 62
     0
 10
154.718500255652
 20
228.70658285924341
 30
0.0
 11
154.718500255652
 21
228.70658285924341
 31
0.0
  0
LINE
  5
19CD
  8
0
 62
     0
 10
154.53992882708059
 20
228.70658285924341
 30
0.0
 11
154.53992882708059
 21
228.70658285924341
 31
0.0
  0
LINE
  5
19CE
  8
0
 62
     0
 10
151.8613573985092
 20
228.70658285924341
 30
0.0
 11
151.8613573985092
 21
228.70658285924341
 31
0.0
  0
LINE
  5
19CF
  8
0
 62
     0
 10
151.68278596993781
 20
228.70658285924341
 30
0.0
 11
151.68278596993781
 21
228.70658285924341
 31
0.0
  0
LINE
  5
19D0
  8
0
 62
     0
 10
151.50421454136631
 20
228.70658285924341
 30
0.0
 11
151.50421454136631
 21
228.70658285924341
 31
0.0
  0
LINE
  5
19D1
  8
0
 62
     0
 10
151.32564311279489
 20
228.70658285924341
 30
0.0
 11
151.32564311279489
 21
228.70658285924341
 31
0.0
  0
LINE
  5
19D2
  8
0
 62
     0
 10
158.28992882708059
 20
228.70658285924341
 30
0.0
 11
158.28992882708059
 21
228.70658285924341
 31
0.0
  0
LINE
  5
19D3
  8
0
 62
     0
 10
158.11135739850911
 20
228.70658285924341
 30
0.0
 11
158.11135739850911
 21
228.70658285924341
 31
0.0
  0
LINE
  5
19D4
  8
0
 62
     0
 10
157.9327859699377
 20
228.70658285924341
 30
0.0
 11
157.9327859699377
 21
228.70658285924341
 31
0.0
  0
LINE
  5
19D5
  8
0
 62
     0
 10
157.75421454136631
 20
228.70658285924341
 30
0.0
 11
157.75421454136631
 21
228.70658285924341
 31
0.0
  0
LINE
  5
19D6
  8
0
 62
     0
 10
157.57564311279489
 20
228.70658285924341
 30
0.0
 11
157.57564311279489
 21
228.70658285924341
 31
0.0
  0
LINE
  5
19D7
  8
0
 62
     0
 10
157.3970716842235
 20
228.70658285924341
 30
0.0
 11
157.3970716842235
 21
228.70658285924341
 31
0.0
  0
LINE
  5
19D8
  8
0
 62
     0
 10
150.07564311279481
 20
228.70658285924341
 30
0.0
 11
150.07564311279481
 21
228.70658285924341
 31
0.0
  0
LINE
  5
19D9
  8
0
 62
     0
 10
149.89707168422339
 20
228.70658285924341
 30
0.0
 11
149.89707168422339
 21
228.70658285924341
 31
0.0
  0
LINE
  5
19DA
  8
0
 62
     0
 10
149.718500255652
 20
228.70658285924341
 30
0.0
 11
149.718500255652
 21
228.70658285924341
 31
0.0
  0
LINE
  5
19DB
  8
0
 62
     0
 10
149.5399288270805
 20
228.70658285924341
 30
0.0
 11
149.5399288270805
 21
228.70658285924341
 31
0.0
  0
LINE
  5
19DC
  8
0
 62
     0
 10
149.36135739850911
 20
228.70658285924341
 30
0.0
 11
149.36135739850911
 21
228.70658285924341
 31
0.0
  0
LINE
  5
19DD
  8
0
 62
     0
 10
149.1827859699377
 20
228.70658285924341
 30
0.0
 11
149.1827859699377
 21
228.70658285924341
 31
0.0
  0
LINE
  5
19DE
  8
0
 62
     0
 10
165.07564311279469
 20
228.70658285924341
 30
0.0
 11
165.07564311279469
 21
228.70658285924341
 31
0.0
  0
LINE
  5
19DF
  8
0
 62
     0
 10
164.89707168422319
 20
228.70658285924341
 30
0.0
 11
164.89707168422319
 21
228.70658285924341
 31
0.0
  0
LINE
  5
19E0
  8
0
 62
     0
 10
164.7185002556518
 20
228.70658285924341
 30
0.0
 11
164.7185002556518
 21
228.70658285924341
 31
0.0
  0
LINE
  5
19E1
  8
0
 62
     0
 10
164.53992882708039
 20
228.70658285924341
 30
0.0
 11
164.53992882708039
 21
228.70658285924341
 31
0.0
  0
LINE
  5
19E2
  8
0
 62
     0
 10
164.361357398509
 20
228.70658285924341
 30
0.0
 11
164.361357398509
 21
228.70658285924341
 31
0.0
  0
LINE
  5
19E3
  8
0
 62
     0
 10
164.18278596993761
 20
228.70658285924341
 30
0.0
 11
164.18278596993761
 21
228.70658285924341
 31
0.0
  0
LINE
  5
19E4
  8
0
 62
     0
 10
164.0042145413662
 20
228.70658285924341
 30
0.0
 11
164.0042145413662
 21
228.70658285924341
 31
0.0
  0
LINE
  5
19E5
  8
0
 62
     0
 10
163.82564311279469
 20
228.70658285924341
 30
0.0
 11
163.82564311279469
 21
228.70658285924341
 31
0.0
  0
LINE
  5
19E6
  8
0
 62
     0
 10
163.64707168422331
 20
228.70658285924341
 30
0.0
 11
163.64707168422331
 21
228.70658285924341
 31
0.0
  0
LINE
  5
19E7
  8
0
 62
     0
 10
163.46850025565189
 20
228.70658285924341
 30
0.0
 11
163.46850025565189
 21
228.70658285924341
 31
0.0
  0
LINE
  5
19E8
  8
0
 62
     0
 10
163.2899288270805
 20
228.70658285924341
 30
0.0
 11
163.2899288270805
 21
228.70658285924341
 31
0.0
  0
LINE
  5
19E9
  8
0
 62
     0
 10
163.11135739850911
 20
228.70658285924341
 30
0.0
 11
163.11135739850911
 21
228.70658285924341
 31
0.0
  0
LINE
  5
19EA
  8
0
 62
     0
 10
162.9327859699377
 20
228.70658285924341
 30
0.0
 11
162.9327859699377
 21
228.70658285924341
 31
0.0
  0
LINE
  5
19EB
  8
0
 62
     0
 10
162.75421454136631
 20
228.70658285924341
 30
0.0
 11
162.75421454136631
 21
228.70658285924341
 31
0.0
  0
LINE
  5
19EC
  8
0
 62
     0
 10
162.57564311279481
 20
228.70658285924341
 30
0.0
 11
162.57564311279481
 21
228.70658285924341
 31
0.0
  0
LINE
  5
19ED
  8
0
 62
     0
 10
162.39707168422339
 20
228.70658285924341
 30
0.0
 11
162.39707168422339
 21
228.70658285924341
 31
0.0
  0
LINE
  5
19EE
  8
0
 62
     0
 10
162.218500255652
 20
228.70658285924341
 30
0.0
 11
162.218500255652
 21
228.70658285924341
 31
0.0
  0
LINE
  5
19EF
  8
0
 62
     0
 10
162.03992882708059
 20
228.70658285924341
 30
0.0
 11
162.03992882708059
 21
228.70658285924341
 31
0.0
  0
LINE
  5
19F0
  8
0
 62
     0
 10
161.8613573985092
 20
228.70658285924341
 30
0.0
 11
161.8613573985092
 21
228.70658285924341
 31
0.0
  0
LINE
  5
19F1
  8
0
 62
     0
 10
161.68278596993781
 20
228.70658285924341
 30
0.0
 11
161.68278596993781
 21
228.70658285924341
 31
0.0
  0
LINE
  5
19F2
  8
0
 62
     0
 10
161.50421454136631
 20
228.70658285924341
 30
0.0
 11
161.50421454136631
 21
228.70658285924341
 31
0.0
  0
LINE
  5
19F3
  8
0
 62
     0
 10
161.32564311279489
 20
228.70658285924341
 30
0.0
 11
161.32564311279489
 21
228.70658285924341
 31
0.0
  0
LINE
  5
19F4
  8
0
 62
     0
 10
147.03992882708059
 20
228.70658285924341
 30
0.0
 11
147.03992882708059
 21
228.70658285924341
 31
0.0
  0
LINE
  5
19F5
  8
0
 62
     0
 10
146.8613573985092
 20
228.70658285924341
 30
0.0
 11
146.8613573985092
 21
228.70658285924341
 31
0.0
  0
LINE
  5
19F6
  8
0
 62
     0
 10
146.68278596993781
 20
228.70658285924341
 30
0.0
 11
146.68278596993781
 21
228.70658285924341
 31
0.0
  0
LINE
  5
19F7
  8
0
 62
     0
 10
146.50421454136639
 20
228.70658285924341
 30
0.0
 11
146.50421454136639
 21
228.70658285924341
 31
0.0
  0
LINE
  5
19F8
  8
0
 62
     0
 10
155.1649288270805
 20
228.8851542878148
 30
0.0
 11
155.1649288270805
 21
228.8851542878148
 31
0.0
  0
LINE
  5
19F9
  8
0
 62
     0
 10
154.98635739850911
 20
228.8851542878148
 30
0.0
 11
154.98635739850911
 21
228.8851542878148
 31
0.0
  0
LINE
  5
19FA
  8
0
 62
     0
 10
154.8077859699377
 20
228.8851542878148
 30
0.0
 11
154.8077859699377
 21
228.8851542878148
 31
0.0
  0
LINE
  5
19FB
  8
0
 62
     0
 10
154.62921454136631
 20
228.8851542878148
 30
0.0
 11
154.62921454136631
 21
228.8851542878148
 31
0.0
  0
LINE
  5
19FC
  8
0
 62
     0
 10
157.84350025565189
 20
228.8851542878148
 30
0.0
 11
157.84350025565189
 21
228.8851542878148
 31
0.0
  0
LINE
  5
19FD
  8
0
 62
     0
 10
157.6649288270805
 20
228.8851542878148
 30
0.0
 11
157.6649288270805
 21
228.8851542878148
 31
0.0
  0
LINE
  5
19FE
  8
0
 62
     0
 10
157.48635739850911
 20
228.8851542878148
 30
0.0
 11
157.48635739850911
 21
228.8851542878148
 31
0.0
  0
LINE
  5
19FF
  8
0
 62
     0
 10
157.30778596993761
 20
228.8851542878148
 30
0.0
 11
157.30778596993761
 21
228.8851542878148
 31
0.0
  0
LINE
  5
1A00
  8
0
 62
     0
 10
157.1292145413662
 20
228.8851542878148
 30
0.0
 11
157.1292145413662
 21
228.8851542878148
 31
0.0
  0
LINE
  5
1A01
  8
0
 62
     0
 10
156.95064311279481
 20
228.8851542878148
 30
0.0
 11
156.95064311279481
 21
228.8851542878148
 31
0.0
  0
LINE
  5
1A02
  8
0
 62
     0
 10
151.95064311279481
 20
228.8851542878148
 30
0.0
 11
151.95064311279481
 21
228.8851542878148
 31
0.0
  0
LINE
  5
1A03
  8
0
 62
     0
 10
151.77207168422339
 20
228.8851542878148
 30
0.0
 11
151.77207168422339
 21
228.8851542878148
 31
0.0
  0
LINE
  5
1A04
  8
0
 62
     0
 10
151.593500255652
 20
228.8851542878148
 30
0.0
 11
151.593500255652
 21
228.8851542878148
 31
0.0
  0
LINE
  5
1A05
  8
0
 62
     0
 10
151.41492882708059
 20
228.8851542878148
 30
0.0
 11
151.41492882708059
 21
228.8851542878148
 31
0.0
  0
LINE
  5
1A06
  8
0
 62
     0
 10
161.77207168422339
 20
228.8851542878148
 30
0.0
 11
161.77207168422339
 21
228.8851542878148
 31
0.0
  0
LINE
  5
1A07
  8
0
 62
     0
 10
161.593500255652
 20
228.8851542878148
 30
0.0
 11
161.593500255652
 21
228.8851542878148
 31
0.0
  0
LINE
  5
1A08
  8
0
 62
     0
 10
161.41492882708059
 20
228.8851542878148
 30
0.0
 11
161.41492882708059
 21
228.8851542878148
 31
0.0
  0
LINE
  5
1A09
  8
0
 62
     0
 10
161.23635739850911
 20
228.8851542878148
 30
0.0
 11
161.23635739850911
 21
228.8851542878148
 31
0.0
  0
LINE
  5
1A0A
  8
0
 62
     0
 10
150.1649288270805
 20
228.8851542878148
 30
0.0
 11
150.1649288270805
 21
228.8851542878148
 31
0.0
  0
LINE
  5
1A0B
  8
0
 62
     0
 10
149.98635739850911
 20
228.8851542878148
 30
0.0
 11
149.98635739850911
 21
228.8851542878148
 31
0.0
  0
LINE
  5
1A0C
  8
0
 62
     0
 10
149.80778596993761
 20
228.8851542878148
 30
0.0
 11
149.80778596993761
 21
228.8851542878148
 31
0.0
  0
LINE
  5
1A0D
  8
0
 62
     0
 10
149.6292145413662
 20
228.8851542878148
 30
0.0
 11
149.6292145413662
 21
228.8851542878148
 31
0.0
  0
LINE
  5
1A0E
  8
0
 62
     0
 10
149.45064311279481
 20
228.8851542878148
 30
0.0
 11
149.45064311279481
 21
228.8851542878148
 31
0.0
  0
LINE
  5
1A0F
  8
0
 62
     0
 10
165.1649288270805
 20
228.8851542878148
 30
0.0
 11
165.1649288270805
 21
228.8851542878148
 31
0.0
  0
LINE
  5
1A10
  8
0
 62
     0
 10
164.98635739850911
 20
228.8851542878148
 30
0.0
 11
164.98635739850911
 21
228.8851542878148
 31
0.0
  0
LINE
  5
1A11
  8
0
 62
     0
 10
164.8077859699377
 20
228.8851542878148
 30
0.0
 11
164.8077859699377
 21
228.8851542878148
 31
0.0
  0
LINE
  5
1A12
  8
0
 62
     0
 10
164.62921454136631
 20
228.8851542878148
 30
0.0
 11
164.62921454136631
 21
228.8851542878148
 31
0.0
  0
LINE
  5
1A13
  8
0
 62
     0
 10
147.12921454136631
 20
228.8851542878148
 30
0.0
 11
147.12921454136631
 21
228.8851542878148
 31
0.0
  0
LINE
  5
1A14
  8
0
 62
     0
 10
146.95064311279489
 20
228.8851542878148
 30
0.0
 11
146.95064311279489
 21
228.8851542878148
 31
0.0
  0
LINE
  5
1A15
  8
0
 62
     0
 10
146.7720716842235
 20
228.8851542878148
 30
0.0
 11
146.7720716842235
 21
228.8851542878148
 31
0.0
  0
LINE
  5
1A16
  8
0
 62
     0
 10
146.593500255652
 20
228.8851542878148
 30
0.0
 11
146.593500255652
 21
228.8851542878148
 31
0.0
  0
LINE
  5
1A17
  8
0
 62
     0
 10
155.07564311279469
 20
229.06372571638619
 30
0.0
 11
155.07564311279469
 21
229.06372571638619
 31
0.0
  0
LINE
  5
1A18
  8
0
 62
     0
 10
154.89707168422331
 20
229.06372571638619
 30
0.0
 11
154.89707168422331
 21
229.06372571638619
 31
0.0
  0
LINE
  5
1A19
  8
0
 62
     0
 10
154.71850025565189
 20
229.06372571638619
 30
0.0
 11
154.71850025565189
 21
229.06372571638619
 31
0.0
  0
LINE
  5
1A1A
  8
0
 62
     0
 10
154.5399288270805
 20
229.06372571638619
 30
0.0
 11
154.5399288270805
 21
229.06372571638619
 31
0.0
  0
LINE
  5
1A1B
  8
0
 62
     0
 10
157.39707168422339
 20
229.06372571638619
 30
0.0
 11
157.39707168422339
 21
229.06372571638619
 31
0.0
  0
LINE
  5
1A1C
  8
0
 62
     0
 10
157.218500255652
 20
229.06372571638619
 30
0.0
 11
157.218500255652
 21
229.06372571638619
 31
0.0
  0
LINE
  5
1A1D
  8
0
 62
     0
 10
157.0399288270805
 20
229.06372571638619
 30
0.0
 11
157.0399288270805
 21
229.06372571638619
 31
0.0
  0
LINE
  5
1A1E
  8
0
 62
     0
 10
156.86135739850911
 20
229.06372571638619
 30
0.0
 11
156.86135739850911
 21
229.06372571638619
 31
0.0
  0
LINE
  5
1A1F
  8
0
 62
     0
 10
156.6827859699377
 20
229.06372571638619
 30
0.0
 11
156.6827859699377
 21
229.06372571638619
 31
0.0
  0
LINE
  5
1A20
  8
0
 62
     0
 10
151.861357398509
 20
229.06372571638619
 30
0.0
 11
151.861357398509
 21
229.06372571638619
 31
0.0
  0
LINE
  5
1A21
  8
0
 62
     0
 10
151.68278596993761
 20
229.06372571638619
 30
0.0
 11
151.68278596993761
 21
229.06372571638619
 31
0.0
  0
LINE
  5
1A22
  8
0
 62
     0
 10
151.5042145413662
 20
229.06372571638619
 30
0.0
 11
151.5042145413662
 21
229.06372571638619
 31
0.0
  0
LINE
  5
1A23
  8
0
 62
     0
 10
151.32564311279481
 20
229.06372571638619
 30
0.0
 11
151.32564311279481
 21
229.06372571638619
 31
0.0
  0
LINE
  5
1A24
  8
0
 62
     0
 10
161.86135739850911
 20
229.06372571638619
 30
0.0
 11
161.86135739850911
 21
229.06372571638619
 31
0.0
  0
LINE
  5
1A25
  8
0
 62
     0
 10
161.6827859699377
 20
229.06372571638619
 30
0.0
 11
161.6827859699377
 21
229.06372571638619
 31
0.0
  0
LINE
  5
1A26
  8
0
 62
     0
 10
161.5042145413662
 20
229.06372571638619
 30
0.0
 11
161.5042145413662
 21
229.06372571638619
 31
0.0
  0
LINE
  5
1A27
  8
0
 62
     0
 10
161.32564311279481
 20
229.06372571638619
 30
0.0
 11
161.32564311279481
 21
229.06372571638619
 31
0.0
  0
LINE
  5
1A28
  8
0
 62
     0
 10
150.2542145413662
 20
229.06372571638619
 30
0.0
 11
150.2542145413662
 21
229.06372571638619
 31
0.0
  0
LINE
  5
1A29
  8
0
 62
     0
 10
150.07564311279469
 20
229.06372571638619
 30
0.0
 11
150.07564311279469
 21
229.06372571638619
 31
0.0
  0
LINE
  5
1A2A
  8
0
 62
     0
 10
149.89707168422331
 20
229.06372571638619
 30
0.0
 11
149.89707168422331
 21
229.06372571638619
 31
0.0
  0
LINE
  5
1A2B
  8
0
 62
     0
 10
149.71850025565189
 20
229.06372571638619
 30
0.0
 11
149.71850025565189
 21
229.06372571638619
 31
0.0
  0
LINE
  5
1A2C
  8
0
 62
     0
 10
165.07564311279469
 20
229.06372571638619
 30
0.0
 11
165.07564311279469
 21
229.06372571638619
 31
0.0
  0
LINE
  5
1A2D
  8
0
 62
     0
 10
164.89707168422331
 20
229.06372571638619
 30
0.0
 11
164.89707168422331
 21
229.06372571638619
 31
0.0
  0
LINE
  5
1A2E
  8
0
 62
     0
 10
164.71850025565189
 20
229.06372571638619
 30
0.0
 11
164.71850025565189
 21
229.06372571638619
 31
0.0
  0
LINE
  5
1A2F
  8
0
 62
     0
 10
164.5399288270805
 20
229.06372571638619
 30
0.0
 11
164.5399288270805
 21
229.06372571638619
 31
0.0
  0
LINE
  5
1A30
  8
0
 62
     0
 10
147.0399288270805
 20
229.06372571638619
 30
0.0
 11
147.0399288270805
 21
229.06372571638619
 31
0.0
  0
LINE
  5
1A31
  8
0
 62
     0
 10
146.86135739850911
 20
229.06372571638619
 30
0.0
 11
146.86135739850911
 21
229.06372571638619
 31
0.0
  0
LINE
  5
1A32
  8
0
 62
     0
 10
146.6827859699377
 20
229.06372571638619
 30
0.0
 11
146.6827859699377
 21
229.06372571638619
 31
0.0
  0
LINE
  5
1A33
  8
0
 62
     0
 10
146.50421454136631
 20
229.06372571638619
 30
0.0
 11
146.50421454136631
 21
229.06372571638619
 31
0.0
  0
LINE
  5
1A34
  8
0
 62
     0
 10
155.1649288270805
 20
229.2422971449576
 30
0.0
 11
155.1649288270805
 21
229.2422971449576
 31
0.0
  0
LINE
  5
1A35
  8
0
 62
     0
 10
154.98635739850911
 20
229.2422971449576
 30
0.0
 11
154.98635739850911
 21
229.2422971449576
 31
0.0
  0
LINE
  5
1A36
  8
0
 62
     0
 10
154.8077859699377
 20
229.2422971449576
 30
0.0
 11
154.8077859699377
 21
229.2422971449576
 31
0.0
  0
LINE
  5
1A37
  8
0
 62
     0
 10
154.62921454136631
 20
229.2422971449576
 30
0.0
 11
154.62921454136631
 21
229.2422971449576
 31
0.0
  0
LINE
  5
1A38
  8
0
 62
     0
 10
157.12921454136631
 20
229.2422971449576
 30
0.0
 11
157.12921454136631
 21
229.2422971449576
 31
0.0
  0
LINE
  5
1A39
  8
0
 62
     0
 10
156.95064311279489
 20
229.2422971449576
 30
0.0
 11
156.95064311279489
 21
229.2422971449576
 31
0.0
  0
LINE
  5
1A3A
  8
0
 62
     0
 10
156.7720716842235
 20
229.2422971449576
 30
0.0
 11
156.7720716842235
 21
229.2422971449576
 31
0.0
  0
LINE
  5
1A3B
  8
0
 62
     0
 10
156.593500255652
 20
229.2422971449576
 30
0.0
 11
156.593500255652
 21
229.2422971449576
 31
0.0
  0
LINE
  5
1A3C
  8
0
 62
     0
 10
151.95064311279481
 20
229.2422971449576
 30
0.0
 11
151.95064311279481
 21
229.2422971449576
 31
0.0
  0
LINE
  5
1A3D
  8
0
 62
     0
 10
151.77207168422339
 20
229.2422971449576
 30
0.0
 11
151.77207168422339
 21
229.2422971449576
 31
0.0
  0
LINE
  5
1A3E
  8
0
 62
     0
 10
151.593500255652
 20
229.2422971449576
 30
0.0
 11
151.593500255652
 21
229.2422971449576
 31
0.0
  0
LINE
  5
1A3F
  8
0
 62
     0
 10
151.41492882708059
 20
229.2422971449576
 30
0.0
 11
151.41492882708059
 21
229.2422971449576
 31
0.0
  0
LINE
  5
1A40
  8
0
 62
     0
 10
161.77207168422339
 20
229.2422971449576
 30
0.0
 11
161.77207168422339
 21
229.2422971449576
 31
0.0
  0
LINE
  5
1A41
  8
0
 62
     0
 10
161.593500255652
 20
229.2422971449576
 30
0.0
 11
161.593500255652
 21
229.2422971449576
 31
0.0
  0
LINE
  5
1A42
  8
0
 62
     0
 10
161.41492882708059
 20
229.2422971449576
 30
0.0
 11
161.41492882708059
 21
229.2422971449576
 31
0.0
  0
LINE
  5
1A43
  8
0
 62
     0
 10
161.23635739850911
 20
229.2422971449576
 30
0.0
 11
161.23635739850911
 21
229.2422971449576
 31
0.0
  0
LINE
  5
1A44
  8
0
 62
     0
 10
150.34350025565189
 20
229.2422971449576
 30
0.0
 11
150.34350025565189
 21
229.2422971449576
 31
0.0
  0
LINE
  5
1A45
  8
0
 62
     0
 10
150.1649288270805
 20
229.2422971449576
 30
0.0
 11
150.1649288270805
 21
229.2422971449576
 31
0.0
  0
LINE
  5
1A46
  8
0
 62
     0
 10
149.98635739850911
 20
229.2422971449576
 30
0.0
 11
149.98635739850911
 21
229.2422971449576
 31
0.0
  0
LINE
  5
1A47
  8
0
 62
     0
 10
149.8077859699377
 20
229.2422971449576
 30
0.0
 11
149.8077859699377
 21
229.2422971449576
 31
0.0
  0
LINE
  5
1A48
  8
0
 62
     0
 10
165.1649288270805
 20
229.2422971449576
 30
0.0
 11
165.1649288270805
 21
229.2422971449576
 31
0.0
  0
LINE
  5
1A49
  8
0
 62
     0
 10
164.98635739850911
 20
229.2422971449576
 30
0.0
 11
164.98635739850911
 21
229.2422971449576
 31
0.0
  0
LINE
  5
1A4A
  8
0
 62
     0
 10
164.8077859699377
 20
229.2422971449576
 30
0.0
 11
164.8077859699377
 21
229.2422971449576
 31
0.0
  0
LINE
  5
1A4B
  8
0
 62
     0
 10
164.62921454136631
 20
229.2422971449576
 30
0.0
 11
164.62921454136631
 21
229.2422971449576
 31
0.0
  0
LINE
  5
1A4C
  8
0
 62
     0
 10
147.12921454136631
 20
229.2422971449576
 30
0.0
 11
147.12921454136631
 21
229.2422971449576
 31
0.0
  0
LINE
  5
1A4D
  8
0
 62
     0
 10
146.95064311279489
 20
229.2422971449576
 30
0.0
 11
146.95064311279489
 21
229.2422971449576
 31
0.0
  0
LINE
  5
1A4E
  8
0
 62
     0
 10
146.7720716842235
 20
229.2422971449576
 30
0.0
 11
146.7720716842235
 21
229.2422971449576
 31
0.0
  0
LINE
  5
1A4F
  8
0
 62
     0
 10
146.593500255652
 20
229.2422971449576
 30
0.0
 11
146.593500255652
 21
229.2422971449576
 31
0.0
  0
LINE
  5
1A50
  8
0
 62
     0
 10
157.03992882708059
 20
229.42086857352911
 30
0.0
 11
157.03992882708059
 21
229.42086857352911
 31
0.0
  0
LINE
  5
1A51
  8
0
 62
     0
 10
156.8613573985092
 20
229.42086857352911
 30
0.0
 11
156.8613573985092
 21
229.42086857352911
 31
0.0
  0
LINE
  5
1A52
  8
0
 62
     0
 10
156.68278596993781
 20
229.42086857352911
 30
0.0
 11
156.68278596993781
 21
229.42086857352911
 31
0.0
  0
LINE
  5
1A53
  8
0
 62
     0
 10
156.50421454136639
 20
229.42086857352911
 30
0.0
 11
156.50421454136639
 21
229.42086857352911
 31
0.0
  0
LINE
  5
1A54
  8
0
 62
     0
 10
155.07564311279481
 20
229.42086857352911
 30
0.0
 11
155.07564311279481
 21
229.42086857352911
 31
0.0
  0
LINE
  5
1A55
  8
0
 62
     0
 10
154.89707168422339
 20
229.42086857352911
 30
0.0
 11
154.89707168422339
 21
229.42086857352911
 31
0.0
  0
LINE
  5
1A56
  8
0
 62
     0
 10
154.718500255652
 20
229.42086857352911
 30
0.0
 11
154.718500255652
 21
229.42086857352911
 31
0.0
  0
LINE
  5
1A57
  8
0
 62
     0
 10
154.53992882708059
 20
229.42086857352911
 30
0.0
 11
154.53992882708059
 21
229.42086857352911
 31
0.0
  0
LINE
  5
1A58
  8
0
 62
     0
 10
160.07564311279481
 20
229.42086857352911
 30
0.0
 11
160.07564311279481
 21
229.42086857352911
 31
0.0
  0
LINE
  5
1A59
  8
0
 62
     0
 10
159.89707168422339
 20
229.42086857352911
 30
0.0
 11
159.89707168422339
 21
229.42086857352911
 31
0.0
  0
LINE
  5
1A5A
  8
0
 62
     0
 10
159.718500255652
 20
229.42086857352911
 30
0.0
 11
159.718500255652
 21
229.42086857352911
 31
0.0
  0
LINE
  5
1A5B
  8
0
 62
     0
 10
159.53992882708059
 20
229.42086857352911
 30
0.0
 11
159.53992882708059
 21
229.42086857352911
 31
0.0
  0
LINE
  5
1A5C
  8
0
 62
     0
 10
151.8613573985092
 20
229.42086857352911
 30
0.0
 11
151.8613573985092
 21
229.42086857352911
 31
0.0
  0
LINE
  5
1A5D
  8
0
 62
     0
 10
151.68278596993781
 20
229.42086857352911
 30
0.0
 11
151.68278596993781
 21
229.42086857352911
 31
0.0
  0
LINE
  5
1A5E
  8
0
 62
     0
 10
151.50421454136631
 20
229.42086857352911
 30
0.0
 11
151.50421454136631
 21
229.42086857352911
 31
0.0
  0
LINE
  5
1A5F
  8
0
 62
     0
 10
151.32564311279489
 20
229.42086857352911
 30
0.0
 11
151.32564311279489
 21
229.42086857352911
 31
0.0
  0
LINE
  5
1A60
  8
0
 62
     0
 10
161.8613573985092
 20
229.42086857352911
 30
0.0
 11
161.8613573985092
 21
229.42086857352911
 31
0.0
  0
LINE
  5
1A61
  8
0
 62
     0
 10
161.68278596993781
 20
229.42086857352911
 30
0.0
 11
161.68278596993781
 21
229.42086857352911
 31
0.0
  0
LINE
  5
1A62
  8
0
 62
     0
 10
161.50421454136631
 20
229.42086857352911
 30
0.0
 11
161.50421454136631
 21
229.42086857352911
 31
0.0
  0
LINE
  5
1A63
  8
0
 62
     0
 10
161.32564311279489
 20
229.42086857352911
 30
0.0
 11
161.32564311279489
 21
229.42086857352911
 31
0.0
  0
LINE
  5
1A64
  8
0
 62
     0
 10
150.25421454136631
 20
229.42086857352911
 30
0.0
 11
150.25421454136631
 21
229.42086857352911
 31
0.0
  0
LINE
  5
1A65
  8
0
 62
     0
 10
150.07564311279489
 20
229.42086857352911
 30
0.0
 11
150.07564311279489
 21
229.42086857352911
 31
0.0
  0
LINE
  5
1A66
  8
0
 62
     0
 10
149.8970716842235
 20
229.42086857352911
 30
0.0
 11
149.8970716842235
 21
229.42086857352911
 31
0.0
  0
LINE
  5
1A67
  8
0
 62
     0
 10
149.718500255652
 20
229.42086857352911
 30
0.0
 11
149.718500255652
 21
229.42086857352911
 31
0.0
  0
LINE
  5
1A68
  8
0
 62
     0
 10
165.07564311279481
 20
229.42086857352911
 30
0.0
 11
165.07564311279481
 21
229.42086857352911
 31
0.0
  0
LINE
  5
1A69
  8
0
 62
     0
 10
164.89707168422339
 20
229.42086857352911
 30
0.0
 11
164.89707168422339
 21
229.42086857352911
 31
0.0
  0
LINE
  5
1A6A
  8
0
 62
     0
 10
164.718500255652
 20
229.42086857352911
 30
0.0
 11
164.718500255652
 21
229.42086857352911
 31
0.0
  0
LINE
  5
1A6B
  8
0
 62
     0
 10
164.53992882708059
 20
229.42086857352911
 30
0.0
 11
164.53992882708059
 21
229.42086857352911
 31
0.0
  0
LINE
  5
1A6C
  8
0
 62
     0
 10
147.03992882708059
 20
229.42086857352911
 30
0.0
 11
147.03992882708059
 21
229.42086857352911
 31
0.0
  0
LINE
  5
1A6D
  8
0
 62
     0
 10
146.8613573985092
 20
229.42086857352911
 30
0.0
 11
146.8613573985092
 21
229.42086857352911
 31
0.0
  0
LINE
  5
1A6E
  8
0
 62
     0
 10
146.68278596993781
 20
229.42086857352911
 30
0.0
 11
146.68278596993781
 21
229.42086857352911
 31
0.0
  0
LINE
  5
1A6F
  8
0
 62
     0
 10
146.50421454136639
 20
229.42086857352911
 30
0.0
 11
146.50421454136639
 21
229.42086857352911
 31
0.0
  0
LINE
  5
1A70
  8
0
 62
     0
 10
157.12921454136631
 20
229.59944000210049
 30
0.0
 11
157.12921454136631
 21
229.59944000210049
 31
0.0
  0
LINE
  5
1A71
  8
0
 62
     0
 10
156.95064311279481
 20
229.59944000210049
 30
0.0
 11
156.95064311279481
 21
229.59944000210049
 31
0.0
  0
LINE
  5
1A72
  8
0
 62
     0
 10
156.77207168422339
 20
229.59944000210049
 30
0.0
 11
156.77207168422339
 21
229.59944000210049
 31
0.0
  0
LINE
  5
1A73
  8
0
 62
     0
 10
156.593500255652
 20
229.59944000210049
 30
0.0
 11
156.593500255652
 21
229.59944000210049
 31
0.0
  0
LINE
  5
1A74
  8
0
 62
     0
 10
156.41492882708059
 20
229.59944000210049
 30
0.0
 11
156.41492882708059
 21
229.59944000210049
 31
0.0
  0
LINE
  5
1A75
  8
0
 62
     0
 10
155.1649288270805
 20
229.59944000210049
 30
0.0
 11
155.1649288270805
 21
229.59944000210049
 31
0.0
  0
LINE
  5
1A76
  8
0
 62
     0
 10
154.98635739850911
 20
229.59944000210049
 30
0.0
 11
154.98635739850911
 21
229.59944000210049
 31
0.0
  0
LINE
  5
1A77
  8
0
 62
     0
 10
154.8077859699377
 20
229.59944000210049
 30
0.0
 11
154.8077859699377
 21
229.59944000210049
 31
0.0
  0
LINE
  5
1A78
  8
0
 62
     0
 10
154.62921454136631
 20
229.59944000210049
 30
0.0
 11
154.62921454136631
 21
229.59944000210049
 31
0.0
  0
LINE
  5
1A79
  8
0
 62
     0
 10
159.9863573985092
 20
229.59944000210049
 30
0.0
 11
159.9863573985092
 21
229.59944000210049
 31
0.0
  0
LINE
  5
1A7A
  8
0
 62
     0
 10
159.80778596993781
 20
229.59944000210049
 30
0.0
 11
159.80778596993781
 21
229.59944000210049
 31
0.0
  0
LINE
  5
1A7B
  8
0
 62
     0
 10
159.62921454136631
 20
229.59944000210049
 30
0.0
 11
159.62921454136631
 21
229.59944000210049
 31
0.0
  0
LINE
  5
1A7C
  8
0
 62
     0
 10
159.45064311279489
 20
229.59944000210049
 30
0.0
 11
159.45064311279489
 21
229.59944000210049
 31
0.0
  0
LINE
  5
1A7D
  8
0
 62
     0
 10
151.95064311279481
 20
229.59944000210049
 30
0.0
 11
151.95064311279481
 21
229.59944000210049
 31
0.0
  0
LINE
  5
1A7E
  8
0
 62
     0
 10
151.77207168422339
 20
229.59944000210049
 30
0.0
 11
151.77207168422339
 21
229.59944000210049
 31
0.0
  0
LINE
  5
1A7F
  8
0
 62
     0
 10
151.593500255652
 20
229.59944000210049
 30
0.0
 11
151.593500255652
 21
229.59944000210049
 31
0.0
  0
LINE
  5
1A80
  8
0
 62
     0
 10
151.41492882708059
 20
229.59944000210049
 30
0.0
 11
151.41492882708059
 21
229.59944000210049
 31
0.0
  0
LINE
  5
1A81
  8
0
 62
     0
 10
161.77207168422339
 20
229.59944000210049
 30
0.0
 11
161.77207168422339
 21
229.59944000210049
 31
0.0
  0
LINE
  5
1A82
  8
0
 62
     0
 10
161.593500255652
 20
229.59944000210049
 30
0.0
 11
161.593500255652
 21
229.59944000210049
 31
0.0
  0
LINE
  5
1A83
  8
0
 62
     0
 10
161.41492882708059
 20
229.59944000210049
 30
0.0
 11
161.41492882708059
 21
229.59944000210049
 31
0.0
  0
LINE
  5
1A84
  8
0
 62
     0
 10
161.23635739850911
 20
229.59944000210049
 30
0.0
 11
161.23635739850911
 21
229.59944000210049
 31
0.0
  0
LINE
  5
1A85
  8
0
 62
     0
 10
150.1649288270805
 20
229.59944000210049
 30
0.0
 11
150.1649288270805
 21
229.59944000210049
 31
0.0
  0
LINE
  5
1A86
  8
0
 62
     0
 10
149.98635739850911
 20
229.59944000210049
 30
0.0
 11
149.98635739850911
 21
229.59944000210049
 31
0.0
  0
LINE
  5
1A87
  8
0
 62
     0
 10
149.8077859699377
 20
229.59944000210049
 30
0.0
 11
149.8077859699377
 21
229.59944000210049
 31
0.0
  0
LINE
  5
1A88
  8
0
 62
     0
 10
149.62921454136631
 20
229.59944000210049
 30
0.0
 11
149.62921454136631
 21
229.59944000210049
 31
0.0
  0
LINE
  5
1A89
  8
0
 62
     0
 10
165.1649288270805
 20
229.59944000210049
 30
0.0
 11
165.1649288270805
 21
229.59944000210049
 31
0.0
  0
LINE
  5
1A8A
  8
0
 62
     0
 10
164.98635739850911
 20
229.59944000210049
 30
0.0
 11
164.98635739850911
 21
229.59944000210049
 31
0.0
  0
LINE
  5
1A8B
  8
0
 62
     0
 10
164.8077859699377
 20
229.59944000210049
 30
0.0
 11
164.8077859699377
 21
229.59944000210049
 31
0.0
  0
LINE
  5
1A8C
  8
0
 62
     0
 10
164.62921454136631
 20
229.59944000210049
 30
0.0
 11
164.62921454136631
 21
229.59944000210049
 31
0.0
  0
LINE
  5
1A8D
  8
0
 62
     0
 10
147.12921454136631
 20
229.59944000210049
 30
0.0
 11
147.12921454136631
 21
229.59944000210049
 31
0.0
  0
LINE
  5
1A8E
  8
0
 62
     0
 10
146.95064311279489
 20
229.59944000210049
 30
0.0
 11
146.95064311279489
 21
229.59944000210049
 31
0.0
  0
LINE
  5
1A8F
  8
0
 62
     0
 10
146.7720716842235
 20
229.59944000210049
 30
0.0
 11
146.7720716842235
 21
229.59944000210049
 31
0.0
  0
LINE
  5
1A90
  8
0
 62
     0
 10
146.593500255652
 20
229.59944000210049
 30
0.0
 11
146.593500255652
 21
229.59944000210049
 31
0.0
  0
LINE
  5
1A91
  8
0
 62
     0
 10
157.21850025565189
 20
229.778011430672
 30
0.0
 11
157.21850025565189
 21
229.778011430672
 31
0.0
  0
LINE
  5
1A92
  8
0
 62
     0
 10
157.0399288270805
 20
229.778011430672
 30
0.0
 11
157.0399288270805
 21
229.778011430672
 31
0.0
  0
LINE
  5
1A93
  8
0
 62
     0
 10
156.86135739850911
 20
229.778011430672
 30
0.0
 11
156.86135739850911
 21
229.778011430672
 31
0.0
  0
LINE
  5
1A94
  8
0
 62
     0
 10
156.6827859699377
 20
229.778011430672
 30
0.0
 11
156.6827859699377
 21
229.778011430672
 31
0.0
  0
LINE
  5
1A95
  8
0
 62
     0
 10
156.50421454136631
 20
229.778011430672
 30
0.0
 11
156.50421454136631
 21
229.778011430672
 31
0.0
  0
LINE
  5
1A96
  8
0
 62
     0
 10
155.07564311279481
 20
229.778011430672
 30
0.0
 11
155.07564311279481
 21
229.778011430672
 31
0.0
  0
LINE
  5
1A97
  8
0
 62
     0
 10
154.89707168422339
 20
229.778011430672
 30
0.0
 11
154.89707168422339
 21
229.778011430672
 31
0.0
  0
LINE
  5
1A98
  8
0
 62
     0
 10
154.718500255652
 20
229.778011430672
 30
0.0
 11
154.718500255652
 21
229.778011430672
 31
0.0
  0
LINE
  5
1A99
  8
0
 62
     0
 10
154.53992882708059
 20
229.778011430672
 30
0.0
 11
154.53992882708059
 21
229.778011430672
 31
0.0
  0
LINE
  5
1A9A
  8
0
 62
     0
 10
159.89707168422339
 20
229.778011430672
 30
0.0
 11
159.89707168422339
 21
229.778011430672
 31
0.0
  0
LINE
  5
1A9B
  8
0
 62
     0
 10
159.718500255652
 20
229.778011430672
 30
0.0
 11
159.718500255652
 21
229.778011430672
 31
0.0
  0
LINE
  5
1A9C
  8
0
 62
     0
 10
159.53992882708059
 20
229.778011430672
 30
0.0
 11
159.53992882708059
 21
229.778011430672
 31
0.0
  0
LINE
  5
1A9D
  8
0
 62
     0
 10
159.3613573985092
 20
229.778011430672
 30
0.0
 11
159.3613573985092
 21
229.778011430672
 31
0.0
  0
LINE
  5
1A9E
  8
0
 62
     0
 10
151.861357398509
 20
229.778011430672
 30
0.0
 11
151.861357398509
 21
229.778011430672
 31
0.0
  0
LINE
  5
1A9F
  8
0
 62
     0
 10
151.68278596993761
 20
229.778011430672
 30
0.0
 11
151.68278596993761
 21
229.778011430672
 31
0.0
  0
LINE
  5
1AA0
  8
0
 62
     0
 10
151.5042145413662
 20
229.778011430672
 30
0.0
 11
151.5042145413662
 21
229.778011430672
 31
0.0
  0
LINE
  5
1AA1
  8
0
 62
     0
 10
151.32564311279481
 20
229.778011430672
 30
0.0
 11
151.32564311279481
 21
229.778011430672
 31
0.0
  0
LINE
  5
1AA2
  8
0
 62
     0
 10
161.86135739850911
 20
229.778011430672
 30
0.0
 11
161.86135739850911
 21
229.778011430672
 31
0.0
  0
LINE
  5
1AA3
  8
0
 62
     0
 10
161.6827859699377
 20
229.778011430672
 30
0.0
 11
161.6827859699377
 21
229.778011430672
 31
0.0
  0
LINE
  5
1AA4
  8
0
 62
     0
 10
161.5042145413662
 20
229.778011430672
 30
0.0
 11
161.5042145413662
 21
229.778011430672
 31
0.0
  0
LINE
  5
1AA5
  8
0
 62
     0
 10
161.32564311279481
 20
229.778011430672
 30
0.0
 11
161.32564311279481
 21
229.778011430672
 31
0.0
  0
LINE
  5
1AA6
  8
0
 62
     0
 10
150.07564311279481
 20
229.778011430672
 30
0.0
 11
150.07564311279481
 21
229.778011430672
 31
0.0
  0
LINE
  5
1AA7
  8
0
 62
     0
 10
149.89707168422339
 20
229.778011430672
 30
0.0
 11
149.89707168422339
 21
229.778011430672
 31
0.0
  0
LINE
  5
1AA8
  8
0
 62
     0
 10
149.718500255652
 20
229.778011430672
 30
0.0
 11
149.718500255652
 21
229.778011430672
 31
0.0
  0
LINE
  5
1AA9
  8
0
 62
     0
 10
149.53992882708059
 20
229.778011430672
 30
0.0
 11
149.53992882708059
 21
229.778011430672
 31
0.0
  0
LINE
  5
1AAA
  8
0
 62
     0
 10
149.3613573985092
 20
229.778011430672
 30
0.0
 11
149.3613573985092
 21
229.778011430672
 31
0.0
  0
LINE
  5
1AAB
  8
0
 62
     0
 10
165.07564311279481
 20
229.778011430672
 30
0.0
 11
165.07564311279481
 21
229.778011430672
 31
0.0
  0
LINE
  5
1AAC
  8
0
 62
     0
 10
164.89707168422339
 20
229.778011430672
 30
0.0
 11
164.89707168422339
 21
229.778011430672
 31
0.0
  0
LINE
  5
1AAD
  8
0
 62
     0
 10
164.718500255652
 20
229.778011430672
 30
0.0
 11
164.718500255652
 21
229.778011430672
 31
0.0
  0
LINE
  5
1AAE
  8
0
 62
     0
 10
164.53992882708059
 20
229.778011430672
 30
0.0
 11
164.53992882708059
 21
229.778011430672
 31
0.0
  0
LINE
  5
1AAF
  8
0
 62
     0
 10
147.0399288270805
 20
229.778011430672
 30
0.0
 11
147.0399288270805
 21
229.778011430672
 31
0.0
  0
LINE
  5
1AB0
  8
0
 62
     0
 10
146.86135739850911
 20
229.778011430672
 30
0.0
 11
146.86135739850911
 21
229.778011430672
 31
0.0
  0
LINE
  5
1AB1
  8
0
 62
     0
 10
146.6827859699377
 20
229.778011430672
 30
0.0
 11
146.6827859699377
 21
229.778011430672
 31
0.0
  0
LINE
  5
1AB2
  8
0
 62
     0
 10
146.50421454136631
 20
229.778011430672
 30
0.0
 11
146.50421454136631
 21
229.778011430672
 31
0.0
  0
LINE
  5
1AB3
  8
0
 62
     0
 10
157.4863573985092
 20
229.95658285924341
 30
0.0
 11
157.4863573985092
 21
229.95658285924341
 31
0.0
  0
LINE
  5
1AB4
  8
0
 62
     0
 10
157.3077859699377
 20
229.95658285924341
 30
0.0
 11
157.3077859699377
 21
229.95658285924341
 31
0.0
  0
LINE
  5
1AB5
  8
0
 62
     0
 10
157.12921454136631
 20
229.95658285924341
 30
0.0
 11
157.12921454136631
 21
229.95658285924341
 31
0.0
  0
LINE
  5
1AB6
  8
0
 62
     0
 10
156.95064311279489
 20
229.95658285924341
 30
0.0
 11
156.95064311279489
 21
229.95658285924341
 31
0.0
  0
LINE
  5
1AB7
  8
0
 62
     0
 10
156.7720716842235
 20
229.95658285924341
 30
0.0
 11
156.7720716842235
 21
229.95658285924341
 31
0.0
  0
LINE
  5
1AB8
  8
0
 62
     0
 10
155.16492882708059
 20
229.95658285924341
 30
0.0
 11
155.16492882708059
 21
229.95658285924341
 31
0.0
  0
LINE
  5
1AB9
  8
0
 62
     0
 10
154.9863573985092
 20
229.95658285924341
 30
0.0
 11
154.9863573985092
 21
229.95658285924341
 31
0.0
  0
LINE
  5
1ABA
  8
0
 62
     0
 10
154.80778596993781
 20
229.95658285924341
 30
0.0
 11
154.80778596993781
 21
229.95658285924341
 31
0.0
  0
LINE
  5
1ABB
  8
0
 62
     0
 10
154.62921454136639
 20
229.95658285924341
 30
0.0
 11
154.62921454136639
 21
229.95658285924341
 31
0.0
  0
LINE
  5
1ABC
  8
0
 62
     0
 10
159.8077859699377
 20
229.95658285924341
 30
0.0
 11
159.8077859699377
 21
229.95658285924341
 31
0.0
  0
LINE
  5
1ABD
  8
0
 62
     0
 10
159.62921454136631
 20
229.95658285924341
 30
0.0
 11
159.62921454136631
 21
229.95658285924341
 31
0.0
  0
LINE
  5
1ABE
  8
0
 62
     0
 10
159.45064311279489
 20
229.95658285924341
 30
0.0
 11
159.45064311279489
 21
229.95658285924341
 31
0.0
  0
LINE
  5
1ABF
  8
0
 62
     0
 10
159.2720716842235
 20
229.95658285924341
 30
0.0
 11
159.2720716842235
 21
229.95658285924341
 31
0.0
  0
LINE
  5
1AC0
  8
0
 62
     0
 10
159.093500255652
 20
229.95658285924341
 30
0.0
 11
159.093500255652
 21
229.95658285924341
 31
0.0
  0
LINE
  5
1AC1
  8
0
 62
     0
 10
151.95064311279481
 20
229.95658285924341
 30
0.0
 11
151.95064311279481
 21
229.95658285924341
 31
0.0
  0
LINE
  5
1AC2
  8
0
 62
     0
 10
151.77207168422339
 20
229.95658285924341
 30
0.0
 11
151.77207168422339
 21
229.95658285924341
 31
0.0
  0
LINE
  5
1AC3
  8
0
 62
     0
 10
151.593500255652
 20
229.95658285924341
 30
0.0
 11
151.593500255652
 21
229.95658285924341
 31
0.0
  0
LINE
  5
1AC4
  8
0
 62
     0
 10
151.41492882708059
 20
229.95658285924341
 30
0.0
 11
151.41492882708059
 21
229.95658285924341
 31
0.0
  0
LINE
  5
1AC5
  8
0
 62
     0
 10
161.77207168422339
 20
229.95658285924341
 30
0.0
 11
161.77207168422339
 21
229.95658285924341
 31
0.0
  0
LINE
  5
1AC6
  8
0
 62
     0
 10
161.593500255652
 20
229.95658285924341
 30
0.0
 11
161.593500255652
 21
229.95658285924341
 31
0.0
  0
LINE
  5
1AC7
  8
0
 62
     0
 10
161.41492882708059
 20
229.95658285924341
 30
0.0
 11
161.41492882708059
 21
229.95658285924341
 31
0.0
  0
LINE
  5
1AC8
  8
0
 62
     0
 10
161.23635739850911
 20
229.95658285924341
 30
0.0
 11
161.23635739850911
 21
229.95658285924341
 31
0.0
  0
LINE
  5
1AC9
  8
0
 62
     0
 10
149.98635739850911
 20
229.95658285924341
 30
0.0
 11
149.98635739850911
 21
229.95658285924341
 31
0.0
  0
LINE
  5
1ACA
  8
0
 62
     0
 10
149.8077859699377
 20
229.95658285924341
 30
0.0
 11
149.8077859699377
 21
229.95658285924341
 31
0.0
  0
LINE
  5
1ACB
  8
0
 62
     0
 10
149.62921454136631
 20
229.95658285924341
 30
0.0
 11
149.62921454136631
 21
229.95658285924341
 31
0.0
  0
LINE
  5
1ACC
  8
0
 62
     0
 10
149.45064311279481
 20
229.95658285924341
 30
0.0
 11
149.45064311279481
 21
229.95658285924341
 31
0.0
  0
LINE
  5
1ACD
  8
0
 62
     0
 10
149.27207168422339
 20
229.95658285924341
 30
0.0
 11
149.27207168422339
 21
229.95658285924341
 31
0.0
  0
LINE
  5
1ACE
  8
0
 62
     0
 10
149.093500255652
 20
229.95658285924341
 30
0.0
 11
149.093500255652
 21
229.95658285924341
 31
0.0
  0
LINE
  5
1ACF
  8
0
 62
     0
 10
148.91492882708059
 20
229.95658285924341
 30
0.0
 11
148.91492882708059
 21
229.95658285924341
 31
0.0
  0
LINE
  5
1AD0
  8
0
 62
     0
 10
165.16492882708059
 20
229.95658285924341
 30
0.0
 11
165.16492882708059
 21
229.95658285924341
 31
0.0
  0
LINE
  5
1AD1
  8
0
 62
     0
 10
164.9863573985092
 20
229.95658285924341
 30
0.0
 11
164.9863573985092
 21
229.95658285924341
 31
0.0
  0
LINE
  5
1AD2
  8
0
 62
     0
 10
164.80778596993781
 20
229.95658285924341
 30
0.0
 11
164.80778596993781
 21
229.95658285924341
 31
0.0
  0
LINE
  5
1AD3
  8
0
 62
     0
 10
164.62921454136639
 20
229.95658285924341
 30
0.0
 11
164.62921454136639
 21
229.95658285924341
 31
0.0
  0
LINE
  5
1AD4
  8
0
 62
     0
 10
147.12921454136631
 20
229.95658285924341
 30
0.0
 11
147.12921454136631
 21
229.95658285924341
 31
0.0
  0
LINE
  5
1AD5
  8
0
 62
     0
 10
146.95064311279489
 20
229.95658285924341
 30
0.0
 11
146.95064311279489
 21
229.95658285924341
 31
0.0
  0
LINE
  5
1AD6
  8
0
 62
     0
 10
146.7720716842235
 20
229.95658285924341
 30
0.0
 11
146.7720716842235
 21
229.95658285924341
 31
0.0
  0
LINE
  5
1AD7
  8
0
 62
     0
 10
146.593500255652
 20
229.95658285924341
 30
0.0
 11
146.593500255652
 21
229.95658285924341
 31
0.0
  0
LINE
  5
1AD8
  8
0
 62
     0
 10
159.53992882708039
 20
230.1351542878148
 30
0.0
 11
159.53992882708039
 21
230.1351542878148
 31
0.0
  0
LINE
  5
1AD9
  8
0
 62
     0
 10
159.361357398509
 20
230.1351542878148
 30
0.0
 11
159.361357398509
 21
230.1351542878148
 31
0.0
  0
LINE
  5
1ADA
  8
0
 62
     0
 10
159.18278596993761
 20
230.1351542878148
 30
0.0
 11
159.18278596993761
 21
230.1351542878148
 31
0.0
  0
LINE
  5
1ADB
  8
0
 62
     0
 10
159.00421454136611
 20
230.1351542878148
 30
0.0
 11
159.00421454136611
 21
230.1351542878148
 31
0.0
  0
LINE
  5
1ADC
  8
0
 62
     0
 10
158.82564311279469
 20
230.1351542878148
 30
0.0
 11
158.82564311279469
 21
230.1351542878148
 31
0.0
  0
LINE
  5
1ADD
  8
0
 62
     0
 10
158.64707168422331
 20
230.1351542878148
 30
0.0
 11
158.64707168422331
 21
230.1351542878148
 31
0.0
  0
LINE
  5
1ADE
  8
0
 62
     0
 10
158.46850025565189
 20
230.1351542878148
 30
0.0
 11
158.46850025565189
 21
230.1351542878148
 31
0.0
  0
LINE
  5
1ADF
  8
0
 62
     0
 10
158.2899288270805
 20
230.1351542878148
 30
0.0
 11
158.2899288270805
 21
230.1351542878148
 31
0.0
  0
LINE
  5
1AE0
  8
0
 62
     0
 10
158.111357398509
 20
230.1351542878148
 30
0.0
 11
158.111357398509
 21
230.1351542878148
 31
0.0
  0
LINE
  5
1AE1
  8
0
 62
     0
 10
157.93278596993761
 20
230.1351542878148
 30
0.0
 11
157.93278596993761
 21
230.1351542878148
 31
0.0
  0
LINE
  5
1AE2
  8
0
 62
     0
 10
157.7542145413662
 20
230.1351542878148
 30
0.0
 11
157.7542145413662
 21
230.1351542878148
 31
0.0
  0
LINE
  5
1AE3
  8
0
 62
     0
 10
157.57564311279481
 20
230.1351542878148
 30
0.0
 11
157.57564311279481
 21
230.1351542878148
 31
0.0
  0
LINE
  5
1AE4
  8
0
 62
     0
 10
157.39707168422339
 20
230.1351542878148
 30
0.0
 11
157.39707168422339
 21
230.1351542878148
 31
0.0
  0
LINE
  5
1AE5
  8
0
 62
     0
 10
157.218500255652
 20
230.1351542878148
 30
0.0
 11
157.218500255652
 21
230.1351542878148
 31
0.0
  0
LINE
  5
1AE6
  8
0
 62
     0
 10
157.03992882708059
 20
230.1351542878148
 30
0.0
 11
157.03992882708059
 21
230.1351542878148
 31
0.0
  0
LINE
  5
1AE7
  8
0
 62
     0
 10
156.86135739850911
 20
230.1351542878148
 30
0.0
 11
156.86135739850911
 21
230.1351542878148
 31
0.0
  0
LINE
  5
1AE8
  8
0
 62
     0
 10
155.07564311279481
 20
230.1351542878148
 30
0.0
 11
155.07564311279481
 21
230.1351542878148
 31
0.0
  0
LINE
  5
1AE9
  8
0
 62
     0
 10
154.89707168422339
 20
230.1351542878148
 30
0.0
 11
154.89707168422339
 21
230.1351542878148
 31
0.0
  0
LINE
  5
1AEA
  8
0
 62
     0
 10
154.718500255652
 20
230.1351542878148
 30
0.0
 11
154.718500255652
 21
230.1351542878148
 31
0.0
  0
LINE
  5
1AEB
  8
0
 62
     0
 10
154.53992882708059
 20
230.1351542878148
 30
0.0
 11
154.53992882708059
 21
230.1351542878148
 31
0.0
  0
LINE
  5
1AEC
  8
0
 62
     0
 10
161.86135739850911
 20
230.1351542878148
 30
0.0
 11
161.86135739850911
 21
230.1351542878148
 31
0.0
  0
LINE
  5
1AED
  8
0
 62
     0
 10
161.6827859699377
 20
230.1351542878148
 30
0.0
 11
161.6827859699377
 21
230.1351542878148
 31
0.0
  0
LINE
  5
1AEE
  8
0
 62
     0
 10
161.5042145413662
 20
230.1351542878148
 30
0.0
 11
161.5042145413662
 21
230.1351542878148
 31
0.0
  0
LINE
  5
1AEF
  8
0
 62
     0
 10
161.32564311279481
 20
230.1351542878148
 30
0.0
 11
161.32564311279481
 21
230.1351542878148
 31
0.0
  0
LINE
  5
1AF0
  8
0
 62
     0
 10
151.861357398509
 20
230.1351542878148
 30
0.0
 11
151.861357398509
 21
230.1351542878148
 31
0.0
  0
LINE
  5
1AF1
  8
0
 62
     0
 10
151.68278596993761
 20
230.1351542878148
 30
0.0
 11
151.68278596993761
 21
230.1351542878148
 31
0.0
  0
LINE
  5
1AF2
  8
0
 62
     0
 10
151.5042145413662
 20
230.1351542878148
 30
0.0
 11
151.5042145413662
 21
230.1351542878148
 31
0.0
  0
LINE
  5
1AF3
  8
0
 62
     0
 10
151.32564311279481
 20
230.1351542878148
 30
0.0
 11
151.32564311279481
 21
230.1351542878148
 31
0.0
  0
LINE
  5
1AF4
  8
0
 62
     0
 10
165.07564311279481
 20
230.1351542878148
 30
0.0
 11
165.07564311279481
 21
230.1351542878148
 31
0.0
  0
LINE
  5
1AF5
  8
0
 62
     0
 10
164.89707168422339
 20
230.1351542878148
 30
0.0
 11
164.89707168422339
 21
230.1351542878148
 31
0.0
  0
LINE
  5
1AF6
  8
0
 62
     0
 10
164.718500255652
 20
230.1351542878148
 30
0.0
 11
164.718500255652
 21
230.1351542878148
 31
0.0
  0
LINE
  5
1AF7
  8
0
 62
     0
 10
164.53992882708059
 20
230.1351542878148
 30
0.0
 11
164.53992882708059
 21
230.1351542878148
 31
0.0
  0
LINE
  5
1AF8
  8
0
 62
     0
 10
149.7185002556518
 20
230.1351542878148
 30
0.0
 11
149.7185002556518
 21
230.1351542878148
 31
0.0
  0
LINE
  5
1AF9
  8
0
 62
     0
 10
149.5399288270803
 20
230.1351542878148
 30
0.0
 11
149.5399288270803
 21
230.1351542878148
 31
0.0
  0
LINE
  5
1AFA
  8
0
 62
     0
 10
149.36135739850889
 20
230.1351542878148
 30
0.0
 11
149.36135739850889
 21
230.1351542878148
 31
0.0
  0
LINE
  5
1AFB
  8
0
 62
     0
 10
149.1827859699375
 20
230.1351542878148
 30
0.0
 11
149.1827859699375
 21
230.1351542878148
 31
0.0
  0
LINE
  5
1AFC
  8
0
 62
     0
 10
149.00421454136611
 20
230.1351542878148
 30
0.0
 11
149.00421454136611
 21
230.1351542878148
 31
0.0
  0
LINE
  5
1AFD
  8
0
 62
     0
 10
148.82564311279469
 20
230.1351542878148
 30
0.0
 11
148.82564311279469
 21
230.1351542878148
 31
0.0
  0
LINE
  5
1AFE
  8
0
 62
     0
 10
148.64707168422331
 20
230.1351542878148
 30
0.0
 11
148.64707168422331
 21
230.1351542878148
 31
0.0
  0
LINE
  5
1AFF
  8
0
 62
     0
 10
148.4685002556518
 20
230.1351542878148
 30
0.0
 11
148.4685002556518
 21
230.1351542878148
 31
0.0
  0
LINE
  5
1B00
  8
0
 62
     0
 10
148.28992882708039
 20
230.1351542878148
 30
0.0
 11
148.28992882708039
 21
230.1351542878148
 31
0.0
  0
LINE
  5
1B01
  8
0
 62
     0
 10
148.111357398509
 20
230.1351542878148
 30
0.0
 11
148.111357398509
 21
230.1351542878148
 31
0.0
  0
LINE
  5
1B02
  8
0
 62
     0
 10
147.93278596993761
 20
230.1351542878148
 30
0.0
 11
147.93278596993761
 21
230.1351542878148
 31
0.0
  0
LINE
  5
1B03
  8
0
 62
     0
 10
147.7542145413662
 20
230.1351542878148
 30
0.0
 11
147.7542145413662
 21
230.1351542878148
 31
0.0
  0
LINE
  5
1B04
  8
0
 62
     0
 10
147.57564311279481
 20
230.1351542878148
 30
0.0
 11
147.57564311279481
 21
230.1351542878148
 31
0.0
  0
LINE
  5
1B05
  8
0
 62
     0
 10
147.39707168422331
 20
230.1351542878148
 30
0.0
 11
147.39707168422331
 21
230.1351542878148
 31
0.0
  0
LINE
  5
1B06
  8
0
 62
     0
 10
147.21850025565189
 20
230.1351542878148
 30
0.0
 11
147.21850025565189
 21
230.1351542878148
 31
0.0
  0
LINE
  5
1B07
  8
0
 62
     0
 10
147.0399288270805
 20
230.1351542878148
 30
0.0
 11
147.0399288270805
 21
230.1351542878148
 31
0.0
  0
LINE
  5
1B08
  8
0
 62
     0
 10
146.86135739850911
 20
230.1351542878148
 30
0.0
 11
146.86135739850911
 21
230.1351542878148
 31
0.0
  0
LINE
  5
1B09
  8
0
 62
     0
 10
146.6827859699377
 20
230.1351542878148
 30
0.0
 11
146.6827859699377
 21
230.1351542878148
 31
0.0
  0
LINE
  5
1B0A
  8
0
 62
     0
 10
146.50421454136631
 20
230.1351542878148
 30
0.0
 11
146.50421454136631
 21
230.1351542878148
 31
0.0
  0
LINE
  5
1B0B
  8
0
 62
     0
 10
159.27207168422331
 20
230.31372571638619
 30
0.0
 11
159.27207168422331
 21
230.31372571638619
 31
0.0
  0
LINE
  5
1B0C
  8
0
 62
     0
 10
159.09350025565189
 20
230.31372571638619
 30
0.0
 11
159.09350025565189
 21
230.31372571638619
 31
0.0
  0
LINE
  5
1B0D
  8
0
 62
     0
 10
158.91492882708039
 20
230.31372571638619
 30
0.0
 11
158.91492882708039
 21
230.31372571638619
 31
0.0
  0
LINE
  5
1B0E
  8
0
 62
     0
 10
158.736357398509
 20
230.31372571638619
 30
0.0
 11
158.736357398509
 21
230.31372571638619
 31
0.0
  0
LINE
  5
1B0F
  8
0
 62
     0
 10
158.55778596993761
 20
230.31372571638619
 30
0.0
 11
158.55778596993761
 21
230.31372571638619
 31
0.0
  0
LINE
  5
1B10
  8
0
 62
     0
 10
158.3792145413662
 20
230.31372571638619
 30
0.0
 11
158.3792145413662
 21
230.31372571638619
 31
0.0
  0
LINE
  5
1B11
  8
0
 62
     0
 10
158.20064311279481
 20
230.31372571638619
 30
0.0
 11
158.20064311279481
 21
230.31372571638619
 31
0.0
  0
LINE
  5
1B12
  8
0
 62
     0
 10
158.02207168422339
 20
230.31372571638619
 30
0.0
 11
158.02207168422339
 21
230.31372571638619
 31
0.0
  0
LINE
  5
1B13
  8
0
 62
     0
 10
157.84350025565189
 20
230.31372571638619
 30
0.0
 11
157.84350025565189
 21
230.31372571638619
 31
0.0
  0
LINE
  5
1B14
  8
0
 62
     0
 10
157.6649288270805
 20
230.31372571638619
 30
0.0
 11
157.6649288270805
 21
230.31372571638619
 31
0.0
  0
LINE
  5
1B15
  8
0
 62
     0
 10
157.48635739850911
 20
230.31372571638619
 30
0.0
 11
157.48635739850911
 21
230.31372571638619
 31
0.0
  0
LINE
  5
1B16
  8
0
 62
     0
 10
157.3077859699377
 20
230.31372571638619
 30
0.0
 11
157.3077859699377
 21
230.31372571638619
 31
0.0
  0
LINE
  5
1B17
  8
0
 62
     0
 10
155.1649288270805
 20
230.31372571638619
 30
0.0
 11
155.1649288270805
 21
230.31372571638619
 31
0.0
  0
LINE
  5
1B18
  8
0
 62
     0
 10
154.98635739850911
 20
230.31372571638619
 30
0.0
 11
154.98635739850911
 21
230.31372571638619
 31
0.0
  0
LINE
  5
1B19
  8
0
 62
     0
 10
154.8077859699377
 20
230.31372571638619
 30
0.0
 11
154.8077859699377
 21
230.31372571638619
 31
0.0
  0
LINE
  5
1B1A
  8
0
 62
     0
 10
154.62921454136631
 20
230.31372571638619
 30
0.0
 11
154.62921454136631
 21
230.31372571638619
 31
0.0
  0
LINE
  5
1B1B
  8
0
 62
     0
 10
161.77207168422331
 20
230.31372571638619
 30
0.0
 11
161.77207168422331
 21
230.31372571638619
 31
0.0
  0
LINE
  5
1B1C
  8
0
 62
     0
 10
161.59350025565189
 20
230.31372571638619
 30
0.0
 11
161.59350025565189
 21
230.31372571638619
 31
0.0
  0
LINE
  5
1B1D
  8
0
 62
     0
 10
161.4149288270805
 20
230.31372571638619
 30
0.0
 11
161.4149288270805
 21
230.31372571638619
 31
0.0
  0
LINE
  5
1B1E
  8
0
 62
     0
 10
161.236357398509
 20
230.31372571638619
 30
0.0
 11
161.236357398509
 21
230.31372571638619
 31
0.0
  0
LINE
  5
1B1F
  8
0
 62
     0
 10
151.95064311279469
 20
230.31372571638619
 30
0.0
 11
151.95064311279469
 21
230.31372571638619
 31
0.0
  0
LINE
  5
1B20
  8
0
 62
     0
 10
151.77207168422331
 20
230.31372571638619
 30
0.0
 11
151.77207168422331
 21
230.31372571638619
 31
0.0
  0
LINE
  5
1B21
  8
0
 62
     0
 10
151.59350025565189
 20
230.31372571638619
 30
0.0
 11
151.59350025565189
 21
230.31372571638619
 31
0.0
  0
LINE
  5
1B22
  8
0
 62
     0
 10
151.4149288270805
 20
230.31372571638619
 30
0.0
 11
151.4149288270805
 21
230.31372571638619
 31
0.0
  0
LINE
  5
1B23
  8
0
 62
     0
 10
165.1649288270805
 20
230.31372571638619
 30
0.0
 11
165.1649288270805
 21
230.31372571638619
 31
0.0
  0
LINE
  5
1B24
  8
0
 62
     0
 10
164.98635739850911
 20
230.31372571638619
 30
0.0
 11
164.98635739850911
 21
230.31372571638619
 31
0.0
  0
LINE
  5
1B25
  8
0
 62
     0
 10
164.8077859699377
 20
230.31372571638619
 30
0.0
 11
164.8077859699377
 21
230.31372571638619
 31
0.0
  0
LINE
  5
1B26
  8
0
 62
     0
 10
164.62921454136631
 20
230.31372571638619
 30
0.0
 11
164.62921454136631
 21
230.31372571638619
 31
0.0
  0
LINE
  5
1B27
  8
0
 62
     0
 10
149.45064311279461
 20
230.31372571638619
 30
0.0
 11
149.45064311279461
 21
230.31372571638619
 31
0.0
  0
LINE
  5
1B28
  8
0
 62
     0
 10
149.27207168422319
 20
230.31372571638619
 30
0.0
 11
149.27207168422319
 21
230.31372571638619
 31
0.0
  0
LINE
  5
1B29
  8
0
 62
     0
 10
149.0935002556518
 20
230.31372571638619
 30
0.0
 11
149.0935002556518
 21
230.31372571638619
 31
0.0
  0
LINE
  5
1B2A
  8
0
 62
     0
 10
148.9149288270803
 20
230.31372571638619
 30
0.0
 11
148.9149288270803
 21
230.31372571638619
 31
0.0
  0
LINE
  5
1B2B
  8
0
 62
     0
 10
148.73635739850889
 20
230.31372571638619
 30
0.0
 11
148.73635739850889
 21
230.31372571638619
 31
0.0
  0
LINE
  5
1B2C
  8
0
 62
     0
 10
148.5577859699375
 20
230.31372571638619
 30
0.0
 11
148.5577859699375
 21
230.31372571638619
 31
0.0
  0
LINE
  5
1B2D
  8
0
 62
     0
 10
148.37921454136611
 20
230.31372571638619
 30
0.0
 11
148.37921454136611
 21
230.31372571638619
 31
0.0
  0
LINE
  5
1B2E
  8
0
 62
     0
 10
148.20064311279469
 20
230.31372571638619
 30
0.0
 11
148.20064311279469
 21
230.31372571638619
 31
0.0
  0
LINE
  5
1B2F
  8
0
 62
     0
 10
148.02207168422319
 20
230.31372571638619
 30
0.0
 11
148.02207168422319
 21
230.31372571638619
 31
0.0
  0
LINE
  5
1B30
  8
0
 62
     0
 10
147.8435002556518
 20
230.31372571638619
 30
0.0
 11
147.8435002556518
 21
230.31372571638619
 31
0.0
  0
LINE
  5
1B31
  8
0
 62
     0
 10
147.66492882708039
 20
230.31372571638619
 30
0.0
 11
147.66492882708039
 21
230.31372571638619
 31
0.0
  0
LINE
  5
1B32
  8
0
 62
     0
 10
147.486357398509
 20
230.31372571638619
 30
0.0
 11
147.486357398509
 21
230.31372571638619
 31
0.0
  0
LINE
  5
1B33
  8
0
 62
     0
 10
147.30778596993761
 20
230.31372571638619
 30
0.0
 11
147.30778596993761
 21
230.31372571638619
 31
0.0
  0
LINE
  5
1B34
  8
0
 62
     0
 10
147.1292145413662
 20
230.31372571638619
 30
0.0
 11
147.1292145413662
 21
230.31372571638619
 31
0.0
  0
LINE
  5
1B35
  8
0
 62
     0
 10
146.95064311279469
 20
230.31372571638619
 30
0.0
 11
146.95064311279469
 21
230.31372571638619
 31
0.0
  0
LINE
  5
1B36
  8
0
 62
     0
 10
146.77207168422331
 20
230.31372571638619
 30
0.0
 11
146.77207168422331
 21
230.31372571638619
 31
0.0
  0
LINE
  5
1B37
  8
0
 62
     0
 10
146.59350025565189
 20
230.31372571638619
 30
0.0
 11
146.59350025565189
 21
230.31372571638619
 31
0.0
  0
LINE
  5
1B38
  8
0
 62
     0
 10
158.468500255652
 20
230.49229714495769
 30
0.0
 11
158.468500255652
 21
230.49229714495769
 31
0.0
  0
LINE
  5
1B39
  8
0
 62
     0
 10
158.28992882708059
 20
230.49229714495769
 30
0.0
 11
158.28992882708059
 21
230.49229714495769
 31
0.0
  0
LINE
  5
1B3A
  8
0
 62
     0
 10
158.11135739850911
 20
230.49229714495769
 30
0.0
 11
158.11135739850911
 21
230.49229714495769
 31
0.0
  0
LINE
  5
1B3B
  8
0
 62
     0
 10
155.07564311279481
 20
230.49229714495769
 30
0.0
 11
155.07564311279481
 21
230.49229714495769
 31
0.0
  0
LINE
  5
1B3C
  8
0
 62
     0
 10
154.89707168422339
 20
230.49229714495769
 30
0.0
 11
154.89707168422339
 21
230.49229714495769
 31
0.0
  0
LINE
  5
1B3D
  8
0
 62
     0
 10
154.718500255652
 20
230.49229714495769
 30
0.0
 11
154.718500255652
 21
230.49229714495769
 31
0.0
  0
LINE
  5
1B3E
  8
0
 62
     0
 10
154.53992882708059
 20
230.49229714495769
 30
0.0
 11
154.53992882708059
 21
230.49229714495769
 31
0.0
  0
LINE
  5
1B3F
  8
0
 62
     0
 10
161.86135739850911
 20
230.49229714495769
 30
0.0
 11
161.86135739850911
 21
230.49229714495769
 31
0.0
  0
LINE
  5
1B40
  8
0
 62
     0
 10
161.6827859699377
 20
230.49229714495769
 30
0.0
 11
161.6827859699377
 21
230.49229714495769
 31
0.0
  0
LINE
  5
1B41
  8
0
 62
     0
 10
161.5042145413662
 20
230.49229714495769
 30
0.0
 11
161.5042145413662
 21
230.49229714495769
 31
0.0
  0
LINE
  5
1B42
  8
0
 62
     0
 10
161.32564311279481
 20
230.49229714495769
 30
0.0
 11
161.32564311279481
 21
230.49229714495769
 31
0.0
  0
LINE
  5
1B43
  8
0
 62
     0
 10
151.861357398509
 20
230.49229714495769
 30
0.0
 11
151.861357398509
 21
230.49229714495769
 31
0.0
  0
LINE
  5
1B44
  8
0
 62
     0
 10
151.68278596993761
 20
230.49229714495769
 30
0.0
 11
151.68278596993761
 21
230.49229714495769
 31
0.0
  0
LINE
  5
1B45
  8
0
 62
     0
 10
151.5042145413662
 20
230.49229714495769
 30
0.0
 11
151.5042145413662
 21
230.49229714495769
 31
0.0
  0
LINE
  5
1B46
  8
0
 62
     0
 10
151.32564311279481
 20
230.49229714495769
 30
0.0
 11
151.32564311279481
 21
230.49229714495769
 31
0.0
  0
LINE
  5
1B47
  8
0
 62
     0
 10
165.07564311279481
 20
230.49229714495769
 30
0.0
 11
165.07564311279481
 21
230.49229714495769
 31
0.0
  0
LINE
  5
1B48
  8
0
 62
     0
 10
164.89707168422339
 20
230.49229714495769
 30
0.0
 11
164.89707168422339
 21
230.49229714495769
 31
0.0
  0
LINE
  5
1B49
  8
0
 62
     0
 10
164.718500255652
 20
230.49229714495769
 30
0.0
 11
164.718500255652
 21
230.49229714495769
 31
0.0
  0
LINE
  5
1B4A
  8
0
 62
     0
 10
164.53992882708059
 20
230.49229714495769
 30
0.0
 11
164.53992882708059
 21
230.49229714495769
 31
0.0
  0
LINE
  5
1B4B
  8
0
 62
     0
 10
148.64707168422331
 20
230.49229714495769
 30
0.0
 11
148.64707168422331
 21
230.49229714495769
 31
0.0
  0
LINE
  5
1B4C
  8
0
 62
     0
 10
148.4685002556518
 20
230.49229714495769
 30
0.0
 11
148.4685002556518
 21
230.49229714495769
 31
0.0
  0
LINE
  5
1B4D
  8
0
 62
     0
 10
148.28992882708039
 20
230.49229714495769
 30
0.0
 11
148.28992882708039
 21
230.49229714495769
 31
0.0
  0
LINE
  5
1B4E
  8
0
 62
     0
 10
148.111357398509
 20
230.49229714495769
 30
0.0
 11
148.111357398509
 21
230.49229714495769
 31
0.0
  0
LINE
  5
1B4F
  8
0
 62
     0
 10
147.93278596993761
 20
230.49229714495769
 30
0.0
 11
147.93278596993761
 21
230.49229714495769
 31
0.0
  0
LINE
  5
1B50
  8
0
 62
     0
 10
147.7542145413662
 20
230.49229714495769
 30
0.0
 11
147.7542145413662
 21
230.49229714495769
 31
0.0
  0
LINE
  5
1B51
  8
0
 62
     0
 10
147.57564311279481
 20
230.49229714495769
 30
0.0
 11
147.57564311279481
 21
230.49229714495769
 31
0.0
  0
LINE
  5
1B52
  8
0
 62
     0
 10
147.39707168422331
 20
230.49229714495769
 30
0.0
 11
147.39707168422331
 21
230.49229714495769
 31
0.0
  0
LINE
  5
1B53
  8
0
 62
     0
 10
147.21850025565189
 20
230.49229714495769
 30
0.0
 11
147.21850025565189
 21
230.49229714495769
 31
0.0
  0
LINE
  5
1B54
  8
0
 62
     0
 10
147.0399288270805
 20
230.49229714495769
 30
0.0
 11
147.0399288270805
 21
230.49229714495769
 31
0.0
  0
LINE
  5
1B55
  8
0
 62
     0
 10
146.86135739850911
 20
230.49229714495769
 30
0.0
 11
146.86135739850911
 21
230.49229714495769
 31
0.0
  0
LINE
  5
1B56
  8
0
 62
     0
 10
146.6827859699377
 20
230.49229714495769
 30
0.0
 11
146.6827859699377
 21
230.49229714495769
 31
0.0
  0
LINE
  5
1B57
  8
0
 62
     0
 10
146.50421454136631
 20
230.49229714495769
 30
0.0
 11
146.50421454136631
 21
230.49229714495769
 31
0.0
  0
ENDBLK
  5
1B59
  8
0
  0
ENDSEC
  0
SECTION
  2
ENTITIES
  0
LINE
  5
1394
  8
1
 10
114.202179899783
 20
167.191087727054
 30
0.0
 11
114.202179899783
 21
119.691087727054
 31
0.0
  0
LINE
  5
1395
  8
0
 10
121.702179899783
 20
125.296087727054
 30
0.0
 11
121.702179899783
 21
136.691087727054
 31
0.0
  0
LINE
  5
1396
  8
0
 10
106.702179899783
 20
136.691087727054
 30
0.0
 11
106.702179899783
 21
125.296087727054
 31
0.0
  0
LINE
  5
1397
  8
0
 10
120.202179899783
 20
124.691087727054
 30
0.0
 11
120.202179899783
 21
124.891087727054
 31
0.0
  0
LINE
  5
1398
  8
0
 10
108.202179899783
 20
124.891087727054
 30
0.0
 11
108.202179899783
 21
124.691087727054
 31
0.0
  0
LINE
  5
1399
  8
0
 10
123.702179899783
 20
137.191087727054
 30
0.0
 11
123.702179899783
 21
142.24108772705401
 31
0.0
  0
LINE
  5
139A
  8
0
 10
104.702179899783
 20
159.691087727054
 30
0.0
 11
104.702179899783
 21
137.191087727054
 31
0.0
  0
ARC
  5
139B
  8
0
 10
138.35920601681659
 20
138.91431385638151
 30
0.0
 40
15.029831635184539
 50
120.1008090427631
 51
167.21197287030611
  0
ARC
  5
139C
  8
0
 10
191.98469363831569
 20
61.571695426632743
 30
0.0
 40
109.1021285714247
 50
106.6653897071391
 51
124.0977077126563
  0
LINE
  5
139D
  8
0
 10
121.297179899783
 20
124.891087727054
 30
0.0
 11
121.702179899783
 21
125.296087727054
 31
0.0
  0
LINE
  5
139E
  8
0
 10
106.702179899783
 20
125.296087727054
 30
0.0
 11
107.10717989978301
 21
124.891087727054
 31
0.0
  0
LINE
  5
139F
  8
0
 10
108.202179899783
 20
124.691087727054
 30
0.0
 11
120.202179899783
 21
124.691087727054
 31
0.0
  0
LINE
  5
13A0
  8
0
 10
105.202179899783
 20
136.691087727054
 30
0.0
 11
123.2021798997832
 21
136.691087727054
 31
0.0
  0
LINE
  5
13A1
  8
0
 10
106.7021798997831
 20
161.691087727054
 30
0.0
 11
119.452179899783
 21
161.691087727054
 31
0.0
  0
POLYLINE
  5
13A2
  8
0
 66
     1
 10
0.0
 20
0.0
 30
0.0
  0
VERTEX
  5
16A8
  8
0
 10
119.452179899783
 20
161.691087727054
 30
0.0
  0
VERTEX
  5
16A9
  8
0
 10
119.54284599013791
 20
161.6974984679687
 30
0.0
  0
VERTEX
  5
16AA
  8
0
 10
119.721084787416
 20
161.71244654730049
 30
0.0
  0
VERTEX
  5
16AB
  8
0
 10
119.89497756062531
 20
161.73003758273001
 30
0.0
  0
VERTEX
  5
16AC
  8
0
 10
119.9802143342912
 20
161.73974954753589
 30
0.0
  0
VERTEX
  5
16AD
  8
0
 10
120.06447015124709
 20
161.7500567364095
 30
0.0
  0
VERTEX
  5
16AE
  8
0
 10
120.23136505552149
 20
161.77255696083199
 30
0.0
  0
VERTEX
  5
16AF
  8
0
 10
120.3960931904296
 20
161.7974957710457
 30
0.0
  0
VERTEX
  5
16B0
  8
0
 10
120.5585841715362
 20
161.82477329960679
 30
0.0
  0
VERTEX
  5
16B1
  8
0
 10
120.7187682391714
 20
161.8542873251628
 30
0.0
  0
VERTEX
  5
16B2
  8
0
 10
120.8765765796151
 20
161.88593328340971
 30
0.0
  0
VERTEX
  5
16B3
  8
0
 10
120.95456867620329
 20
161.9025224289548
 30
0.0
  0
VERTEX
  5
16B4
  8
0
 10
121.0319416048426
 20
161.9196043041396
 30
0.0
  0
VERTEX
  5
16B5
  8
0
 10
121.1847971910377
 20
161.95519126971789
 30
0.0
  0
VERTEX
  5
16B6
  8
0
 10
121.3350788768355
 20
161.9925828907333
 30
0.0
  0
VERTEX
  5
16B7
  8
0
 10
121.4827240228246
 20
162.03166579500811
 30
0.0
  0
VERTEX
  5
16B8
  8
0
 10
121.6276719342503
 20
162.0723246266148
 30
0.0
  0
VERTEX
  5
16B9
  8
0
 10
121.76986394913069
 20
162.1144421519983
 30
0.0
  0
VERTEX
  5
16BA
  8
0
 10
121.83990873370971
 20
162.13601080315721
 30
0.0
  0
VERTEX
  5
16BB
  8
0
 10
121.9092434941486
 20
162.1578993707559
 30
0.0
  0
VERTEX
  5
16BC
  8
0
 10
122.0457561736761
 20
162.2025756501256
 30
0.0
  0
VERTEX
  5
16BD
  8
0
 10
122.17934893350861
 20
162.2483485517123
 30
0.0
  0
VERTEX
  5
16BE
  8
0
 10
122.24503387085571
 20
162.27160740283111
 30
0.0
  0
SEQEND
  5
16BF
  8
0
  0
LINE
  5
13A3
  8
0
 10
177.202179899783
 20
166.73108772705399
 30
0.0
 11
177.202179899783
 21
170.691087727054
 31
0.0
  0
POLYLINE
  5
13A4
  8
0
 66
     1
 10
0.0
 20
0.0
 30
0.0
  0
VERTEX
  5
16C0
  8
0
 10
177.202179899783
 20
166.73108772705399
 30
0.0
  0
VERTEX
  5
16C1
  8
0
 10
177.19888378480479
 20
166.54884071169451
 30
0.0
  0
VERTEX
  5
16C2
  8
0
 10
177.1716908012589
 20
166.17755315000031
 30
0.0
  0
VERTEX
  5
16C3
  8
0
 10
177.11548669623301
 20
165.8003075273059
 30
0.0
  0
VERTEX
  5
16C4
  8
0
 10
177.0760503463504
 20
165.61060692206411
 30
0.0
  0
VERTEX
  5
16C5
  8
0
 10
177.0288766842358
 20
165.42079676387161
 30
0.0
  0
VERTEX
  5
16C6
  8
0
 10
176.91095336760711
 20
165.04267114596701
 30
0.0
  0
VERTEX
  5
16C7
  8
0
 10
176.76127409760821
 20
164.66955127102631
 30
0.0
  0
VERTEX
  5
16C8
  8
0
 10
176.57976715295871
 20
164.3048719780781
 30
0.0
  0
VERTEX
  5
16C9
  8
0
 10
176.36676262401201
 20
163.95204398592369
 30
0.0
  0
VERTEX
  5
16CA
  8
0
 10
176.12301353529281
 20
163.6144554241003
 30
0.0
  0
VERTEX
  5
16CB
  8
0
 10
175.98994521158869
 20
163.45239702530461
 30
0.0
  0
VERTEX
  5
16CC
  8
0
 10
175.96705860145559
 20
163.4258648804734
 30
0.0
  0
VERTEX
  5
16CD
  8
0
 10
175.9206858902661
 20
163.3732263958637
 30
0.0
  0
VERTEX
  5
16CE
  8
0
 10
175.87352002953031
 20
163.3211677219326
 30
0.0
  0
VERTEX
  5
16CF
  8
0
 10
175.8496420548268
 20
163.2953603142461
 30
0.0
  0
VERTEX
  5
16D0
  8
0
 10
175.82556869478231
 20
163.2697032444122
 30
0.0
  0
VERTEX
  5
16D1
  8
0
 10
175.77683986269329
 20
163.2188472238233
 30
0.0
  0
VERTEX
  5
16D2
  8
0
 10
175.72734180222881
 20
163.1686137819774
 30
0.0
  0
VERTEX
  5
16D3
  8
0
 10
175.67708306439289
 20
163.11901688840541
 30
0.0
  0
VERTEX
  5
16D4
  8
0
 10
175.62607247044431
 20
163.07007034674601
 30
0.0
  0
VERTEX
  5
16D5
  8
0
 10
175.5743190984663
 20
163.0217877811331
 30
0.0
  0
VERTEX
  5
16D6
  8
0
 10
175.5481667741397
 20
162.99789969446249
 30
0.0
  0
VERTEX
  5
16D7
  8
0
 10
175.52183226816371
 20
162.97418262263179
 30
0.0
  0
VERTEX
  5
16D8
  8
0
 10
175.46861122095169
 20
162.92725914017009
 30
0.0
  0
VERTEX
  5
16D9
  8
0
 10
175.41426720997489
 20
162.88069448390479
 30
0.0
  0
VERTEX
  5
16DA
  8
0
 10
175.35860377187629
 20
162.83436161018199
 30
0.0
  0
VERTEX
  5
16DB
  8
0
 10
175.30162952942189
 20
162.7883150956485
 30
0.0
  0
VERTEX
  5
16DC
  8
0
 10
175.2433545715021
 20
162.74260898919459
 30
0.0
  0
VERTEX
  5
16DD
  8
0
 10
175.2137328727934
 20
162.71990031521301
 30
0.0
  0
VERTEX
  5
16DE
  8
0
 10
175.18379043143361
 20
162.69729673159841
 30
0.0
  0
VERTEX
  5
16DF
  8
0
 10
175.12295005428149
 20
162.65243107415569
 30
0.0
  0
VERTEX
  5
16E0
  8
0
 10
175.06084775172999
 20
162.60806399633299
 30
0.0
  0
VERTEX
  5
16E1
  8
0
 10
174.997499142919
 20
162.56424662263171
 30
0.0
  0
VERTEX
  5
16E2
  8
0
 10
174.93292107955719
 20
162.521029139017
 30
0.0
  0
VERTEX
  5
16E3
  8
0
 10
174.86713155353641
 20
162.47846070944979
 30
0.0
  0
VERTEX
  5
16E4
  8
0
 10
174.8337883991918
 20
162.45743495385321
 30
0.0
  0
VERTEX
  5
16E5
  8
0
 10
174.80014958503389
 20
162.4365893931741
 30
0.0
  0
VERTEX
  5
16E6
  8
0
 10
174.73199516238719
 20
162.39546210713641
 30
0.0
  0
VERTEX
  5
16E7
  8
0
 10
174.66268967795389
 20
162.35512487880311
 30
0.0
  0
VERTEX
  5
16E8
  8
0
 10
174.59225625612339
 20
162.31562298341089
 30
0.0
  0
VERTEX
  5
16E9
  8
0
 10
174.5207197125423
 20
162.277000845141
 30
0.0
  0
VERTEX
  5
16EA
  8
0
 10
174.44810647848161
 20
162.23930192664011
 30
0.0
  0
VERTEX
  5
16EB
  8
0
 10
174.41140478178701
 20
162.22081196717249
 30
0.0
  0
VERTEX
  5
16EC
  8
0
 10
174.37444450880881
 20
162.20256862036439
 30
0.0
  0
VERTEX
  5
16ED
  8
0
 10
174.29976317153771
 20
162.1668421424788
 30
0.0
  0
VERTEX
  5
16EE
  8
0
 10
174.22409311688111
 20
162.13216243029649
 30
0.0
  0
VERTEX
  5
16EF
  8
0
 10
174.1474661237319
 20
162.0985680445271
 30
0.0
  0
VERTEX
  5
16F0
  8
0
 10
174.0699149215487
 20
162.0660960778944
 30
0.0
  0
VERTEX
  5
16F1
  8
0
 10
173.9914714493396
 20
162.03478147354781
 30
0.0
  0
VERTEX
  5
16F2
  8
0
 10
173.95191931239549
 20
162.01956644036301
 30
0.0
  0
VERTEX
  5
16F3
  8
0
 10
173.9121508570426
 20
162.00465126299909
 30
0.0
  0
VERTEX
  5
16F4
  8
0
 10
173.8319833005321
 20
161.9757374136862
 30
0.0
  0
VERTEX
  5
16F5
  8
0
 10
173.751006620775
 20
161.94807302389219
 30
0.0
  0
VERTEX
  5
16F6
  8
0
 10
173.71022719575549
 20
161.93471935406259
 30
0.0
  0
VERTEX
  5
16F7
  8
0
 10
173.66926051082581
 20
161.9216898404346
 30
0.0
  0
VERTEX
  5
16F8
  8
0
 10
173.5867863510145
 20
161.8966181119763
 30
0.0
  0
VERTEX
  5
16F9
  8
0
 10
173.5036270197788
 20
161.87288645248179
 30
0.0
  0
VERTEX
  5
16FA
  8
0
 10
173.4618041716337
 20
161.86153161257951
 30
0.0
  0
VERTEX
  5
16FB
  8
0
 10
173.41982667849919
 20
161.85052171684731
 30
0.0
  0
VERTEX
  5
16FC
  8
0
 10
173.33543052890741
 20
161.82954889100881
 30
0.0
  0
VERTEX
  5
16FD
  8
0
 10
173.25048454193461
 20
161.80999099910079
 30
0.0
  0
VERTEX
  5
16FE
  8
0
 10
173.16503515725179
 20
161.79186903048191
 30
0.0
  0
VERTEX
  5
16FF
  8
0
 10
173.07912895342639
 20
161.7752018896862
 30
0.0
  0
VERTEX
  5
1700
  8
0
 10
172.99281263489229
 20
161.76000643025699
 30
0.0
  0
VERTEX
  5
1701
  8
0
 10
172.9495156487387
 20
161.75296534824321
 30
0.0
  0
VERTEX
  5
1702
  8
0
 10
172.90613434805749
 20
161.74629768344209
 30
0.0
  0
VERTEX
  5
1703
  8
0
 10
172.8191442102985
 20
161.7340888382499
 30
0.0
  0
VERTEX
  5
1704
  8
0
 10
172.73189405325979
 20
161.72339107257011
 30
0.0
  0
VERTEX
  5
1705
  8
0
 10
172.64443712053631
 20
161.71421340402861
 30
0.0
  0
VERTEX
  5
1706
  8
0
 10
172.55682774282971
 20
161.7065625674017
 30
0.0
  0
VERTEX
  5
1707
  8
0
 10
172.46912099183331
 20
161.70044292086749
 30
0.0
  0
VERTEX
  5
1708
  8
0
 10
172.4252484242129
 20
161.69795798985729
 30
0.0
  0
VERTEX
  5
1709
  8
0
 10
172.38137231438029
 20
161.69585638327419
 30
0.0
  0
VERTEX
  5
170A
  8
0
 10
172.2936371486758
 20
161.69280240447509
 30
0.0
  0
VERTEX
  5
170B
  8
0
 10
172.2059705247292
 20
161.6912779706081
 30
0.0
  0
VERTEX
  5
170C
  8
0
 10
172.16217989978301
 20
161.691087727054
 30
0.0
  0
SEQEND
  5
170D
  8
0
  0
LINE
  5
13A5
  8
0
 10
172.16217989978301
 20
161.691087727054
 30
0.0
 11
171.40617989978301
 21
161.691087727054
 31
0.0
  0
POLYLINE
  5
13A6
  8
0
 66
     1
 10
0.0
 20
0.0
 30
0.0
  0
VERTEX
  5
170E
  8
0
 10
171.452179899783
 20
172.98600775793531
 30
0.0
  0
VERTEX
  5
170F
  8
0
 10
171.56112136552611
 20
172.97943016499929
 30
0.0
  0
VERTEX
  5
1710
  8
0
 10
171.78086500072411
 20
172.9658011278282
 30
0.0
  0
VERTEX
  5
1711
  8
0
 10
172.00251140289529
 20
172.9515642387845
 30
0.0
  0
VERTEX
  5
1712
  8
0
 10
172.113830020535
 20
172.9442283252192
 30
0.0
  0
VERTEX
  5
1713
  8
0
 10
172.22536294480491
 20
172.93675376077189
 30
0.0
  0
VERTEX
  5
1714
  8
0
 10
172.44872845582529
 20
172.92140965611031
 30
0.0
  0
VERTEX
  5
1715
  8
0
 10
172.67193493023109
 20
172.90557673703751
 30
0.0
  0
VERTEX
  5
1716
  8
0
 10
172.89432929883981
 20
172.88930435012639
 30
0.0
  0
VERTEX
  5
1717
  8
0
 10
173.11526181506861
 20
172.8726474000253
 30
0.0
  0
VERTEX
  5
1718
  8
0
 10
173.3340889940327
 20
172.85566601436
 30
0.0
  0
VERTEX
  5
1719
  8
0
 10
173.44251643830191
 20
172.84707361539961
 30
0.0
  0
VERTEX
  5
171A
  8
0
 10
173.5501846734663
 20
172.8384244721702
 30
0.0
  0
VERTEX
  5
171B
  8
0
 10
173.76296775484701
 20
172.82098856642151
 30
0.0
  0
VERTEX
  5
171C
  8
0
 10
173.9719663482889
 20
172.80341948660009
 30
0.0
  0
VERTEX
  5
171D
  8
0
 10
174.176634802406
 20
172.7857884405243
 30
0.0
  0
VERTEX
  5
171E
  8
0
 10
174.3764284624657
 20
172.76817054346279
 30
0.0
  0
VERTEX
  5
171F
  8
0
 10
174.5708305555506
 20
172.75064211056281
 30
0.0
  0
VERTEX
  5
1720
  8
0
 10
174.66585831790471
 20
172.7419352634181
 30
0.0
  0
VERTEX
  5
1721
  8
0
 10
174.7593626071523
 20
172.73327914536199
 30
0.0
  0
VERTEX
  5
1722
  8
0
 10
174.94158475155379
 20
172.7161566683975
 30
0.0
  0
VERTEX
  5
1723
  8
0
 10
175.1170779858908
 20
172.69934979905079
 30
0.0
  0
VERTEX
  5
1724
  8
0
 10
175.202179899783
 20
172.691087727054
 30
0.0
  0
SEQEND
  5
1725
  8
0
  0
POLYLINE
  5
13A7
  8
0
 66
     1
 10
0.0
 20
0.0
 30
0.0
  0
VERTEX
  5
1726
  8
0
 10
175.202179899783
 20
172.691087727054
 30
0.0
  0
VERTEX
  5
1727
  8
0
 10
175.2207329068269
 20
172.691001671685
 30
0.0
  0
VERTEX
  5
1728
  8
0
 10
175.2575685168689
 20
172.69032060520931
 30
0.0
  0
VERTEX
  5
1729
  8
0
 10
175.29404511335991
 20
172.6889768086935
 30
0.0
  0
VERTEX
  5
172A
  8
0
 10
175.31214937752881
 20
172.68806211696591
 30
0.0
  0
VERTEX
  5
172B
  8
0
 10
175.330164611105
 20
172.68698850456471
 30
0.0
  0
VERTEX
  5
172C
  8
0
 10
175.36592896941281
 20
172.68437301576591
 30
0.0
  0
VERTEX
  5
172D
  8
0
 10
175.40134014124831
 20
172.6811468212066
 30
0.0
  0
VERTEX
  5
172E
  8
0
 10
175.43640002981371
 20
172.67732561076491
 30
0.0
  0
VERTEX
  5
172F
  8
0
 10
175.4711104521416
 20
172.67292433939321
 30
0.0
  0
VERTEX
  5
1730
  8
0
 10
175.5054731092473
 20
172.66795727993119
 30
0.0
  0
VERTEX
  5
1731
  8
0
 10
175.5225245197214
 20
172.6652658660467
 30
0.0
  0
VERTEX
  5
1732
  8
0
 10
175.53948956236829
 20
172.66243807428469
 30
0.0
  0
VERTEX
  5
1733
  8
0
 10
175.57316121479801
 20
172.6563797826808
 30
0.0
  0
VERTEX
  5
1734
  8
0
 10
175.60648929881739
 20
172.64979493076061
 30
0.0
  0
VERTEX
  5
1735
  8
0
 10
175.63947486723259
 20
172.64269555431929
 30
0.0
  0
VERTEX
  5
1736
  8
0
 10
175.67211878903001
 20
172.63509324154549
 30
0.0
  0
VERTEX
  5
1737
  8
0
 10
175.70442177333959
 20
172.6269991662594
 30
0.0
  0
VERTEX
  5
1738
  8
0
 10
175.7204456261685
 20
172.62277109573901
 30
0.0
  0
VERTEX
  5
1739
  8
0
 10
175.73638449835261
 20
172.61842408764781
 30
0.0
  0
VERTEX
  5
173A
  8
0
 10
175.76800762402391
 20
172.60937836887041
 30
0.0
  0
VERTEX
  5
173B
  8
0
 10
175.79929176852511
 20
172.59987200407619
 30
0.0
  0
VERTEX
  5
173C
  8
0
 10
175.8148069019748
 20
172.59494910756081
 30
0.0
  0
VERTEX
  5
173D
  8
0
 10
175.83023749778269
 20
172.58991464217681
 30
0.0
  0
VERTEX
  5
173E
  8
0
 10
175.8608453169781
 20
172.57951560976261
 30
0.0
  0
VERTEX
  5
173F
  8
0
 10
175.89111566385051
 20
172.5686839331081
 30
0.0
  0
VERTEX
  5
1740
  8
0
 10
175.90612440224299
 20
172.56310859698479
 30
0.0
  0
VERTEX
  5
1741
  8
0
 10
175.9210489036432
 20
172.5574283592241
 30
0.0
  0
VERTEX
  5
1742
  8
0
 10
175.9506453255425
 20
172.54575737592481
 30
0.0
  0
VERTEX
  5
1743
  8
0
 10
175.97990514046199
 20
172.53367923089061
 30
0.0
  0
VERTEX
  5
1744
  8
0
 10
176.07966490121839
 20
172.4883133868575
 30
0.0
  0
VERTEX
  5
1745
  8
0
 10
176.2410501830401
 20
172.40010748544341
 30
0.0
  0
VERTEX
  5
1746
  8
0
 10
176.3901831587836
 20
172.30001539994791
 30
0.0
  0
VERTEX
  5
1747
  8
0
 10
176.5269673006398
 20
172.18939955792601
 30
0.0
  0
VERTEX
  5
1748
  8
0
 10
176.65129403816681
 20
172.06951734583629
 30
0.0
  0
VERTEX
  5
1749
  8
0
 10
176.70875152387561
 20
172.00647433998529
 30
0.0
  0
VERTEX
  5
174A
  8
0
 10
176.76304738082749
 20
171.9415647186928
 30
0.0
  0
VERTEX
  5
174B
  8
0
 10
176.86208597451269
 20
171.80675426463381
 30
0.0
  0
VERTEX
  5
174C
  8
0
 10
176.94833348048971
 20
171.66625318613529
 30
0.0
  0
VERTEX
  5
174D
  8
0
 10
177.02177121233379
 20
171.52120064424639
 30
0.0
  0
VERTEX
  5
174E
  8
0
 10
177.08244150641681
 20
171.37271540446969
 30
0.0
  0
VERTEX
  5
174F
  8
0
 10
177.13045503586699
 20
171.22189371756289
 30
0.0
  0
VERTEX
  5
1750
  8
0
 10
177.14976955217981
 20
171.14594434828419
 30
0.0
  0
VERTEX
  5
1751
  8
0
 10
177.1659939749951
 20
171.06981490854349
 30
0.0
  0
VERTEX
  5
1752
  8
0
 10
177.18931748807779
 20
170.91754788952451
 30
0.0
  0
VERTEX
  5
1753
  8
0
 10
177.2007710315099
 20
170.76614429360589
 30
0.0
  0
VERTEX
  5
1754
  8
0
 10
177.202179899783
 20
170.691087727054
 30
0.0
  0
SEQEND
  5
1755
  8
0
  0
ARC
  5
13A8
  8
0
 10
118.7702102028132
 20
171.98042024138661
 30
0.0
 40
10.31190798339901
 50
289.69249546984878
 51
320.2825392293127
  0
ARC
  5
13A9
  8
0
 10
165.452179899783
 20
72.705471288697936
 30
0.0
 40
100.4598725589379
 50
86.575952389849647
 51
112.6888280195684
  0
ARC
  5
13AA
  8
0
 10
171.4061798997829
 20
162.95108772705379
 30
0.0
 40
1.2599999999997791
 50
247.17748218763219
 51
270.0
  0
ARC
  5
13AB
  8
0
 10
162.4337833596573
 20
155.92509976588349
 30
0.0
 40
10.313417329402901
 50
34.655515732158698
 51
99.699448643112603
  0
LINE
  5
13AC
  8
0
 10
106.702179899783
 20
130.691087727054
 30
0.0
 11
121.702179899783
 21
130.691087727054
 31
0.0
  0
LINE
  5
13AD
  8
3
 10
107.68882919557841
 20
124.8910877270539
 30
0.0
 11
107.68882919557841
 21
130.691087727054
 31
0.0
  0
LINE
  5
13AE
  8
3
 10
108.8413178423028
 20
124.8910877270539
 30
0.0
 11
108.8413178423028
 21
130.691087727054
 31
0.0
  0
LINE
  5
13AF
  8
3
 10
110.5185650185356
 20
124.8910877270539
 30
0.0
 11
110.5185650185356
 21
130.691087727054
 31
0.0
  0
LINE
  5
13B0
  8
3
 10
112.5563900845989
 20
124.891087727054
 30
0.0
 11
112.5563900845989
 21
130.691087727054
 31
0.0
  0
LINE
  5
13B1
  8
3
 10
113.6490432749017
 20
124.891087727054
 30
0.0
 11
113.6490432749017
 21
130.691087727054
 31
0.0
  0
LINE
  5
13B2
  8
3
 10
114.75531652466429
 20
124.891087727054
 30
0.0
 11
114.75531652466429
 21
130.691087727054
 31
0.0
  0
LINE
  5
13B3
  8
3
 10
115.84796971496721
 20
124.891087727054
 30
0.0
 11
115.84796971496721
 21
130.691087727054
 31
0.0
  0
LINE
  5
13B4
  8
0
 10
121.297179899783
 20
124.891087727054
 30
0.0
 11
107.10717989978301
 21
124.891087727054
 31
0.0
  0
LINE
  5
13B5
  8
3
 10
117.8857947810305
 20
124.891087727054
 30
0.0
 11
117.8857947810305
 21
130.691087727054
 31
0.0
  0
LINE
  5
13B6
  8
3
 10
119.5630419572632
 20
124.891087727054
 30
0.0
 11
119.5630419572632
 21
130.691087727054
 31
0.0
  0
LINE
  5
13B7
  8
3
 10
120.7155306039876
 20
124.891087727054
 30
0.0
 11
120.7155306039876
 21
130.691087727054
 31
0.0
  0
LINE
  5
13B8
  8
1
 10
227.9105628735702
 20
178.16534384763591
 30
0.0
 11
227.9105628735702
 21
119.691087727054
 31
0.0
  0
LINE
  5
13B9
  8
0
 10
232.76770573071329
 20
173.16534384763591
 30
0.0
 11
223.05342001642691
 21
173.16534384763591
 31
0.0
  0
LINE
  5
13BA
  8
0
 10
237.41056287357009
 20
137.19108772705391
 30
0.0
 11
237.41056287357009
 21
159.691087727054
 31
0.0
  0
LINE
  5
13BB
  8
0
 10
218.41056287357009
 20
159.691087727054
 30
0.0
 11
218.41056287357009
 21
137.19108772705391
 31
0.0
  0
LINE
  5
13BC
  8
0
 10
226.91056287357009
 20
170.69108772705391
 30
0.0
 11
228.91056287357009
 21
170.69108772705391
 31
0.0
  0
LINE
  5
13BD
  8
0
 10
218.91056287357
 20
136.69108772705391
 30
0.0
 11
236.9105628735702
 21
136.69108772705391
 31
0.0
  0
LINE
  5
13BE
  8
0
 10
234.66056287357
 20
161.69108772705391
 30
0.0
 11
235.41056287357
 21
161.69108772705391
 31
0.0
  0
LINE
  5
13BF
  8
0
 10
220.41056287357031
 20
161.69108772705391
 30
0.0
 11
221.16056287357009
 21
161.69108772705391
 31
0.0
  0
LINE
  5
13C0
  8
0
 10
226.91056287357009
 20
166.73108772705399
 30
0.0
 11
228.91056287357009
 21
166.73108772705399
 31
0.0
  0
LINE
  5
13C1
  8
0
 10
226.91056287357009
 20
166.73108772705399
 30
0.0
 11
226.91056287357009
 21
170.69108772705411
 31
0.0
  0
POLYLINE
  5
13C2
  8
0
 66
     1
 10
0.0
 20
0.0
 30
0.0
  0
VERTEX
  5
1756
  8
0
 10
226.91056287357009
 20
166.73108772705399
 30
0.0
  0
VERTEX
  5
1757
  8
0
 10
226.71589788473921
 20
166.54884071169451
 30
0.0
  0
VERTEX
  5
1758
  8
0
 10
226.31921268299081
 20
166.17755315000031
 30
0.0
  0
VERTEX
  5
1759
  8
0
 10
225.91584877932789
 20
165.8003075273059
 30
0.0
  0
VERTEX
  5
175A
  8
0
 10
225.71282283490359
 20
165.61060692206411
 30
0.0
  0
VERTEX
  5
175B
  8
0
 10
225.5095086368346
 20
165.42079676387161
 30
0.0
  0
VERTEX
  5
175C
  8
0
 10
225.10382763370251
 20
165.04267114596701
 30
0.0
  0
VERTEX
  5
175D
  8
0
 10
224.70239195658479
 20
164.66955127102631
 30
0.0
  0
VERTEX
  5
175E
  8
0
 10
224.3085734498658
 20
164.3048719780781
 30
0.0
  0
VERTEX
  5
175F
  8
0
 10
223.92570497968131
 20
163.95204398592369
 30
0.0
  0
VERTEX
  5
1760
  8
0
 10
223.55708510424009
 20
163.61445542410021
 30
0.0
  0
VERTEX
  5
1761
  8
0
 10
223.37910623714171
 20
163.45239702530461
 30
0.0
  0
VERTEX
  5
1762
  8
0
 10
223.34989294935869
 20
163.4258648804734
 30
0.0
  0
VERTEX
  5
1763
  8
0
 10
223.2918677754694
 20
163.37322639586361
 30
0.0
  0
VERTEX
  5
1764
  8
0
 10
223.2343893932939
 20
163.3211677219326
 30
0.0
  0
VERTEX
  5
1765
  8
0
 10
223.20585956629199
 20
163.2953603142461
 30
0.0
  0
VERTEX
  5
1766
  8
0
 10
223.1774716012095
 20
163.2697032444122
 30
0.0
  0
VERTEX
  5
1767
  8
0
 10
223.1211280601446
 20
163.2188472238233
 30
0.0
  0
VERTEX
  5
1768
  8
0
 10
223.0653722790903
 20
163.1686137819774
 30
0.0
  0
VERTEX
  5
1769
  8
0
 10
223.0102176004348
 20
163.11901688840541
 30
0.0
  0
VERTEX
  5
176A
  8
0
 10
222.95567718513641
 20
163.07007034674601
 30
0.0
  0
VERTEX
  5
176B
  8
0
 10
222.90176399776209
 20
163.0217877811331
 30
0.0
  0
VERTEX
  5
176C
  8
0
 10
222.8750466085678
 20
162.99789969446249
 30
0.0
  0
VERTEX
  5
176D
  8
0
 10
222.8484907914262
 20
162.97418262263179
 30
0.0
  0
VERTEX
  5
176E
  8
0
 10
222.7958600358993
 20
162.92725914017009
 30
0.0
  0
VERTEX
  5
176F
  8
0
 10
222.7435058609511
 20
162.88069448390479
 30
0.0
  0
VERTEX
  5
1770
  8
0
 10
222.69127945910989
 20
162.83436161018199
 30
0.0
  0
VERTEX
  5
1771
  8
0
 10
222.6392354980494
 20
162.7883150956485
 30
0.0
  0
VERTEX
  5
1772
  8
0
 10
222.58742806090049
 20
162.74260898919459
 30
0.0
  0
VERTEX
  5
1773
  8
0
 10
222.56162975943309
 20
162.71990031521301
 30
0.0
  0
VERTEX
  5
1774
  8
0
 10
222.53591056280581
 20
162.69729673159841
 30
0.0
  0
VERTEX
  5
1775
  8
0
 10
222.484735665822
 20
162.65243107415569
 30
0.0
  0
VERTEX
  5
1776
  8
0
 10
222.4339551920412
 20
162.6080639963329
 30
0.0
  0
VERTEX
  5
1777
  8
0
 10
222.38362003493711
 20
162.56424662263171
 30
0.0
  0
VERTEX
  5
1778
  8
0
 10
222.33378006908561
 20
162.521029139017
 30
0.0
  0
VERTEX
  5
1779
  8
0
 10
222.28448405857711
 20
162.47846070944979
 30
0.0
  0
VERTEX
  5
177A
  8
0
 10
222.2600549489745
 20
162.45743495385321
 30
0.0
  0
VERTEX
  5
177B
  8
0
 10
222.2357795645128
 20
162.4365893931741
 30
0.0
  0
VERTEX
  5
177C
  8
0
 10
222.18771290314029
 20
162.39546210713641
 30
0.0
  0
VERTEX
  5
177D
  8
0
 10
222.1403294448719
 20
162.35512487880311
 30
0.0
  0
VERTEX
  5
177E
  8
0
 10
222.09367378658121
 20
162.31562298341089
 30
0.0
  0
VERTEX
  5
177F
  8
0
 10
222.0477896506539
 20
162.277000845141
 30
0.0
  0
VERTEX
  5
1780
  8
0
 10
222.0060300153506
 20
162.24207079774601
 30
0.0
  0
SEQEND
  5
1781
  8
0
  0
POLYLINE
  5
13C3
  8
0
 66
     1
 10
0.0
 20
0.0
 30
0.0
  0
VERTEX
  5
1782
  8
0
 10
222.15978616488769
 20
172.7396059202058
 30
0.0
  0
VERTEX
  5
1783
  8
0
 10
222.20683642105629
 20
172.73327914536191
 30
0.0
  0
VERTEX
  5
1784
  8
0
 10
222.3403819383729
 20
172.7161566683975
 30
0.0
  0
VERTEX
  5
1785
  8
0
 10
222.47987195471271
 20
172.69934979905079
 30
0.0
  0
VERTEX
  5
1786
  8
0
 10
222.55166393002929
 20
172.69108772705391
 30
0.0
  0
SEQEND
  5
1787
  8
0
  0
POLYLINE
  5
13C4
  8
0
 66
     1
 10
0.0
 20
0.0
 30
0.0
  0
VERTEX
  5
1788
  8
0
 10
222.55166393002929
 20
172.69108772705391
 30
0.0
  0
VERTEX
  5
1789
  8
0
 10
222.56769420953
 20
172.691001671685
 30
0.0
  0
VERTEX
  5
178A
  8
0
 10
222.5999344422444
 20
172.69032060520931
 30
0.0
  0
VERTEX
  5
178B
  8
0
 10
222.6324123759008
 20
172.6889768086935
 30
0.0
  0
VERTEX
  5
178C
  8
0
 10
222.64873983279631
 20
172.68806211696591
 30
0.0
  0
VERTEX
  5
178D
  8
0
 10
222.6651259609834
 20
172.68698850456471
 30
0.0
  0
VERTEX
  5
178E
  8
0
 10
222.69807332225099
 20
172.68437301576591
 30
0.0
  0
VERTEX
  5
178F
  8
0
 10
222.7312527167104
 20
172.6811468212066
 30
0.0
  0
VERTEX
  5
1790
  8
0
 10
222.7646624942245
 20
172.67732561076491
 30
0.0
  0
VERTEX
  5
1791
  8
0
 10
222.798301060976
 20
172.67292433939329
 30
0.0
  0
VERTEX
  5
1792
  8
0
 10
222.8321668459495
 20
172.66795727993119
 30
0.0
  0
VERTEX
  5
1793
  8
0
 10
222.84918445301639
 20
172.66526586604661
 30
0.0
  0
VERTEX
  5
1794
  8
0
 10
222.86625827053419
 20
172.66243807428469
 30
0.0
  0
VERTEX
  5
1795
  8
0
 10
222.90057372130329
 20
172.6563797826808
 30
0.0
  0
VERTEX
  5
1796
  8
0
 10
222.93511152597509
 20
172.64979493076061
 30
0.0
  0
VERTEX
  5
1797
  8
0
 10
222.96986993252901
 20
172.64269555431929
 30
0.0
  0
VERTEX
  5
1798
  8
0
 10
223.00484709140909
 20
172.63509324154549
 30
0.0
  0
VERTEX
  5
1799
  8
0
 10
223.0400410678219
 20
172.6269991662594
 30
0.0
  0
VERTEX
  5
179A
  8
0
 10
223.05771876966921
 20
172.62277109573901
 30
0.0
  0
VERTEX
  5
179B
  8
0
 10
223.07544997332911
 20
172.6184240876479
 30
0.0
  0
VERTEX
  5
179C
  8
0
 10
223.11107197942729
 20
172.60937836887041
 30
0.0
  0
VERTEX
  5
179D
  8
0
 10
223.14690529076029
 20
172.59987200407619
 30
0.0
  0
VERTEX
  5
179E
  8
0
 10
223.1649006304217
 20
172.59494910756081
 30
0.0
  0
VERTEX
  5
179F
  8
0
 10
223.1829481310574
 20
172.58991464217681
 30
0.0
  0
VERTEX
  5
17A0
  8
0
 10
223.2191987301635
 20
172.57951560976261
 30
0.0
  0
VERTEX
  5
17A1
  8
0
 10
223.25565531215591
 20
172.5686839331081
 30
0.0
  0
VERTEX
  5
17A2
  8
0
 10
223.27396028750061
 20
172.56310859698479
 30
0.0
  0
VERTEX
  5
17A3
  8
0
 10
223.2923160845385
 20
172.5574283592241
 30
0.0
  0
VERTEX
  5
17A4
  8
0
 10
223.32917922849001
 20
172.54575737592481
 30
0.0
  0
VERTEX
  5
17A5
  8
0
 10
223.3662428901433
 20
172.53367923089061
 30
0.0
  0
VERTEX
  5
17A6
  8
0
 10
223.49751693753419
 20
172.4883133868575
 30
0.0
  0
VERTEX
  5
17A7
  8
0
 10
223.72791909674899
 20
172.40010748544341
 30
0.0
  0
VERTEX
  5
17A8
  8
0
 10
223.96461246426259
 20
172.30001539994791
 30
0.0
  0
VERTEX
  5
17A9
  8
0
 10
224.20704057181169
 20
172.18939955792601
 30
0.0
  0
VERTEX
  5
17AA
  8
0
 10
224.45460844075609
 20
172.06951734583629
 30
0.0
  0
VERTEX
  5
17AB
  8
0
 10
224.58012197949361
 20
172.00647433998529
 30
0.0
  0
VERTEX
  5
17AC
  8
0
 10
224.7066602897919
 20
171.9415647186928
 30
0.0
  0
VERTEX
  5
17AD
  8
0
 10
224.9623800632049
 20
171.80675426463381
 30
0.0
  0
VERTEX
  5
17AE
  8
0
 10
225.22094877050239
 20
171.66625318613529
 30
0.0
  0
VERTEX
  5
17AF
  8
0
 10
225.48152382191381
 20
171.52120064424639
 30
0.0
  0
VERTEX
  5
17B0
  8
0
 10
225.74323505291889
 20
171.37271540446969
 30
0.0
  0
VERTEX
  5
17B1
  8
0
 10
226.00519472804589
 20
171.22189371756289
 30
0.0
  0
VERTEX
  5
17B2
  8
0
 10
226.13598417976229
 20
171.1459443482841
 30
0.0
  0
VERTEX
  5
17B3
  8
0
 10
226.26649089474441
 20
171.06981490854349
 30
0.0
  0
VERTEX
  5
17B4
  8
0
 10
226.52617726903259
 20
170.91754788952451
 30
0.0
  0
VERTEX
  5
17B5
  8
0
 10
226.7832836520501
 20
170.76614429360589
 30
0.0
  0
VERTEX
  5
17B6
  8
0
 10
226.91056287357009
 20
170.69108772705411
 30
0.0
  0
SEQEND
  5
17B7
  8
0
  0
LINE
  5
13C5
  8
0
 10
232.76770573071281
 20
161.69108772705391
 30
0.0
 11
223.05342001642751
 21
161.69108772705391
 31
0.0
  0
POLYLINE
  5
13C6
  8
0
 66
     1
 10
0.0
 20
0.0
 30
0.0
  0
VERTEX
  5
17B8
  8
0
 10
233.81509573178951
 20
162.24207079774601
 30
0.0
  0
VERTEX
  5
17B9
  8
0
 10
233.7733360964863
 20
162.277000845141
 30
0.0
  0
VERTEX
  5
17BA
  8
0
 10
233.72745196055891
 20
162.31562298341089
 30
0.0
  0
VERTEX
  5
17BB
  8
0
 10
233.68079630226819
 20
162.35512487880311
 30
0.0
  0
VERTEX
  5
17BC
  8
0
 10
233.63341284399979
 20
162.39546210713641
 30
0.0
  0
VERTEX
  5
17BD
  8
0
 10
233.58534618262729
 20
162.4365893931741
 30
0.0
  0
VERTEX
  5
17BE
  8
0
 10
233.5610707981657
 20
162.45743495385321
 30
0.0
  0
VERTEX
  5
17BF
  8
0
 10
233.53664168856309
 20
162.47846070944979
 30
0.0
  0
VERTEX
  5
17C0
  8
0
 10
233.4873456780544
 20
162.521029139017
 30
0.0
  0
VERTEX
  5
17C1
  8
0
 10
233.43750571220309
 20
162.56424662263171
 30
0.0
  0
VERTEX
  5
17C2
  8
0
 10
233.387170555099
 20
162.60806399633299
 30
0.0
  0
VERTEX
  5
17C3
  8
0
 10
233.3363900813182
 20
162.65243107415569
 30
0.0
  0
VERTEX
  5
17C4
  8
0
 10
233.28521518433419
 20
162.69729673159841
 30
0.0
  0
VERTEX
  5
17C5
  8
0
 10
233.259495987707
 20
162.71990031521301
 30
0.0
  0
VERTEX
  5
17C6
  8
0
 10
233.23369768623959
 20
162.74260898919459
 30
0.0
  0
VERTEX
  5
17C7
  8
0
 10
233.18189024909091
 20
162.7883150956485
 30
0.0
  0
VERTEX
  5
17C8
  8
0
 10
233.12984628803039
 20
162.83436161018199
 30
0.0
  0
VERTEX
  5
17C9
  8
0
 10
233.07761988618901
 20
162.88069448390479
 30
0.0
  0
VERTEX
  5
17CA
  8
0
 10
233.02526571124079
 20
162.92725914017009
 30
0.0
  0
VERTEX
  5
17CB
  8
0
 10
232.972634955714
 20
162.97418262263179
 30
0.0
  0
VERTEX
  5
17CC
  8
0
 10
232.94607913857229
 20
162.99789969446249
 30
0.0
  0
VERTEX
  5
17CD
  8
0
 10
232.919361749378
 20
163.0217877811331
 30
0.0
  0
VERTEX
  5
17CE
  8
0
 10
232.86544856200391
 20
163.07007034674609
 30
0.0
  0
VERTEX
  5
17CF
  8
0
 10
232.8109081467054
 20
163.11901688840541
 30
0.0
  0
VERTEX
  5
17D0
  8
0
 10
232.7557534680499
 20
163.1686137819774
 30
0.0
  0
VERTEX
  5
17D1
  8
0
 10
232.6999976869956
 20
163.2188472238233
 30
0.0
  0
VERTEX
  5
17D2
  8
0
 10
232.6436541459307
 20
163.2697032444122
 30
0.0
  0
VERTEX
  5
17D3
  8
0
 10
232.61526618084829
 20
163.29536031424601
 30
0.0
  0
VERTEX
  5
17D4
  8
0
 10
232.58673635384631
 20
163.3211677219326
 30
0.0
  0
VERTEX
  5
17D5
  8
0
 10
232.5292579716706
 20
163.3732263958637
 30
0.0
  0
VERTEX
  5
17D6
  8
0
 10
232.47123279778131
 20
163.4258648804734
 30
0.0
  0
VERTEX
  5
17D7
  8
0
 10
232.44201950999829
 20
163.45239702530461
 30
0.0
  0
VERTEX
  5
17D8
  8
0
 10
232.26404064290011
 20
163.61445542410021
 30
0.0
  0
VERTEX
  5
17D9
  8
0
 10
231.89542076745889
 20
163.95204398592369
 30
0.0
  0
VERTEX
  5
17DA
  8
0
 10
231.5125522972744
 20
164.3048719780781
 30
0.0
  0
VERTEX
  5
17DB
  8
0
 10
231.1187337905553
 20
164.66955127102631
 30
0.0
  0
VERTEX
  5
17DC
  8
0
 10
230.71729811343769
 20
165.04267114596701
 30
0.0
  0
VERTEX
  5
17DD
  8
0
 10
230.31161711030549
 20
165.42079676387161
 30
0.0
  0
VERTEX
  5
17DE
  8
0
 10
230.10830291223661
 20
165.61060692206411
 30
0.0
  0
VERTEX
  5
17DF
  8
0
 10
229.90527696781231
 20
165.8003075273059
 30
0.0
  0
VERTEX
  5
17E0
  8
0
 10
229.50191306414939
 20
166.17755315000031
 30
0.0
  0
VERTEX
  5
17E1
  8
0
 10
229.10522786240099
 20
166.5488407116946
 30
0.0
  0
VERTEX
  5
17E2
  8
0
 10
228.91056287357009
 20
166.73108772705399
 30
0.0
  0
SEQEND
  5
17E3
  8
0
  0
LINE
  5
13C7
  8
0
 10
228.91056287357009
 20
166.73108772705399
 30
0.0
 11
228.91056287357009
 21
170.69108772705391
 31
0.0
  0
POLYLINE
  5
13C8
  8
0
 66
     1
 10
0.0
 20
0.0
 30
0.0
  0
VERTEX
  5
17E4
  8
0
 10
228.91056287357009
 20
170.69108772705411
 30
0.0
  0
VERTEX
  5
17E5
  8
0
 10
229.0378420950901
 20
170.76614429360581
 30
0.0
  0
VERTEX
  5
17E6
  8
0
 10
229.2949484781075
 20
170.91754788952451
 30
0.0
  0
VERTEX
  5
17E7
  8
0
 10
229.55463485239579
 20
171.06981490854349
 30
0.0
  0
VERTEX
  5
17E8
  8
0
 10
229.68514156737791
 20
171.1459443482841
 30
0.0
  0
VERTEX
  5
17E9
  8
0
 10
229.81593101909431
 20
171.22189371756289
 30
0.0
  0
VERTEX
  5
17EA
  8
0
 10
230.07789069422131
 20
171.37271540446969
 30
0.0
  0
VERTEX
  5
17EB
  8
0
 10
230.33960192522639
 20
171.52120064424639
 30
0.0
  0
VERTEX
  5
17EC
  8
0
 10
230.60017697663761
 20
171.66625318613529
 30
0.0
  0
VERTEX
  5
17ED
  8
0
 10
230.85874568393521
 20
171.80675426463381
 30
0.0
  0
VERTEX
  5
17EE
  8
0
 10
231.1144654573483
 20
171.9415647186928
 30
0.0
  0
VERTEX
  5
17EF
  8
0
 10
231.24100376764659
 20
172.00647433998529
 30
0.0
  0
VERTEX
  5
17F0
  8
0
 10
231.36651730638391
 20
172.06951734583629
 30
0.0
  0
VERTEX
  5
17F1
  8
0
 10
231.61408517532851
 20
172.18939955792601
 30
0.0
  0
VERTEX
  5
17F2
  8
0
 10
231.85651328287759
 20
172.30001539994791
 30
0.0
  0
VERTEX
  5
17F3
  8
0
 10
232.09320665039101
 20
172.40010748544341
 30
0.0
  0
VERTEX
  5
17F4
  8
0
 10
232.3236088096059
 20
172.4883133868575
 30
0.0
  0
VERTEX
  5
17F5
  8
0
 10
232.4548828569969
 20
172.53367923089061
 30
0.0
  0
VERTEX
  5
17F6
  8
0
 10
232.49194651865011
 20
172.54575737592481
 30
0.0
  0
VERTEX
  5
17F7
  8
0
 10
232.5288096626017
 20
172.5574283592241
 30
0.0
  0
VERTEX
  5
17F8
  8
0
 10
232.5471654596395
 20
172.56310859698479
 30
0.0
  0
VERTEX
  5
17F9
  8
0
 10
232.56547043498429
 20
172.5686839331081
 30
0.0
  0
VERTEX
  5
17FA
  8
0
 10
232.60192701697679
 20
172.57951560976261
 30
0.0
  0
VERTEX
  5
17FB
  8
0
 10
232.6381776160828
 20
172.58991464217681
 30
0.0
  0
VERTEX
  5
17FC
  8
0
 10
232.6562251167183
 20
172.59494910756081
 30
0.0
  0
VERTEX
  5
17FD
  8
0
 10
232.67422045638
 20
172.59987200407619
 30
0.0
  0
VERTEX
  5
17FE
  8
0
 10
232.71005376771291
 20
172.60937836887041
 30
0.0
  0
VERTEX
  5
17FF
  8
0
 10
232.7456757738112
 20
172.6184240876479
 30
0.0
  0
VERTEX
  5
1800
  8
0
 10
232.76340697747079
 20
172.62277109573901
 30
0.0
  0
VERTEX
  5
1801
  8
0
 10
232.78108467931821
 20
172.6269991662594
 30
0.0
  0
VERTEX
  5
1802
  8
0
 10
232.81627865573091
 20
172.63509324154549
 30
0.0
  0
VERTEX
  5
1803
  8
0
 10
232.85125581461111
 20
172.64269555431929
 30
0.0
  0
VERTEX
  5
1804
  8
0
 10
232.88601422116491
 20
172.64979493076061
 30
0.0
  0
VERTEX
  5
1805
  8
0
 10
232.920552025837
 20
172.6563797826808
 30
0.0
  0
VERTEX
  5
1806
  8
0
 10
232.95486747660581
 20
172.66243807428469
 30
0.0
  0
VERTEX
  5
1807
  8
0
 10
232.97194129412381
 20
172.66526586604661
 30
0.0
  0
VERTEX
  5
1808
  8
0
 10
232.9889589011907
 20
172.66795727993119
 30
0.0
  0
VERTEX
  5
1809
  8
0
 10
233.02282468616411
 20
172.67292433939329
 30
0.0
  0
VERTEX
  5
180A
  8
0
 10
233.05646325291559
 20
172.67732561076491
 30
0.0
  0
VERTEX
  5
180B
  8
0
 10
233.0898730304298
 20
172.6811468212066
 30
0.0
  0
VERTEX
  5
180C
  8
0
 10
233.1230524248891
 20
172.68437301576591
 30
0.0
  0
VERTEX
  5
180D
  8
0
 10
233.1559997861566
 20
172.68698850456471
 30
0.0
  0
VERTEX
  5
180E
  8
0
 10
233.17238591434389
 20
172.68806211696591
 30
0.0
  0
VERTEX
  5
180F
  8
0
 10
233.1887133712394
 20
172.6889768086935
 30
0.0
  0
VERTEX
  5
1810
  8
0
 10
233.22119130489571
 20
172.69032060520931
 30
0.0
  0
VERTEX
  5
1811
  8
0
 10
233.2534315376102
 20
172.691001671685
 30
0.0
  0
VERTEX
  5
1812
  8
0
 10
233.26946181711079
 20
172.69108772705391
 30
0.0
  0
SEQEND
  5
1813
  8
0
  0
POLYLINE
  5
13C9
  8
0
 66
     1
 10
0.0
 20
0.0
 30
0.0
  0
VERTEX
  5
1814
  8
0
 10
233.26946181711079
 20
172.69108772705391
 30
0.0
  0
VERTEX
  5
1815
  8
0
 10
233.3412537924273
 20
172.69934979905071
 30
0.0
  0
VERTEX
  5
1816
  8
0
 10
233.4807438087671
 20
172.7161566683975
 30
0.0
  0
VERTEX
  5
1817
  8
0
 10
233.61428932608399
 20
172.73327914536191
 30
0.0
  0
VERTEX
  5
1818
  8
0
 10
233.66133958225231
 20
172.7396059202058
 30
0.0
  0
SEQEND
  5
1819
  8
0
  0
LINE
  5
13CA
  8
0
 10
221.16056287357009
 20
142.24108772705401
 30
0.0
 11
221.16056287357009
 21
170.74018868744079
 31
0.0
  0
LINE
  5
13CB
  8
0
 10
234.66056287357009
 20
170.74018868744099
 30
0.0
 11
234.66056287357
 21
142.24108772705401
 31
0.0
  0
LINE
  5
13CC
  8
1
 10
47.928884903584731
 20
178.16534384763591
 30
0.0
 11
47.928884903584731
 21
119.691087727054
 31
0.0
  0
LINE
  5
13CD
  8
0
 10
57.428884903584667
 20
137.19108772705391
 30
0.0
 11
57.428884903584667
 21
159.691087727054
 31
0.0
  0
LINE
  5
13CE
  8
0
 10
38.428884903584667
 20
159.691087727054
 30
0.0
 11
38.428884903584667
 21
137.19108772705391
 31
0.0
  0
LINE
  5
13CF
  8
0
 10
38.928884903584617
 20
136.69108772705391
 30
0.0
 11
56.928884903584837
 21
136.69108772705391
 31
0.0
  0
LINE
  5
13D0
  8
0
 10
40.428884903584837
 20
161.691087727054
 30
0.0
 11
55.42888490358461
 21
161.69108772705391
 31
0.0
  0
LINE
  5
13D1
  8
0
 10
41.178884903584731
 20
170.1414299690008
 30
0.0
 11
41.178884903584731
 21
161.69108772705411
 31
0.0
  0
LINE
  5
13D2
  8
0
 10
54.678884903584787
 20
161.69108772705391
 30
0.0
 11
54.678884903584731
 21
170.14142996900091
 31
0.0
  0
POLYLINE
  5
13D3
  8
3
 66
     1
 10
0.0
 20
0.0
 30
0.0
 70
   128
  0
VERTEX
  5
181A
  8
3
 10
146.44071047149151
 20
230.5009581114879
 30
0.0
  0
VERTEX
  5
181B
  8
3
 10
146.44071047149151
 20
230.5009581114879
 30
0.0
  0
SEQEND
  5
181C
  8
3
  0
POLYLINE
  5
13D4
  8
3
 66
     1
 10
0.0
 20
0.0
 30
0.0
 70
     1
1001
ACAD
1000
ASC_BOUNDS
1002
{
1070
    19
1005
1426
1002
}
  0
VERTEX
  5
13D5
  8
0
 10
148.4407104714918
 20
230.5009581114879
 30
0.0
  0
VERTEX
  5
13D6
  8
0
 10
146.44071047149151
 20
230.5009581114879
 30
0.0
  0
VERTEX
  5
13D7
  8
0
 10
146.44071047149171
 20
226.5009581114879
 30
0.0
  0
VERTEX
  5
13D8
  8
0
 10
147.15499618577729
 20
226.5009581114879
 30
0.0
  0
VERTEX
  5
13D9
  8
0
 10
147.15499618577761
 20
228.07238668291691
 30
0.0
  0
VERTEX
  5
13DA
  8
0
 10
148.4407104714918
 20
228.07238668291691
 30
0.0
 42
0.0638662016826598
  0
VERTEX
  5
13DB
  8
0
 10
149.21103809286689
 20
228.17118547093199
 30
0.0
 42
0.0768515768794634
  0
VERTEX
  5
13DC
  8
0
 10
149.80441640663719
 20
228.42804273433319
 30
0.0
 42
0.1071542864067526
 70
     2
 50
32.1957339347097
  0
VERTEX
  5
13DD
  8
0
 10
150.24003724468079
 20
228.8550519466034
 30
0.0
 42
0.1465066387553817
 50
32.1957339347097
  0
VERTEX
  5
13DE
  8
0
 10
150.3692819000631
 20
229.28667239720249
 30
0.0
 42
0.1465066387556817
  0
VERTEX
  5
13DF
  8
0
 10
150.24003724468051
 20
229.71829284780151
 30
0.0
 42
0.107154286406845
  0
VERTEX
  5
13E0
  8
0
 10
149.80441640663719
 20
230.1453020600716
 30
0.0
 42
0.0768515768794924
 70
     2
 50
147.80426606529031
  0
VERTEX
  5
13E1
  8
0
 10
149.21103809286689
 20
230.4021593234728
 30
0.0
 42
0.0638662016826858
 50
147.80426606529031
  0
SEQEND
  5
13E2
  8
0
  6
CONTINUOUS
 62
     0
  0
POLYLINE
  5
13E3
  8
3
 66
     1
 10
0.0
 20
0.0
 30
0.0
 70
     1
1001
ACAD
1000
ASC_BOUNDS
1002
{
1070
    19
1005
1426
1002
}
  0
VERTEX
  5
13E4
  8
0
 10
147.15499618577729
 20
228.5723866829164
 30
0.0
  0
VERTEX
  5
13E5
  8
0
 10
148.4407104714918
 20
228.57238668291649
 30
0.0
 42
0.0598207225921702
  0
VERTEX
  5
13E6
  8
0
 10
148.92775935621111
 20
228.63086718895309
 30
0.0
 42
0.0733124203438316
  0
VERTEX
  5
13E7
  8
0
 10
149.2993401343611
 20
228.7815961249261
 30
0.0
 42
0.1067926625741322
 70
     2
 50
30.46554491946257
  0
VERTEX
  5
13E8
  8
0
 10
149.5756530487873
 20
229.03618556107449
 30
0.0
 42
0.1545927959857233
 50
30.46554491946257
  0
VERTEX
  5
13E9
  8
0
 10
149.65499618577729
 20
229.28667239720221
 30
0.0
 42
0.1545927959856755
  0
VERTEX
  5
13EA
  8
0
 10
149.5756530487873
 20
229.53715923332999
 30
0.0
 42
0.1067926625740517
  0
VERTEX
  5
13EB
  8
0
 10
149.2993401343611
 20
229.79174866947841
 30
0.0
 42
0.0733124203438496
 70
     2
 50
149.53445508053741
  0
VERTEX
  5
13EC
  8
0
 10
148.92775935621131
 20
229.9424776054513
 30
0.0
 42
0.0598207225922329
 50
149.53445508053741
  0
VERTEX
  5
13ED
  8
0
 10
148.4407104714918
 20
230.0009581114879
 30
0.0
  0
VERTEX
  5
13EE
  8
0
 10
147.15499618577729
 20
230.0009581114879
 30
0.0
  0
SEQEND
  5
13EF
  8
0
  6
CONTINUOUS
 62
     0
  0
POLYLINE
  5
13F0
  8
3
 66
     1
 10
0.0
 20
0.0
 30
0.0
 70
   129
1001
ACAD
1000
ASC_BOUNDS
1002
{
1070
    19
1005
1426
1002
}
  0
VERTEX
  5
181D
  8
3
 10
155.2407446640299
 20
228.18667239720361
 30
0.0
 42
-0.8428571428574707
  0
VERTEX
  5
181E
  8
3
 10
151.2407446640301
 20
228.1866723972023
 30
0.0
  0
VERTEX
  5
181F
  8
3
 10
151.2407446640299
 20
230.50095811148799
 30
0.0
  0
VERTEX
  5
1820
  8
3
 10
151.95503037831591
 20
230.50095811148799
 30
0.0
  0
VERTEX
  5
1821
  8
3
 10
151.95503037831591
 20
228.18667239720219
 30
0.0
 42
0.9222222222221308
  0
VERTEX
  5
1822
  8
3
 10
154.5264589497443
 20
228.1866723972023
 30
0.0
  0
VERTEX
  5
1823
  8
3
 10
154.5264589497441
 20
230.50095811148799
 30
0.0
  0
VERTEX
  5
1824
  8
3
 10
155.2407446640299
 20
230.50095811148799
 30
0.0
  0
SEQEND
  5
1825
  8
3
  0
POLYLINE
  5
13F1
  8
3
 66
     1
 10
0.0
 20
0.0
 30
0.0
1001
ACAD
1000
ASC_BOUNDS
1002
{
1070
    19
1005
1426
1002
}
  0
VERTEX
  5
13F2
  8
0
 10
159.3533518799878
 20
229.33838636180531
 30
0.0
  0
VERTEX
  5
13F3
  8
0
 10
160.0890428761038
 20
229.33838636180531
 30
0.0
 42
0.0731441652054269
 50
28.300755766006681
  0
VERTEX
  5
13F4
  8
0
 10
160.11295314749199
 20
229.5009581114879
 30
0.0
 42
0.1654118402241002
  0
VERTEX
  5
13F5
  8
0
 10
159.99585588940349
 20
229.8452301746382
 30
0.0
 42
0.1056769941633883
  0
VERTEX
  5
13F6
  8
0
 10
159.56900859826709
 20
230.20806489267451
 30
0.0
 42
0.068731699995536
 70
     2
 50
151.69924423399331
  0
VERTEX
  5
13F7
  8
0
 10
159.0042756614049
 20
230.4185029822811
 30
0.0
 42
0.0549166740501718
 50
151.69924423399331
  0
VERTEX
  5
13F8
  8
0
 10
158.2558102903491
 20
230.50095811148799
 30
0.0
 42
0.054916674050175
  0
VERTEX
  5
13F9
  8
0
 10
157.5073449192929
 20
230.4185029822811
 30
0.0
 42
0.068731699995473
  0
VERTEX
  5
13FA
  8
0
 10
156.94261198243109
 20
230.20806489267451
 30
0.0
 42
0.1056769941631037
 70
     2
 50
208.30075576600669
  0
VERTEX
  5
13FB
  8
0
 10
156.51576469129429
 20
229.8452301746382
 30
0.0
 42
0.1654118402234486
 50
208.30075576600669
  0
VERTEX
  5
13FC
  8
0
 10
156.3986674332061
 20
229.5009581114879
 30
0.0
 42
0.165411840223518
  0
VERTEX
  5
13FD
  8
0
 10
156.51576469129441
 20
229.15668604833729
 30
0.0
 42
0.0573677152738729
  0
VERTEX
  5
13FE
  8
0
 10
156.72920655048571
 20
228.9367084731584
 30
0.0
  0
VERTEX
  5
13FF
  8
0
 10
158.89487173374201
 20
227.9762559139385
 30
0.0
 42
-0.0324398768999721
  0
VERTEX
  5
1400
  8
0
 10
159.06393232599089
 20
227.90501912930901
 30
0.0
 42
-0.1042029417663218
 70
     2
 50
333.43494882292202
  0
VERTEX
  5
1401
  8
0
 10
159.32890103123631
 20
227.69453356801071
 30
0.0
 42
-0.1747045211885041
  0
VERTEX
  5
1402
  8
0
 10
159.3986674332063
 20
227.5009581114881
 30
0.0
 42
-0.1747045211886798
  0
VERTEX
  5
1403
  8
0
 10
159.3289010312362
 20
227.30738265496529
 30
0.0
 42
-0.1042029417661885
  0
VERTEX
  5
1404
  8
0
 10
159.06393232599089
 20
227.0968970936672
 30
0.0
 42
-0.0649481016502815
 70
     2
 50
206.56505117707789
  0
VERTEX
  5
1405
  8
0
 10
158.71801691336469
 20
226.97689007378909
 30
0.0
 42
-0.0510992989620986
  0
VERTEX
  5
1406
  8
0
 10
158.2558102903491
 20
226.92952954005949
 30
0.0
 42
-0.0510992989620986
  0
VERTEX
  5
1407
  8
0
 10
157.79360366733351
 20
226.97689007378909
 30
0.0
 42
-0.0649481016502818
  0
VERTEX
  5
1408
  8
0
 10
157.4476882547072
 20
227.0968970936672
 30
0.0
 42
-0.1042029417662831
 70
     2
 50
153.434948822922
  0
VERTEX
  5
1409
  8
0
 10
157.18271954946201
 20
227.30738265496541
 30
0.0
 42
-0.1747045211887488
  0
VERTEX
  5
140A
  8
0
 10
157.11295314749191
 20
227.5009581114881
 30
0.0
 42
-0.1423055512875743
  0
VERTEX
  5
140B
  8
0
 10
157.16017924191181
 20
227.66352986117039
 30
0.0
  0
VERTEX
  5
140C
  8
0
 10
156.42257770463971
 20
227.66352986117039
 30
0.0
 42
0.0731441652080551
  0
VERTEX
  5
140D
  8
0
 10
156.3986674332061
 20
227.5009581114881
 30
0.0
 42
0.1654118402234486
  0
VERTEX
  5
140E
  8
0
 10
156.51576469129429
 20
227.15668604833789
 30
0.0
 42
0.1056769941631037
  0
VERTEX
  5
140F
  8
0
 10
156.94261198243109
 20
226.79385133030161
 30
0.0
 42
0.068731699995473
 70
     2
 50
151.69924423399331
  0
VERTEX
  5
1410
  8
0
 10
157.5073449192929
 20
226.58341324069499
 30
0.0
 42
0.054916674050175
  0
VERTEX
  5
1411
  8
0
 10
158.2558102903491
 20
226.5009581114881
 30
0.0
 42
0.0549166740501718
  0
VERTEX
  5
1412
  8
0
 10
159.0042756614049
 20
226.58341324069491
 30
0.0
 42
0.068731699995536
  0
VERTEX
  5
1413
  8
0
 10
159.56900859826709
 20
226.79385133030161
 30
0.0
 42
0.1056769941633883
 70
     2
 50
208.30075576600669
  0
VERTEX
  5
1414
  8
0
 10
159.99585588940349
 20
227.15668604833789
 30
0.0
 42
0.1654118402241002
  0
VERTEX
  5
1415
  8
0
 10
160.11295314749199
 20
227.5009581114881
 30
0.0
 42
0.165411840223883
  0
VERTEX
  5
1416
  8
0
 10
159.9958558894036
 20
227.8452301746384
 30
0.0
 42
0.0573677152753158
  0
VERTEX
  5
1417
  8
0
 10
159.78241403020249
 20
228.0652077498174
 30
0.0
  0
VERTEX
  5
1418
  8
0
 10
157.4476882547101
 20
229.096897093667
 30
0.0
 42
-0.1042029417670304
 70
     2
 50
333.43494882292202
  0
VERTEX
  5
1419
  8
0
 10
157.18271954946209
 20
229.3073826549651
 30
0.0
 42
-0.1747045211890624
  0
VERTEX
  5
141A
  8
0
 10
157.11295314749191
 20
229.5009581114879
 30
0.0
 42
-0.1747045211887488
  0
VERTEX
  5
141B
  8
0
 10
157.18271954946201
 20
229.69453356801071
 30
0.0
 42
-0.1042029417662831
 50
206.565051177078
  0
VERTEX
  5
141C
  8
0
 10
157.4476882547072
 20
229.90501912930881
 30
0.0
 42
-0.0649481016502818
 70
     2
 50
206.565051177078
  0
VERTEX
  5
141D
  8
0
 10
157.79360366733351
 20
230.025026149187
 30
0.0
 42
-0.0510992989620986
  0
VERTEX
  5
141E
  8
0
 10
158.2558102903491
 20
230.07238668291649
 30
0.0
 42
-0.0510992989620986
  0
VERTEX
  5
141F
  8
0
 10
158.71801691336469
 20
230.025026149187
 30
0.0
 42
-0.0649481016502815
 50
153.434948822922
  0
VERTEX
  5
1420
  8
0
 10
159.06393232599089
 20
229.90501912930881
 30
0.0
 42
-0.1042029417661885
 70
     2
 50
153.434948822922
  0
VERTEX
  5
1421
  8
0
 10
159.3289010312362
 20
229.6945335680108
 30
0.0
 42
-0.1747045211886798
  0
VERTEX
  5
1422
  8
0
 10
159.3986674332063
 20
229.5009581114879
 30
0.0
 42
-0.1424086766312409
  0
VERTEX
  5
1423
  8
0
 10
159.35137558881249
 20
229.3382827887736
 30
0.0
 50
26.565051177078029
  0
SEQEND
  5
1424
  8
0
  6
CONTINUOUS
 62
     0
  0
POLYLINE
  5
1425
  8
3
 66
     1
 10
0.0
 20
0.0
 30
0.0
 70
   129
1001
ACAD
1000
ASC_BOUNDS
1002
{
1070
    19
1005
1426
1002
}
  0
VERTEX
  5
1826
  8
3
 10
161.9164656140691
 20
230.50095811148799
 30
0.0
  0
VERTEX
  5
1827
  8
3
 10
161.9164656140689
 20
228.85810096863071
 30
0.0
  0
VERTEX
  5
1828
  8
3
 10
164.48789418549731
 20
228.85810096863071
 30
0.0
  0
VERTEX
  5
1829
  8
3
 10
164.48789418549751
 20
230.50095811148799
 30
0.0
  0
VERTEX
  5
182A
  8
3
 10
165.20217989978309
 20
230.50095811148799
 30
0.0
  0
VERTEX
  5
182B
  8
3
 10
165.20217989978289
 20
226.5009581114879
 30
0.0
  0
VERTEX
  5
182C
  8
3
 10
164.48789418549711
 20
226.5009581114879
 30
0.0
  0
VERTEX
  5
182D
  8
3
 10
164.48789418549731
 20
228.35810096863091
 30
0.0
  0
VERTEX
  5
182E
  8
3
 10
161.91646561406861
 20
228.35810096863091
 30
0.0
  0
VERTEX
  5
182F
  8
3
 10
161.91646561406861
 20
226.5009581114879
 30
0.0
  0
VERTEX
  5
1830
  8
3
 10
161.20217989978309
 20
226.5009581114879
 30
0.0
  0
VERTEX
  5
1831
  8
3
 10
161.20217989978309
 20
230.50095811148799
 30
0.0
  0
SEQEND
  5
1832
  8
3
  0
INSERT
  5
1426
  8
3
  6
CONTINUOUS
  2
*X0
 10
0.0
 20
0.0
 30
0.0
1001
ACAD
1000
HATCH
1002
{
1070
    19
1000
DOTS
1040
2.8571428571428572
1040
0.0
1000
ASC_BOUNDS
1070
     5
1070
     2
1070
     1
1005
13F1
1070
     2
1070
     1
1005
13D4
1070
     2
1070
     1
1005
13E3
1070
     2
1070
     1
1005
13F0
1070
     2
1070
     1
1005
1425
1000
ASC_SEEDPOINT
1011
-719.74578545863358
1021
0.0
1031
0.0
1021
-47.007702855042332
1031
0.0
1000
R14_HATCH_DATA
1000
1426
1011
1.0
1021
0.0
1031
0.0
1021
0.0
1031
0.0
1011
0.0
1021
0.0
1031
0.0
1021
1.0
1031
0.0
1011
0.0
1021
0.0
1031
0.0
1021
0.0
1031
1.0
1040
0.0
1010
0.0
1020
0.0
1030
1.0
1000
DOTS
1070
     0
1070
     1
1071
        5
1071
        1
1071
       12
1070
     1
1040
161.9164656140691
1040
230.50095811148799
1040
161.9164656140689
1040
228.85810096863071
1070
     1
1040
161.9164656140689
1040
228.85810096863071
1040
164.48789418549731
1040
228.85810096863071
1070
     1
1040
164.48789418549731
1040
228.85810096863071
1040
164.48789418549751
1040
230.50095811148799
1070
     1
1040
164.48789418549751
1040
230.50095811148799
1040
165.20217989978309
1040
230.50095811148799
1070
     1
1040
165.20217989978309
1040
230.50095811148799
1040
165.20217989978289
1040
226.5009581114879
1070
     1
1040
165.20217989978289
1040
226.5009581114879
1040
164.48789418549711
1040
226.5009581114879
1070
     1
1040
164.48789418549711
1040
226.5009581114879
1040
164.48789418549731
1040
228.35810096863091
1070
     1
1040
164.48789418549731
1040
228.35810096863091
1040
161.91646561406861
1040
228.35810096863091
1070
     1
1040
161.91646561406861
1040
228.35810096863091
1040
161.91646561406861
1040
226.5009581114879
1070
     1
1040
161.91646561406861
1040
226.5009581114879
1040
161.20217989978309
1040
226.5009581114879
1070
     1
1040
161.20217989978309
1040
226.5009581114879
1040
161.20217989978309
1040
230.50095811148799
1070
     1
1040
161.20217989978309
1040
230.50095811148799
1040
161.9164656140691
1040
230.50095811148799
1071
        1
1005
1425
1071
        1
1071
        8
1070
     2
1040
153.2407446640299
1040
228.53025593231109
1040
2.0292978208229902
1040
0.1701310799365601
1040
2.9714615736525509
1070
     0
1070
     1
1040
151.2407446640301
1040
228.1866723972023
1040
151.2407446640299
1040
230.50095811148799
1070
     1
1040
151.2407446640299
1040
230.50095811148799
1040
151.95503037831591
1040
230.50095811148799
1070
     1
1040
151.95503037831591
1040
230.50095811148799
1040
151.95503037831591
1040
228.18667239720219
1070
     2
1040
153.2407446640301
1040
228.2908892646723
1040
1.289931153184112
1040
3.2224733888050521
1040
6.2023045719643699
1070
     1
1070
     1
1040
154.5264589497443
1040
228.1866723972023
1040
154.5264589497441
1040
230.50095811148799
1070
     1
1040
154.5264589497441
1040
230.50095811148799
1040
155.2407446640299
1040
230.50095811148799
1070
     1
1040
155.2407446640299
1040
230.50095811148799
1040
155.2407446640299
1040
228.18667239720361
1071
        1
1005
13F0
1071
       16
1071
       11
1070
     1
1040
147.15499618577729
1040
228.5723866829164
1040
148.4407104714918
1040
228.57238668291649
1070
     2
1040
148.4407104714916
1040
230.62979522810161
1040
2.057408545185154
1040
4.7123889803847581
1040
4.9513870559216038
1070
     1
1070
     2
1040
148.60231709601871
1040
229.9665352901086
1040
1.3747443184692529
1040
4.9513870559213577
1040
5.2441130476433537
1070
     1
1070
     2
1040
148.84830366186031
1040
229.54835812817711
1040
0.8895829748570459
1040
5.2441130476436628
1040
5.6696708065084662
1070
     1
1070
     2
1040
149.21993027409471
1040
229.2866723972021
1040
0.4350659116826454
1040
5.6696708065097061
1040
6.2831853071797816
1070
     1
1070
     2
1040
149.21993027409439
1040
229.2866723972023
1040
0.4350659116829548
1040
6.2831853071793251
1040
6.8966998078492132
1070
     1
1070
     2
1040
148.8483036618602
1040
229.02498666622691
1040
0.8895829748574992
1040
0.6135145006715062
1040
1.039072259536
1070
     1
1070
     2
1040
148.60231709601919
1040
228.6068095042969
1040
1.3747443184681181
1040
1.0390722595361279
1040
1.331798251258197
1070
     1
1070
     2
1040
148.44071047149171
1040
227.94354956630389
1040
2.057408545183991
1040
1.3317982512577871
1040
1.5707963267948819
1070
     1
1070
     1
1040
148.4407104714918
1040
230.0009581114879
1040
147.15499618577729
1040
230.0009581114879
1070
     1
1040
147.15499618577729
1040
230.0009581114879
1040
147.15499618577729
1040
228.5723866829164
1071
        1
1005
13E3
1071
        1
1071
       13
1070
     1
1040
148.4407104714918
1040
230.5009581114879
1040
146.44071047149151
1040
230.5009581114879
1070
     1
1040
146.44071047149151
1040
230.5009581114879
1040
146.44071047149171
1040
226.5009581114879
1070
     1
1040
146.44071047149171
1040
226.5009581114879
1040
147.15499618577729
1040
226.5009581114879
1070
     1
1040
147.15499618577729
1040
226.5009581114879
1040
147.15499618577761
1040
228.07238668291691
1070
     1
1040
147.15499618577761
1040
228.07238668291691
1040
148.4407104714918
1040
228.07238668291691
1070
     2
1040
148.44071047149171
1040
231.12488285662911
1040
3.0524961737121989
1040
4.7123889803847083
1040
4.9675072969370104
1070
     1
1070
     2
1040
148.67709945906839
1040
230.21848729811919
1040
2.1157824170425772
1040
4.9675072969368737
1040
5.274310542641417
1070
     1
1070
     2
1040
149.0374172368372
1040
229.64621788636839
1040
1.4395271541411909
1040
5.274310542641488
1040
5.7012984313820168
1070
     1
1070
     2
1040
149.58394809372609
1040
229.28667239720249
1040
0.7853338063369476
1040
5.7012984313818409
1040
6.2831853071795489
1070
     1
1070
     2
1040
149.58394809372729
1040
229.28667239720241
1040
0.7853338063357854
1040
0.0000000000001086
1040
0.5818868757989805
1070
     1
1070
     2
1040
149.03741723683831
1040
228.92712690803819
1040
1.4395271541391279
1040
0.5818868757971875
1040
1.00887476453808
1070
     1
1070
     2
1040
148.67709945906881
1040
228.3548574962864
1040
2.1157824170417712
1040
1.008874764538118
1040
1.315678010242779
1070
     1
1070
     2
1040
148.4407104714916
1040
227.4484619377769
1040
3.0524961737110021
1040
1.3156780102424539
1040
1.570796326794859
1070
     1
1071
        1
1005
13D4
1071
       33
1071
       49
1070
     1
1040
159.3533518799878
1040
229.33838636180531
1040
160.0890428761038
1040
229.33838636180531
1070
     2
1040
159.54831558263251
1040
229.5009581113367
1040
0.5646375648595108
1040
5.9911287465332537
1040
6.2831853074474751
1070
     1
1070
     2
1040
159.54831558263319
1040
229.5009581114881
1040
0.5646375648588276
1040
6.283185307179334
1040
6.9388953764549788
1070
     1
1070
     2
1040
158.93366019546181
1040
229.0281321446075
1040
1.340115249860371
1040
0.6557100692738996
1040
1.0768549578752851
1070
     1
1070
     2
1040
158.52482491055531
1040
228.26886661549489
1040
2.2024553416358059
1040
1.0768549578754181
1040
1.35135005848251
1070
     1
1070
     2
1040
158.25581029034899
1040
227.0627289469947
1040
3.4382291644932921
1040
1.35135005848222
1040
1.570796326794855
1070
     1
1070
     2
1040
158.25581029034899
1040
227.06272894699291
1040
3.4382291644951399
1040
1.570796326794863
1040
1.790242595107512
1070
     1
1070
     2
1040
157.98679567014341
1040
228.26886661549469
1040
2.2024553416362238
1040
1.790242595107663
1040
2.0647376957145069
1070
     1
1070
     2
1040
157.57796038523861
1040
229.02813214460369
1040
1.34011524986474
1040
2.0647376957145318
1040
2.4858825843147869
1070
     1
1070
     2
1040
156.96330499806689
1040
229.5009581114879
1040
0.5646375648607626
1040
2.4858825843165349
1040
3.1415926535896421
1070
     1
1070
     2
1040
156.9633049980672
1040
229.5009581114879
1040
0.5646375648611013
1040
3.1415926535897931
1040
3.7973027228631642
1070
     1
1070
     2
1040
157.57796038525581
1040
229.97378407835049
1040
1.3401152498653419
1040
3.797302722844409
1040
4.0265223461331434
1070
     1
1070
     1
1040
156.72920655048571
1040
228.9367084731584
1040
158.89487173374201
1040
227.9762559139385
1070
     2
1040
158.43098889060639
1040
226.639132258541
1040
1.4153045474310439
1040
5.046322570350382
1040
5.1760365893857641
1070
     0
1070
     2
1040
158.69691049319209
1040
227.1709754637115
1040
0.8206857673645476
1040
5.1760365893854949
1040
5.5913494935359509
1070
     0
1070
     2
1040
159.0952347849956
1040
227.5009581114881
1040
0.3034326482107266
1040
5.5913494935383774
1040
6.2831853071795862
1070
     0
1070
     2
1040
159.0952347849956
1040
227.5009581114881
1040
0.3034326482107588
1040
6.2831853071794921
1040
6.9750211208213351
1070
     0
1070
     2
1040
158.69691049319201
1040
227.83094075926519
1040
0.8206857673650304
1040
0.6918358136442305
1040
1.1071487177941519
1070
     0
1070
     2
1040
158.43098889060681
1040
228.36278396443521
1040
1.415304547430891
1040
1.107148717794036
1040
1.366576755866695
1070
     0
1070
     2
1040
158.25581029034899
1040
229.2086210695941
1040
2.2790915295346128
1040
1.3665767558666451
1040
1.5707963267948459
1070
     0
1070
     2
1040
158.25581029034919
1040
229.2086210695941
1040
2.279091529534611
1040
1.5707963267949461
1040
1.7750158977231469
1070
     0
1070
     2
1040
158.08063169009139
1040
228.36278396443569
1040
1.4153045474313251
1040
1.7750158977229931
1040
2.0344439357956481
1070
     0
1070
     2
1040
157.81471008750589
1040
227.83094075926431
1040
0.8206857673641662
1040
2.0344439357957791
1040
2.4497568399460801
1070
     0
1070
     2
1040
157.41638579570241
1040
227.5009581114881
1040
0.3034326482105621
1040
2.4497568399477689
1040
3.1415926535898859
1070
     0
1070
     2
1040
157.41638579570221
1040
227.50095811148819
1040
0.3034326482102756
1040
3.1415926535896048
1040
3.7070184662771091
1070
     0
1070
     1
1040
157.16017924191181
1040
227.66352986117039
1040
156.42257770463971
1040
227.66352986117039
1070
     2
1040
156.96330499806729
1040
227.50095811148799
1040
0.5646375648611596
1040
2.849536092664867
1040
3.1415926535895409
1070
     1
1070
     2
1040
156.96330499806689
1040
227.50095811148819
1040
0.5646375648607603
1040
3.1415926535899441
1040
3.79730272286305
1070
     1
1070
     2
1040
157.57796038523841
1040
227.9737840783724
1040
1.340115249864642
1040
3.7973027228648788
1040
4.2184476114651366
1070
     1
1070
     2
1040
157.98679567014341
1040
228.73304960748141
1040
2.202455341636222
1040
4.218447611465078
1040
4.4929427120719216
1070
     1
1070
     2
1040
158.25581029034919
1040
229.93918727598319
1040
3.438229164495167
1040
4.492942712071998
1040
4.7123889803846479
1070
     1
1070
     2
1040
158.25581029034899
1040
229.93918727598131
1040
3.438229164493293
1040
4.7123889803847296
1040
4.9318352486973662
1070
     1
1070
     2
1040
158.52482491055511
1040
228.73304960748121
1040
2.2024553416358761
1040
4.9318352486971611
1040
5.2063303493042534
1070
     1
1070
     2
1040
158.9336601954619
1040
227.97378407836851
1040
1.340115249860272
1040
5.206330349304217
1040
5.6274752379056041
1070
     1
1070
     2
1040
159.54831558263319
1040
227.50095811148799
1040
0.5646375648588216
1040
5.6274752379041919
1040
6.2831853071798367
1070
     1
1070
     2
1040
159.54831558263251
1040
227.50095811148819
1040
0.5646375648595381
1040
6.2831853071794352
1040
6.9388953764542487
1070
     1
1070
     2
1040
158.93366019546119
1040
227.02813214460619
1040
1.340115249861807
1040
0.6557100692744931
1040
0.8849296925689792
1070
     1
1070
     1
1040
159.78241403020249
1040
228.0652077498174
1040
157.4476882547101
1040
229.096897093667
1070
     2
1040
157.8147100875037
1040
229.8309407592659
1040
0.8206857673635688
1040
2.0344439357892901
1040
2.4497568399425571
1070
     0
1070
     2
1040
157.4163857957021
1040
229.50095811148779
1040
0.3034326482102519
1040
2.4497568399468008
1040
3.141592653590167
1070
     0
1070
     2
1040
157.41638579570241
1040
229.50095811148799
1040
0.3034326482105598
1040
3.141592653589699
1040
3.833428467231816
1070
     0
1070
     2
1040
157.81471008750589
1040
229.1709754637117
1040
0.8206857673641621
1040
3.8334284672335048
1040
4.2487413713838063
1070
     0
1070
     2
1040
158.08063169009139
1040
228.6391322585404
1040
1.4153045474313239
1040
4.2487413713839368
1040
4.5081694094565918
1070
     0
1070
     2
1040
158.25581029034919
1040
227.79329515338199
1040
2.2790915295346128
1040
4.5081694094564391
1040
4.712388980384639
1070
     0
1070
     2
1040
158.25581029034899
1040
227.79329515338199
1040
2.279091529534611
1040
4.7123889803847394
1040
4.9166085513129403
1070
     0
1070
     2
1040
158.43098889060681
1040
228.6391322585408
1040
1.415304547430891
1040
4.9166085513128897
1040
5.17603658938555
1070
     0
1070
     2
1040
158.69691049319209
1040
229.1709754637109
1040
0.8206857673649416
1040
5.1760365893852942
1040
5.591349493535219
1070
     0
1070
     2
1040
159.09523478499551
1040
229.50095811148799
1040
0.3034326482108134
1040
5.5913494935378836
1040
6.2831853071797727
1070
     0
1070
     2
1040
159.0952347849956
1040
229.5009581114879
1040
0.3034326482106735
1040
6.2831853071795862
1040
6.8490154277212669
1070
     0
1071
        1
1005
13F1
1070
     0
1070
     1
1040
0.0
1040
2.8571428571428572
1070
     0
1070
     1
1040
0.0
1040
-719.74578545863358
1040
-47.007702855042332
1040
0.0892857142857143
1040
0.1785714285714286
1070
     2
1040
0.0
1040
-0.1785714285714286
1071
        1
1040
-719.74578545863358
1040
-47.007702855042332
1040
0.0
1002
}
  0
CIRCLE
  5
1427
  8
0
 10
135.202179899783
 20
228.5009581114887
 30
0.0
 40
1.0
  0
CIRCLE
  5
1428
  8
0
 10
138.202179899783
 20
228.5009581114887
 30
0.0
 40
1.0
  0
CIRCLE
  5
1429
  8
0
 10
132.202179899783
 20
228.5009581114887
 30
0.0
 40
1.0
  0
CIRCLE
  5
142A
  8
0
 10
129.202179899783
 20
228.5009581114887
 30
0.0
 40
1.0
  0
CIRCLE
  5
142B
  8
0
 10
126.202179899783
 20
228.5009581114887
 30
0.0
 40
1.0
  0
ARC
  5
142C
  8
3
 10
101.93230420446309
 20
228.5009581114887
 30
0.0
 40
20.0
 50
342.98028237212071
 51
17.019717627879281
  0
LINE
  5
142D
  8
0
 10
114.202179899783
 20
230.2330089176472
 30
0.0
 11
115.702179899783
 21
229.36698351386309
 31
0.0
  0
LINE
  5
142E
  8
0
 10
112.702179901004
 20
229.3669835145686
 30
0.0
 11
114.202179901004
 21
230.23300891835319
 31
0.0
  0
LINE
  5
142F
  8
0
 10
112.702179901004
 20
227.63493270840971
 30
0.0
 11
112.702179901004
 21
229.36698351597849
 31
0.0
  0
LINE
  5
1430
  8
0
 10
114.202179899783
 20
226.7689073053302
 30
0.0
 11
112.702179899783
 21
227.63493270911439
 31
0.0
  0
LINE
  5
1431
  8
0
 10
115.7021798985606
 20
227.63493270840891
 30
0.0
 11
114.20217989856199
 21
226.76890730462421
 31
0.0
  0
LINE
  5
1432
  8
0
 10
115.70217989856199
 20
229.3669835145688
 30
0.0
 11
115.70217989856199
 21
227.63493270699999
 31
0.0
  0
CIRCLE
  5
1433
  8
0
 10
114.202179899783
 20
228.5009581114887
 30
0.0
 40
4.0
  0
ARC
  5
1434
  8
3
 10
125.4799234684229
 20
206.7509581114887
 30
0.0
 40
16.5
 50
90.0
 51
117.40750441603539
  0
ARC
  5
1435
  8
3
 10
125.4799234684229
 20
250.2509581114887
 30
0.0
 40
16.5
 50
242.59249558396459
 51
270.0
  0
ARC
  5
1436
  8
3
 10
114.202179899783
 20
228.5009581114887
 30
0.0
 40
8.0
 50
62.592495583964578
 51
297.40750441603541
  0
ARC
  5
1437
  8
3
 10
170.45217989978309
 20
228.5009581114887
 30
0.0
 40
5.25
 50
270.0
 51
90.0
  0
LINE
  5
1438
  8
3
 10
125.4799234684229
 20
233.7509581114887
 30
0.0
 11
170.45217989978309
 21
233.7509581114887
 31
0.0
  0
LINE
  5
1439
  8
3
 10
125.4799234684229
 20
223.2509581114887
 30
0.0
 11
170.45217989978309
 21
223.2509581114887
 31
0.0
  0
ARC
  5
143A
  8
0
 10
125.4799234684229
 20
206.7509581114887
 30
0.0
 40
15.0
 50
90.0
 51
117.40750441603539
  0
ARC
  5
143B
  8
0
 10
125.4799234684229
 20
250.2509581114887
 30
0.0
 40
15.0
 50
242.59249558396459
 51
270.0
  0
ARC
  5
143C
  8
0
 10
170.45217989978309
 20
228.5009581114887
 30
0.0
 40
6.75
 50
270.0
 51
90.0
  0
LINE
  5
143D
  8
0
 10
125.4799234684229
 20
221.7509581114887
 30
0.0
 11
170.45217989978309
 21
221.7509581114887
 31
0.0
  0
LINE
  5
143E
  8
0
 10
125.4799234684229
 20
235.2509581114887
 30
0.0
 11
170.45217989978309
 21
235.2509581114887
 31
0.0
  0
LINE
  5
143F
  8
1
 10
99.702179899783005
 20
228.5009581114887
 30
0.0
 11
182.20217989978309
 21
228.5009581114887
 31
0.0
  0
LINE
  5
1440
  8
1
 10
114.202179899783
 20
214.0009581114887
 30
0.0
 11
114.202179899783
 21
243.0009581114887
 31
0.0
  0
ARC
  5
1441
  8
0
 10
114.202179899783
 20
228.5009581114887
 30
0.0
 40
9.5
 50
62.592495583964578
 51
297.40750441603541
  0
LINE
  5
1442
  8
0
 10
117.40217989978321
 20
162.19108772705391
 30
0.0
 11
111.0021798997831
 21
162.19108772705391
 31
0.0
  0
ARC
  5
1443
  8
0
 10
111.0021798997831
 20
161.3910877270539
 30
0.0
 40
0.8
 50
90.0
 51
157.97568716295061
  0
ARC
  5
1444
  8
0
 10
106.7021798997831
 20
159.691087727054
 30
0.0
 40
2.0
 50
90.0
 51
180.0
  0
ARC
  5
1445
  8
0
 10
117.40217989978299
 20
161.3910877270539
 30
0.0
 40
0.8
 50
22.02431283704933
 51
90.0
  0
ARC
  5
1446
  8
0
 10
123.2021798997832
 20
137.191087727054
 30
0.0
 40
0.5
 50
270.0
 51
0.0
  0
ARC
  5
1447
  8
0
 10
105.202179899783
 20
137.191087727054
 30
0.0
 40
0.5
 50
180.0
 51
270.0
  0
LINE
  5
1448
  8
3
 10
109.6103113747152
 20
124.891087727054
 30
0.0
 11
109.6103113747152
 21
130.69108772705411
 31
0.0
  0
LINE
  5
1449
  8
3
 10
108.1636808337858
 20
124.891087727054
 30
0.0
 11
108.1636808337858
 21
130.69108772705411
 31
0.0
  0
LINE
  5
144A
  8
3
 10
107.3081406541331
 20
124.891087727054
 30
0.0
 11
107.3081406541331
 21
130.69108772705411
 31
0.0
  0
LINE
  5
144B
  8
3
 10
118.7940484248509
 20
124.891087727054
 30
0.0
 11
118.7940484248509
 21
130.691087727054
 31
0.0
  0
LINE
  5
144C
  8
3
 10
120.24067896578021
 20
124.891087727054
 30
0.0
 11
120.24067896578021
 21
130.691087727054
 31
0.0
  0
LINE
  5
144D
  8
3
 10
121.0962191454329
 20
124.891087727054
 30
0.0
 11
121.0962191454329
 21
130.691087727054
 31
0.0
  0
LINE
  5
144E
  8
3
 10
106.9274521126878
 20
125.0708155141492
 30
0.0
 11
106.9274521126877
 21
130.69108772705411
 31
0.0
  0
LINE
  5
144F
  8
3
 10
121.47690768687821
 20
125.0708155141492
 30
0.0
 11
121.47690768687831
 21
130.691087727054
 31
0.0
  0
LINE
  5
1450
  8
3
 10
111.5042617016092
 20
124.8910877270539
 30
0.0
 11
111.5042617016092
 21
130.691087727054
 31
0.0
  0
LINE
  5
1451
  8
3
 10
116.900098097957
 20
124.891087727054
 30
0.0
 11
116.900098097957
 21
130.691087727054
 31
0.0
  0
ARC
  5
1452
  8
0
 10
47.928884903584731
 20
145.39108772705401
 30
0.0
 40
20.0
 50
70.275366441299695
 51
109.7246335587039
  0
LINE
  5
145E
  8
0
 10
55.428884903584681
 20
125.296087727054
 30
0.0
 11
55.428884903584681
 21
136.691087727054
 31
0.0
  0
LINE
  5
145F
  8
0
 10
40.428884903584667
 20
136.691087727054
 30
0.0
 11
40.428884903584667
 21
125.296087727054
 31
0.0
  0
LINE
  5
1460
  8
0
 10
53.928884903584667
 20
124.691087727054
 30
0.0
 11
53.928884903584667
 21
124.891087727054
 31
0.0
  0
LINE
  5
1461
  8
0
 10
41.928884903584667
 20
124.891087727054
 30
0.0
 11
41.928884903584667
 21
124.691087727054
 31
0.0
  0
LINE
  5
1462
  8
0
 10
55.023884903584637
 20
124.891087727054
 30
0.0
 11
55.428884903584681
 21
125.296087727054
 31
0.0
  0
LINE
  5
1463
  8
0
 10
40.428884903584667
 20
125.296087727054
 30
0.0
 11
40.833884903584647
 21
124.891087727054
 31
0.0
  0
LINE
  5
1464
  8
0
 10
41.928884903584667
 20
124.691087727054
 30
0.0
 11
53.928884903584667
 21
124.691087727054
 31
0.0
  0
LINE
  5
1465
  8
0
 10
40.42888490358461
 20
130.691087727054
 30
0.0
 11
55.428884903584681
 21
130.691087727054
 31
0.0
  0
LINE
  5
1466
  8
3
 10
41.415534199380083
 20
124.8910877270539
 30
0.0
 11
41.415534199380083
 21
130.691087727054
 31
0.0
  0
LINE
  5
1467
  8
3
 10
42.568022846104441
 20
124.8910877270539
 30
0.0
 11
42.568022846104441
 21
130.691087727054
 31
0.0
  0
LINE
  5
1468
  8
3
 10
44.245270022337188
 20
124.8910877270539
 30
0.0
 11
44.245270022337188
 21
130.691087727054
 31
0.0
  0
LINE
  5
1469
  8
3
 10
46.283095088400493
 20
124.891087727054
 30
0.0
 11
46.283095088400493
 21
130.691087727054
 31
0.0
  0
LINE
  5
146A
  8
3
 10
47.37574827870332
 20
124.891087727054
 30
0.0
 11
47.37574827870332
 21
130.691087727054
 31
0.0
  0
LINE
  5
146B
  8
3
 10
48.482021528465957
 20
124.891087727054
 30
0.0
 11
48.482021528465957
 21
130.691087727054
 31
0.0
  0
LINE
  5
146C
  8
3
 10
49.57467471876879
 20
124.891087727054
 30
0.0
 11
49.57467471876879
 21
130.691087727054
 31
0.0
  0
LINE
  5
146D
  8
0
 10
55.023884903584637
 20
124.891087727054
 30
0.0
 11
40.833884903584647
 21
124.891087727054
 31
0.0
  0
LINE
  5
146E
  8
3
 10
51.612499784832089
 20
124.891087727054
 30
0.0
 11
51.612499784832089
 21
130.691087727054
 31
0.0
  0
LINE
  5
146F
  8
3
 10
53.289746961064843
 20
124.891087727054
 30
0.0
 11
53.289746961064843
 21
130.691087727054
 31
0.0
  0
LINE
  5
1470
  8
3
 10
54.4422356077892
 20
124.891087727054
 30
0.0
 11
54.4422356077892
 21
130.691087727054
 31
0.0
  0
LINE
  5
1471
  8
3
 10
43.337016378516857
 20
124.891087727054
 30
0.0
 11
43.337016378516857
 21
130.69108772705411
 31
0.0
  0
LINE
  5
1472
  8
3
 10
41.890385837587409
 20
124.891087727054
 30
0.0
 11
41.890385837587409
 21
130.69108772705411
 31
0.0
  0
LINE
  5
1473
  8
3
 10
41.034845657934738
 20
124.891087727054
 30
0.0
 11
41.034845657934738
 21
130.69108772705411
 31
0.0
  0
LINE
  5
1474
  8
3
 10
52.520753428652483
 20
124.891087727054
 30
0.0
 11
52.520753428652483
 21
130.691087727054
 31
0.0
  0
LINE
  5
1475
  8
3
 10
53.967383969581881
 20
124.891087727054
 30
0.0
 11
53.967383969581881
 21
130.691087727054
 31
0.0
  0
LINE
  5
1476
  8
3
 10
54.822924149234552
 20
124.891087727054
 30
0.0
 11
54.822924149234552
 21
130.691087727054
 31
0.0
  0
LINE
  5
1477
  8
3
 10
40.654157116489444
 20
125.0708155141492
 30
0.0
 11
40.65415711648938
 21
130.69108772705411
 31
0.0
  0
LINE
  5
1478
  8
3
 10
55.203612690679847
 20
125.0708155141492
 30
0.0
 11
55.203612690679897
 21
130.691087727054
 31
0.0
  0
LINE
  5
1479
  8
3
 10
45.230966705410808
 20
124.8910877270539
 30
0.0
 11
45.230966705410808
 21
130.691087727054
 31
0.0
  0
LINE
  5
147A
  8
3
 10
50.626803101758632
 20
124.891087727054
 30
0.0
 11
50.626803101758632
 21
130.691087727054
 31
0.0
  0
LINE
  5
147B
  8
0
 10
51.12888490358489
 20
162.19108772705391
 30
0.0
 11
44.728884903584799
 21
162.19108772705391
 31
0.0
  0
ARC
  5
147C
  8
0
 10
44.728884903584799
 20
161.3910877270539
 30
0.0
 40
0.8
 50
90.0
 51
157.97568716295061
  0
ARC
  5
147D
  8
0
 10
51.128884903584662
 20
161.3910877270539
 30
0.0
 40
0.8
 50
22.02431283704933
 51
90.0
  0
ARC
  5
147E
  8
0
 10
52.17888490358451
 20
170.14142996900091
 30
0.0
 40
2.5
 50
0.0000000000016284
 51
75.944767179774232
  0
ARC
  5
147F
  8
0
 10
43.678884903584382
 20
170.1414299690008
 30
0.0
 40
2.5
 50
104.0552328202257
 51
180.00000000000321
  0
ARC
  5
1480
  8
0
 10
47.928884903584731
 20
153.16534384763591
 30
0.0
 40
20.0
 50
75.944767179774232
 51
104.0552328202257
  0
CIRCLE
  5
1481
  8
0
 10
114.2021798997831
 20
69.691087727054025
 30
0.0
 40
3.3235000000001369
  0
CIRCLE
  5
1482
  8
3
 10
114.2021798997831
 20
69.691087727054025
 30
0.0
 40
4.0
  0
ARC
  5
1483
  8
0
 10
125.7021798997831
 20
68.191087727054025
 30
0.0
 40
2.0
 50
180.0
 51
270.0
  0
ARC
  5
1484
  8
0
 10
125.7021798997832
 20
71.191087727053969
 30
0.0
 40
2.0
 50
90.0
 51
180.0
  0
LINE
  5
1485
  8
0
 10
123.7021798997832
 20
71.191087727053969
 30
0.0
 11
123.7021798997831
 21
68.191087727054025
 31
0.0
  0
ARC
  5
1486
  8
0
 10
168.9590648858979
 20
68.191087727053969
 30
0.0
 40
2.0
 50
270.0
 51
359.99999999999841
  0
ARC
  5
1487
  8
0
 10
168.9590648858979
 20
71.191087727053969
 30
0.0
 40
2.0
 50
0.0
 51
90.0
  0
LINE
  5
1488
  8
0
 10
170.95906488589799
 20
71.191087727053969
 30
0.0
 11
170.95906488589799
 21
68.191087727053912
 31
0.0
  0
LINE
  5
1489
  8
0
 10
125.7021798997831
 20
66.191087727054025
 30
0.0
 11
168.9590648858979
 21
66.191087727053969
 31
0.0
  0
LINE
  5
148A
  8
0
 10
125.7021798997832
 20
73.191087727053969
 30
0.0
 11
168.9590648858979
 21
73.191087727053969
 31
0.0
  0
CIRCLE
  5
148B
  8
0
 10
114.2021798997831
 20
69.691087727054025
 30
0.0
 40
7.5
  0
CIRCLE
  5
148C
  8
0
 10
114.2021798997831
 20
69.691087727054025
 30
0.0
 40
9.5
  0
LINE
  5
148D
  8
1
 10
114.2021798997831
 20
55.191087727054018
 30
0.0
 11
114.2021798997831
 21
84.191087727054025
 31
0.0
  0
LINE
  5
148E
  8
1
 10
99.702179899783118
 20
69.691087727054025
 30
0.0
 11
182.2021798997832
 21
69.691087727054025
 31
0.0
  0
LINE
  5
148F
  8
0
 10
125.479923468423
 20
76.441087727054025
 30
0.0
 11
170.4521798997832
 21
76.441087727054025
 31
0.0
  0
LINE
  5
1490
  8
0
 10
125.479923468423
 20
62.941087727054033
 30
0.0
 11
170.4521798997832
 21
62.941087727054033
 31
0.0
  0
ARC
  5
1491
  8
0
 10
170.4521798997832
 20
69.691087727054025
 30
0.0
 40
6.75
 50
270.0
 51
90.0
  0
ARC
  5
1492
  8
0
 10
125.479923468423
 20
91.441087727054025
 30
0.0
 40
15.0
 50
242.59249558396459
 51
270.0
  0
ARC
  5
1493
  8
0
 10
125.479923468423
 20
47.941087727054018
 30
0.0
 40
15.0
 50
90.0
 51
117.40750441603539
  0
CIRCLE
  5
1494
  8
0
 10
114.2021798997831
 20
69.691087727054025
 30
0.0
 40
5.9999999999999432
  0
LINE
  5
14A0
  8
0
 10
235.41056287357009
 20
125.296087727054
 30
0.0
 11
235.41056287357009
 21
136.691087727054
 31
0.0
  0
LINE
  5
14A1
  8
0
 10
220.41056287357009
 20
136.691087727054
 30
0.0
 11
220.41056287357009
 21
125.296087727054
 31
0.0
  0
LINE
  5
14A2
  8
0
 10
233.91056287357009
 20
124.691087727054
 30
0.0
 11
233.91056287357009
 21
124.891087727054
 31
0.0
  0
LINE
  5
14A3
  8
0
 10
221.9105628735702
 20
124.891087727054
 30
0.0
 11
221.9105628735702
 21
124.691087727054
 31
0.0
  0
LINE
  5
14A4
  8
0
 10
235.00556287357011
 20
124.891087727054
 30
0.0
 11
235.41056287357009
 21
125.296087727054
 31
0.0
  0
LINE
  5
14A5
  8
0
 10
220.41056287357009
 20
125.296087727054
 30
0.0
 11
220.81556287357009
 21
124.891087727054
 31
0.0
  0
LINE
  5
14A6
  8
0
 10
221.9105628735702
 20
124.691087727054
 30
0.0
 11
233.91056287357009
 21
124.691087727054
 31
0.0
  0
LINE
  5
14A7
  8
0
 10
220.41056287357
 20
130.691087727054
 30
0.0
 11
235.41056287357009
 21
130.691087727054
 31
0.0
  0
LINE
  5
14A8
  8
3
 10
221.3972121693655
 20
124.8910877270539
 30
0.0
 11
221.3972121693655
 21
130.691087727054
 31
0.0
  0
LINE
  5
14A9
  8
3
 10
222.5497008160898
 20
124.8910877270539
 30
0.0
 11
222.5497008160898
 21
130.691087727054
 31
0.0
  0
LINE
  5
14AA
  8
3
 10
224.22694799232261
 20
124.8910877270539
 30
0.0
 11
224.22694799232261
 21
130.691087727054
 31
0.0
  0
LINE
  5
14AB
  8
3
 10
226.26477305838591
 20
124.891087727054
 30
0.0
 11
226.26477305838591
 21
130.691087727054
 31
0.0
  0
LINE
  5
14AC
  8
3
 10
227.35742624868871
 20
124.891087727054
 30
0.0
 11
227.35742624868871
 21
130.691087727054
 31
0.0
  0
LINE
  5
14AD
  8
3
 10
228.4636994984514
 20
124.891087727054
 30
0.0
 11
228.4636994984514
 21
130.691087727054
 31
0.0
  0
LINE
  5
14AE
  8
3
 10
229.5563526887542
 20
124.891087727054
 30
0.0
 11
229.5563526887542
 21
130.691087727054
 31
0.0
  0
LINE
  5
14AF
  8
0
 10
235.00556287357011
 20
124.891087727054
 30
0.0
 11
220.81556287357009
 21
124.891087727054
 31
0.0
  0
LINE
  5
14B0
  8
3
 10
231.59417775481759
 20
124.891087727054
 30
0.0
 11
231.59417775481759
 21
130.691087727054
 31
0.0
  0
LINE
  5
14B1
  8
3
 10
233.27142493105021
 20
124.891087727054
 30
0.0
 11
233.27142493105021
 21
130.691087727054
 31
0.0
  0
LINE
  5
14B2
  8
3
 10
234.4239135777745
 20
124.891087727054
 30
0.0
 11
234.4239135777745
 21
130.691087727054
 31
0.0
  0
LINE
  5
14B3
  8
3
 10
223.31869434850231
 20
124.891087727054
 30
0.0
 11
223.31869434850231
 21
130.69108772705411
 31
0.0
  0
LINE
  5
14B4
  8
3
 10
221.87206380757291
 20
124.891087727054
 30
0.0
 11
221.87206380757291
 21
130.69108772705411
 31
0.0
  0
LINE
  5
14B5
  8
3
 10
221.01652362792009
 20
124.891087727054
 30
0.0
 11
221.01652362792009
 21
130.69108772705411
 31
0.0
  0
LINE
  5
14B6
  8
3
 10
232.5024313986379
 20
124.891087727054
 30
0.0
 11
232.5024313986379
 21
130.691087727054
 31
0.0
  0
LINE
  5
14B7
  8
3
 10
233.94906193956729
 20
124.891087727054
 30
0.0
 11
233.94906193956729
 21
130.691087727054
 31
0.0
  0
LINE
  5
14B8
  8
3
 10
234.80460211921991
 20
124.891087727054
 30
0.0
 11
234.80460211921991
 21
130.691087727054
 31
0.0
  0
LINE
  5
14B9
  8
3
 10
220.6358350864748
 20
125.0708155141492
 30
0.0
 11
220.6358350864748
 21
130.69108772705411
 31
0.0
  0
LINE
  5
14BA
  8
3
 10
235.1852906606652
 20
125.0708155141492
 30
0.0
 11
235.1852906606652
 21
130.691087727054
 31
0.0
  0
LINE
  5
14BB
  8
3
 10
225.21264467539621
 20
124.8910877270539
 30
0.0
 11
225.21264467539621
 21
130.691087727054
 31
0.0
  0
LINE
  5
14BC
  8
3
 10
230.60848107174411
 20
124.891087727054
 30
0.0
 11
230.60848107174411
 21
130.691087727054
 31
0.0
  0
ARC
  5
14BD
  8
0
 10
55.42888490358461
 20
159.691087727054
 30
0.0
 40
2.0
 50
0.0
 51
90.0
  0
ARC
  5
14BE
  8
0
 10
40.428884903584837
 20
159.691087727054
 30
0.0
 40
2.0
 50
90.0
 51
180.0
  0
ARC
  5
14BF
  8
0
 10
38.928884903584617
 20
137.19108772705391
 30
0.0
 40
0.5
 50
180.0
 51
270.0
  0
ARC
  5
14C0
  8
0
 10
56.928884903584837
 20
137.19108772705391
 30
0.0
 40
0.5
 50
270.0
 51
0.0
  0
ARC
  5
14C1
  8
0
 10
220.41056287357031
 20
159.691087727054
 30
0.0
 40
2.0
 50
90.0
 51
180.0
  0
ARC
  5
14C2
  8
0
 10
235.41056287357
 20
159.691087727054
 30
0.0
 40
2.0
 50
0.0
 51
90.0
  0
ARC
  5
14C3
  8
0
 10
236.9105628735702
 20
137.19108772705391
 30
0.0
 40
0.5
 50
270.0
 51
0.0
  0
ARC
  5
14C4
  8
0
 10
218.91056287357
 20
137.19108772705391
 30
0.0
 40
0.5
 50
180.0
 51
270.0
  0
ARC
  5
14C5
  8
0
 10
232.16056287356989
 20
170.74018868744099
 30
0.0
 40
2.5
 50
0.0000000000016284
 51
75.944767179774232
  0
ARC
  5
14C6
  8
0
 10
223.6605628735698
 20
170.74018868744079
 30
0.0
 40
2.5
 50
104.0552328202257
 51
180.00000000000321
  0
ARC
  5
14C7
  8
0
 10
232.16056287356989
 20
164.11624288724889
 30
0.0
 40
2.5
 50
284.0552328202258
 51
0.0
  0
ARC
  5
14C8
  8
0
 10
223.6605628735698
 20
164.11624288724909
 30
0.0
 40
2.5
 50
179.9999999999967
 51
255.9447671797742
  0
LINE
  5
14FD
  8
2
 10
43.928884903584731
 20
125.2145877270541
 30
0.0
 11
43.928884903584731
 21
137.69108772705391
 31
0.0
  0
LINE
  5
14FE
  8
2
 10
44.605384903584593
 20
125.891087727054
 30
0.0
 11
44.605384903584593
 21
142.69108772705391
 31
0.0
  0
LINE
  5
14FF
  8
2
 10
51.252384903584868
 20
125.891087727054
 30
0.0
 11
51.252384903584868
 21
142.69108772705391
 31
0.0
  0
LINE
  5
1500
  8
2
 10
51.928884903584731
 20
125.2145877270541
 30
0.0
 11
51.928884903584731
 21
137.69108772705391
 31
0.0
  0
LINE
  5
1501
  8
2
 10
51.252384903584868
 20
142.69108772705391
 30
0.0
 11
47.928884903584731
 21
144.68804799439221
 31
0.0
  0
LINE
  5
1502
  8
2
 10
44.605384903584593
 20
142.69108772705391
 30
0.0
 11
47.928884903584731
 21
144.68804799439221
 31
0.0
  0
LINE
  5
1503
  8
2
 10
43.928884903584731
 20
137.69108772705391
 30
0.0
 11
51.928884903584731
 21
137.69108772705391
 31
0.0
  0
LINE
  5
1504
  8
2
 10
44.605384903584593
 20
142.69108772705391
 30
0.0
 11
51.252384903584868
 21
142.69108772705391
 31
0.0
  0
LINE
  5
1505
  8
2
 10
51.928884903584731
 20
137.69108772705391
 30
0.0
 11
51.252384903584812
 21
138.86282009837419
 31
0.0
  0
LINE
  5
1506
  8
2
 10
43.928884903584787
 20
137.69108772705391
 30
0.0
 11
44.605384903584699
 21
138.86282009837419
 31
0.0
  0
LINE
  5
1507
  8
2
 10
51.252384903584762
 20
125.891087727054
 30
0.0
 11
44.60538490358465
 21
125.891087727054
 31
0.0
  0
LINE
  5
1508
  8
2
 10
51.252384903584762
 20
125.891087727054
 30
0.0
 11
52.4523849035848
 21
124.691087727054
 31
0.0
  0
LINE
  5
1509
  8
2
 10
44.605384903584699
 20
125.891087727054
 30
0.0
 11
43.405384903584661
 21
124.691087727054
 31
0.0
  0
LINE
  5
150B
  8
2
 10
110.202179899783
 20
125.2145877270541
 30
0.0
 11
110.202179899783
 21
137.69108772705391
 31
0.0
  0
LINE
  5
150C
  8
2
 10
110.8786798997829
 20
125.891087727054
 30
0.0
 11
110.8786798997829
 21
142.69108772705391
 31
0.0
  0
LINE
  5
150D
  8
2
 10
117.5256798997832
 20
125.891087727054
 30
0.0
 11
117.5256798997832
 21
142.69108772705391
 31
0.0
  0
LINE
  5
150E
  8
2
 10
118.202179899783
 20
125.2145877270541
 30
0.0
 11
118.202179899783
 21
137.69108772705391
 31
0.0
  0
LINE
  5
150F
  8
2
 10
117.5256798997832
 20
142.69108772705391
 30
0.0
 11
114.202179899783
 21
144.68804799439221
 31
0.0
  0
LINE
  5
1510
  8
2
 10
110.8786798997829
 20
142.69108772705391
 30
0.0
 11
114.202179899783
 21
144.68804799439221
 31
0.0
  0
LINE
  5
1511
  8
2
 10
110.202179899783
 20
137.69108772705391
 30
0.0
 11
118.202179899783
 21
137.69108772705391
 31
0.0
  0
LINE
  5
1512
  8
2
 10
110.8786798997829
 20
142.69108772705391
 30
0.0
 11
117.5256798997832
 21
142.69108772705391
 31
0.0
  0
LINE
  5
1513
  8
2
 10
118.202179899783
 20
137.69108772705391
 30
0.0
 11
117.5256798997831
 21
138.86282009837419
 31
0.0
  0
LINE
  5
1514
  8
2
 10
110.2021798997831
 20
137.69108772705391
 30
0.0
 11
110.87867989978299
 21
138.86282009837419
 31
0.0
  0
LINE
  5
1515
  8
2
 10
117.5256798997831
 20
125.891087727054
 30
0.0
 11
110.8786798997829
 21
125.891087727054
 31
0.0
  0
LINE
  5
1516
  8
2
 10
117.5256798997831
 20
125.891087727054
 30
0.0
 11
118.7256798997831
 21
124.691087727054
 31
0.0
  0
LINE
  5
1517
  8
2
 10
110.87867989978299
 20
125.891087727054
 30
0.0
 11
109.67867989978301
 21
124.691087727054
 31
0.0
  0
LINE
  5
1519
  8
2
 10
223.9105628735702
 20
125.2145877270541
 30
0.0
 11
223.9105628735702
 21
137.69108772705391
 31
0.0
  0
LINE
  5
151A
  8
2
 10
224.58706287356989
 20
125.891087727054
 30
0.0
 11
224.58706287356989
 21
142.69108772705391
 31
0.0
  0
LINE
  5
151B
  8
2
 10
231.23406287357031
 20
125.891087727054
 30
0.0
 11
231.23406287357031
 21
142.69108772705391
 31
0.0
  0
LINE
  5
151C
  8
2
 10
231.9105628735702
 20
125.2145877270541
 30
0.0
 11
231.9105628735702
 21
137.69108772705391
 31
0.0
  0
LINE
  5
151D
  8
2
 10
231.23406287357031
 20
142.69108772705391
 30
0.0
 11
227.9105628735702
 21
144.68804799439221
 31
0.0
  0
LINE
  5
151E
  8
2
 10
224.58706287356989
 20
142.69108772705391
 30
0.0
 11
227.9105628735702
 21
144.68804799439221
 31
0.0
  0
LINE
  5
151F
  8
2
 10
223.9105628735702
 20
137.69108772705391
 30
0.0
 11
231.9105628735702
 21
137.69108772705391
 31
0.0
  0
LINE
  5
1520
  8
2
 10
224.58706287356989
 20
142.69108772705391
 30
0.0
 11
231.23406287357031
 21
142.69108772705391
 31
0.0
  0
LINE
  5
1521
  8
2
 10
231.9105628735702
 20
137.69108772705391
 30
0.0
 11
231.2340628735702
 21
138.86282009837419
 31
0.0
  0
LINE
  5
1522
  8
2
 10
223.9105628735702
 20
137.69108772705391
 30
0.0
 11
224.5870628735702
 21
138.86282009837419
 31
0.0
  0
LINE
  5
1523
  8
2
 10
231.23406287357011
 20
125.891087727054
 30
0.0
 11
224.58706287357009
 21
125.891087727054
 31
0.0
  0
LINE
  5
1524
  8
2
 10
231.23406287357011
 20
125.891087727054
 30
0.0
 11
232.43406287357021
 21
124.691087727054
 31
0.0
  0
LINE
  5
1525
  8
2
 10
224.5870628735702
 20
125.891087727054
 30
0.0
 11
223.3870628735701
 21
124.691087727054
 31
0.0
  0
TEXT
  5
1647
  8
0
 62
     3
 10
0.0
 20
0.0
 30
0.0
 40
10.0
  1
ESAL63B
  7
STANDARD1
  0
ENDSEC
  0
EOF
