  0
SECTION
  2
HEADER
  9
$ACADVER
  1
AC1009
  9
$INSBASE
 10
0.0
 20
0.0
 30
0.0
  9
$EXTMIN
 10
0.0
 20
-2.960436562073669
 30
0.0
  9
$EXTMAX
 10
261.51355195331428
 20
247.77663111322519
 30
0.0
  9
$LIMMIN
 10
0.0
 20
0.0
  9
$LIMMAX
 10
375.0
 20
270.0
  9
$ORTHOMODE
 70
     1
  9
$REGENMODE
 70
     1
  9
$FILLMODE
 70
     1
  9
$QTEXTMODE
 70
     0
  9
$MIRRTEXT
 70
     0
  9
$DRAGMODE
 70
     2
  9
$LTSCALE
 40
5.0
  9
$OSMODE
 70
  3071
  9
$ATTMODE
 70
     1
  9
$TEXTSIZE
 40
2.0
  9
$TRACEWID
 40
0.05
  9
$TEXTSTYLE
  7
STANDARD
  9
$CLAYER
  8
0
  9
$CELTYPE
  6
BYLAYER
  9
$CECOLOR
 62
   256
  9
$DIMSCALE
 40
1.0
  9
$DIMASZ
 40
2.5
  9
$DIMEXO
 40
2.0
  9
$DIMDLI
 40
0.38
  9
$DIMRND
 40
0.0
  9
$DIMDLE
 40
0.0
  9
$DIMEXE
 40
2.0
  9
$DIMTP
 40
0.0
  9
$DIMTM
 40
0.0
  9
$DIMTXT
 40
3.0
  9
$DIMCEN
 40
0.09
  9
$DIMTSZ
 40
0.0
  9
$DIMTOL
 70
     0
  9
$DIMLIM
 70
     0
  9
$DIMTIH
 70
     0
  9
$DIMTOH
 70
     0
  9
$DIMSE1
 70
     0
  9
$DIMSE2
 70
     0
  9
$DIMTAD
 70
     1
  9
$DIMZIN
 70
     0
  9
$DIMBLK
  1

  9
$DIMASO
 70
     1
  9
$DIMSHO
 70
     0
  9
$DIMPOST
  1

  9
$DIMAPOST
  1

  9
$DIMALT
 70
     0
  9
$DIMALTD
 70
     2
  9
$DIMALTF
 40
25.399999999999999
  9
$DIMLFAC
 40
1.0
  9
$DIMTOFL
 70
     0
  9
$DIMTVP
 40
1.6000000000000001
  9
$DIMTIX
 70
     1
  9
$DIMSOXD
 70
     0
  9
$DIMSAH
 70
     0
  9
$DIMBLK1
  1

  9
$DIMBLK2
  1

  9
$DIMSTYLE
  2
STANDARD
  9
$DIMCLRD
 70
     0
  9
$DIMCLRE
 70
     0
  9
$DIMCLRT
 70
     0
  9
$DIMTFAC
 40
1.0
  9
$DIMGAP
 40
0.09
  9
$LUNITS
 70
     2
  9
$LUPREC
 70
     4
  9
$SKETCHINC
 40
0.1
  9
$FILLETRAD
 40
2.5
  9
$AUNITS
 70
     0
  9
$AUPREC
 70
     0
  9
$MENU
  1
E:\r13\win\SUPPORT\ACAD
  9
$ELEVATION
 40
0.0
  9
$PELEVATION
 40
0.0
  9
$THICKNESS
 40
0.0
  9
$LIMCHECK
 70
     0
  9
$BLIPMODE
 70
     0
  9
$CHAMFERA
 40
0.0
  9
$CHAMFERB
 40
0.0
  9
$SKPOLY
 70
     0
  9
$TDCREATE
 40
2448650.5678784722
  9
$TDUPDATE
 40
2456598.6870549191
  9
$TDINDWG
 40
0.082246088
  9
$TDUSRTIMER
 40
0.082246088
  9
$USRTIMER
 70
     1
  9
$ANGBASE
 50
0.0
  9
$ANGDIR
 70
     0
  9
$PDMODE
 70
     0
  9
$PDSIZE
 40
0.0
  9
$PLINEWID
 40
0.0
  9
$COORDS
 70
     1
  9
$SPLFRAME
 70
     0
  9
$SPLINETYPE
 70
     6
  9
$SPLINESEGS
 70
     8
  9
$ATTDIA
 70
     0
  9
$ATTREQ
 70
     1
  9
$HANDLING
 70
     1
  9
$HANDSEED
  5
1D04
  9
$SURFTAB1
 70
     6
  9
$SURFTAB2
 70
     6
  9
$SURFTYPE
 70
     6
  9
$SURFU
 70
     6
  9
$SURFV
 70
     6
  9
$UCSNAME
  2

  9
$UCSORG
 10
0.0
 20
0.0
 30
0.0
  9
$UCSXDIR
 10
1.0
 20
0.0
 30
0.0
  9
$UCSYDIR
 10
0.0
 20
1.0
 30
0.0
  9
$PUCSNAME
  2

  9
$PUCSORG
 10
0.0
 20
0.0
 30
0.0
  9
$PUCSXDIR
 10
1.0
 20
0.0
 30
0.0
  9
$PUCSYDIR
 10
0.0
 20
1.0
 30
0.0
  9
$USERI1
 70
     0
  9
$USERI2
 70
     1
  9
$USERI3
 70
     1
  9
$USERI4
 70
     0
  9
$USERI5
 70
     0
  9
$USERR1
 40
0.0
  9
$USERR2
 40
0.0
  9
$USERR3
 40
0.0
  9
$USERR4
 40
0.0
  9
$USERR5
 40
0.0
  9
$WORLDVIEW
 70
     1
  9
$SHADEDGE
 70
     3
  9
$SHADEDIF
 70
    70
  9
$TILEMODE
 70
     1
  9
$MAXACTVP
 70
    16
  9
$PLIMCHECK
 70
     0
  9
$PEXTMIN
 10
1.0000000000000000E+020
 20
1.0000000000000000E+020
 30
1.0000000000000000E+020
  9
$PEXTMAX
 10
-1.0000000000000000E+020
 20
-1.0000000000000000E+020
 30
-1.0000000000000000E+020
  9
$PLIMMIN
 10
0.0
 20
0.0
  9
$PLIMMAX
 10
12.0
 20
9.0
  9
$UNITMODE
 70
     0
  9
$VISRETAIN
 70
     0
  9
$PLINEGEN
 70
     1
  9
$PSLTSCALE
 70
     0
  0
ENDSEC
  0
SECTION
  2
TABLES
  0
TABLE
  2
VPORT
 70
     1
  0
VPORT
  2
*ACTIVE
 70
     0
 10
0.0
 20
0.0
 11
1.0
 21
1.0
 12
187.49427839065231
 22
169.9063198933564
 13
0.0
 23
0.0
 14
10.0
 24
10.0
 15
10.0
 25
10.0
 16
0.0
 26
0.0
 36
1.0
 17
0.0
 27
0.0
 37
0.0
 40
348.89937369551939
 41
1.831871345029239
 42
50.0
 43
0.0
 44
0.0
 50
0.0
 51
0.0
 71
     0
 72
   500
 73
     1
 74
     0
 75
     0
 76
     0
 77
     0
 78
     2
  0
ENDTAB
  0
TABLE
  2
LTYPE
 70
     3
  0
LTYPE
  2
CONTINUOUS
 70
     0
  3
Solid Line
 72
    65
 73
     0
 40
0.0
  0
LTYPE
  2
CENTER
 70
     0
  3
____ _ ____ _ ____ _ ____ _ ____ _ ____ _ ____
 72
    65
 73
     4
 40
2.0
 49
1.25
 49
-0.25
 49
0.25
 49
-0.25
  0
LTYPE
  2
PHANTOM2
 70
     0
  3
___ _ _ ___ _ _ ___ _ _ ___ _ _
 72
    65
 73
     6
 40
1.25
 49
0.625
 49
-0.125
 49
0.125
 49
-0.125
 49
0.125
 49
-0.125
  0
ENDTAB
  0
TABLE
  2
LAYER
 70
     4
  0
LAYER
  2
0
 70
     0
 62
     7
  6
CONTINUOUS
  0
LAYER
  2
1
 70
     0
 62
     1
  6
CENTER
  0
LAYER
  2
3
 70
     0
 62
     3
  6
CONTINUOUS
  0
LAYER
  2
DEFPOINTS
 70
     0
 62
     7
  6
CONTINUOUS
  0
ENDTAB
  0
TABLE
  2
STYLE
 70
     2
  0
STYLE
  2
STANDARD
 70
     0
 40
0.0
 41
1.0
 50
0.0
 71
     0
 42
2.0
  3
TXT
  4
BIGFONT
  0
STYLE
  2
STANDARD1
 70
     0
 40
0.0
 41
1.0
 50
0.0
 71
     0
 42
3.0
  3
txt
  4

  0
ENDTAB
  0
TABLE
  2
VIEW
 70
     1
  0
VIEW
  2
ALL
 70
     0
 40
270.0
 10
220.99159663865549
 20
135.0
 41
0.0
 11
0.0
 21
0.0
 31
1.0
 12
0.0
 22
0.0
 32
0.0
 42
0.0
 43
0.0
 44
0.0
 50
0.0
 71
     0
  0
ENDTAB
  0
TABLE
  2
UCS
 70
     0
  0
ENDTAB
  0
TABLE
  2
APPID
 70
     4
  0
APPID
  2
ACAD
 70
     0
  0
APPID
  2
ACAD_EXEMPT_FROM_CAD_STANDARDS
 70
     0
  0
APPID
  2
ACAD_MLEADERVER
 70
     0
  0
APPID
  2
ACAD_NAV_VCDISPLAY
 70
     0
  0
ENDTAB
  0
TABLE
  2
DIMSTYLE
 70
     1
  0
DIMSTYLE
  2
STANDARD
 70
     0
  3

  4

  5

  6

  7

 40
1.0
 41
0.18
 42
0.0625
 43
0.38
 44
0.18
 45
0.0
 46
0.0
 47
0.0
 48
0.0
140
0.18
141
0.09
142
0.0
143
25.399999999999999
144
1.0
145
0.0
146
1.0
147
0.09
 71
     0
 72
     0
 73
     1
 74
     1
 75
     0
 76
     0
 77
     0
 78
     0
170
     0
171
     2
172
     0
173
     0
174
     0
175
     0
176
     0
177
     0
178
     0
  0
ENDTAB
  0
ENDSEC
  0
SECTION
  2
BLOCKS
  0
BLOCK
  8
0
  2
$MODEL_SPACE
 70
     0
 10
0.0
 20
0.0
 30
0.0
  3
$MODEL_SPACE
  1

  0
ENDBLK
  5
217
  8
0
  0
BLOCK
 67
     1
  8
0
  2
$PAPER_SPACE
 70
     0
 10
0.0
 20
0.0
 30
0.0
  3
$PAPER_SPACE
  1

  0
ENDBLK
  5
215
 67
     1
  8
0
  0
BLOCK
  8
0
  2
*X0
 70
     1
 10
0.0
 20
0.0
 30
0.0
  3
*X0
  1

  0
LINE
  5
19DA
  8
0
 62
     0
 10
186.63701516632591
 20
231.33939871812279
 30
0.0
 11
186.63701516632591
 21
231.33939871812279
 31
0.0
  0
LINE
  5
19DB
  8
0
 62
     0
 10
186.45844373775449
 20
231.33939871812279
 30
0.0
 11
186.45844373775449
 21
231.33939871812279
 31
0.0
  0
LINE
  5
19DC
  8
0
 62
     0
 10
186.27987230918311
 20
231.33939871812279
 30
0.0
 11
186.27987230918311
 21
231.33939871812279
 31
0.0
  0
LINE
  5
19DD
  8
0
 62
     0
 10
186.10130088061169
 20
231.33939871812279
 30
0.0
 11
186.10130088061169
 21
231.33939871812279
 31
0.0
  0
LINE
  5
19DE
  8
0
 62
     0
 10
185.9227294520403
 20
231.33939871812279
 30
0.0
 11
185.9227294520403
 21
231.33939871812279
 31
0.0
  0
LINE
  5
19DF
  8
0
 62
     0
 10
185.7441580234688
 20
231.33939871812279
 30
0.0
 11
185.7441580234688
 21
231.33939871812279
 31
0.0
  0
LINE
  5
19E0
  8
0
 62
     0
 10
185.56558659489741
 20
231.33939871812279
 30
0.0
 11
185.56558659489741
 21
231.33939871812279
 31
0.0
  0
LINE
  5
19E1
  8
0
 62
     0
 10
189.67272945204019
 20
231.33939871812279
 30
0.0
 11
189.67272945204019
 21
231.33939871812279
 31
0.0
  0
LINE
  5
19E2
  8
0
 62
     0
 10
189.4941580234688
 20
231.33939871812279
 30
0.0
 11
189.4941580234688
 21
231.33939871812279
 31
0.0
  0
LINE
  5
19E3
  8
0
 62
     0
 10
189.31558659489741
 20
231.33939871812279
 30
0.0
 11
189.31558659489741
 21
231.33939871812279
 31
0.0
  0
LINE
  5
19E4
  8
0
 62
     0
 10
189.13701516632599
 20
231.33939871812279
 30
0.0
 11
189.13701516632599
 21
231.33939871812279
 31
0.0
  0
LINE
  5
19E5
  8
0
 62
     0
 10
181.45844373775449
 20
231.33939871812279
 30
0.0
 11
181.45844373775449
 21
231.33939871812279
 31
0.0
  0
LINE
  5
19E6
  8
0
 62
     0
 10
181.27987230918311
 20
231.33939871812279
 30
0.0
 11
181.27987230918311
 21
231.33939871812279
 31
0.0
  0
LINE
  5
19E7
  8
0
 62
     0
 10
181.10130088061169
 20
231.33939871812279
 30
0.0
 11
181.10130088061169
 21
231.33939871812279
 31
0.0
  0
LINE
  5
19E8
  8
0
 62
     0
 10
180.92272945204019
 20
231.33939871812279
 30
0.0
 11
180.92272945204019
 21
231.33939871812279
 31
0.0
  0
LINE
  5
19E9
  8
0
 62
     0
 10
180.7441580234688
 20
231.33939871812279
 30
0.0
 11
180.7441580234688
 21
231.33939871812279
 31
0.0
  0
LINE
  5
19EA
  8
0
 62
     0
 10
180.56558659489741
 20
231.33939871812279
 30
0.0
 11
180.56558659489741
 21
231.33939871812279
 31
0.0
  0
LINE
  5
19EB
  8
0
 62
     0
 10
192.88701516632591
 20
231.33939871812279
 30
0.0
 11
192.88701516632591
 21
231.33939871812279
 31
0.0
  0
LINE
  5
19EC
  8
0
 62
     0
 10
192.70844373775449
 20
231.33939871812279
 30
0.0
 11
192.70844373775449
 21
231.33939871812279
 31
0.0
  0
LINE
  5
19ED
  8
0
 62
     0
 10
192.52987230918311
 20
231.33939871812279
 30
0.0
 11
192.52987230918311
 21
231.33939871812279
 31
0.0
  0
LINE
  5
19EE
  8
0
 62
     0
 10
192.3513008806116
 20
231.33939871812279
 30
0.0
 11
192.3513008806116
 21
231.33939871812279
 31
0.0
  0
LINE
  5
19EF
  8
0
 62
     0
 10
174.85130088061169
 20
231.33939871812279
 30
0.0
 11
174.85130088061169
 21
231.33939871812279
 31
0.0
  0
LINE
  5
19F0
  8
0
 62
     0
 10
174.67272945204019
 20
231.33939871812279
 30
0.0
 11
174.67272945204019
 21
231.33939871812279
 31
0.0
  0
LINE
  5
19F1
  8
0
 62
     0
 10
174.4941580234688
 20
231.33939871812279
 30
0.0
 11
174.4941580234688
 21
231.33939871812279
 31
0.0
  0
LINE
  5
19F2
  8
0
 62
     0
 10
174.31558659489741
 20
231.33939871812279
 30
0.0
 11
174.31558659489741
 21
231.33939871812279
 31
0.0
  0
LINE
  5
19F3
  8
0
 62
     0
 10
187.2620151663258
 20
231.51797014669421
 30
0.0
 11
187.2620151663258
 21
231.51797014669421
 31
0.0
  0
LINE
  5
19F4
  8
0
 62
     0
 10
187.08344373775441
 20
231.51797014669421
 30
0.0
 11
187.08344373775441
 21
231.51797014669421
 31
0.0
  0
LINE
  5
19F5
  8
0
 62
     0
 10
186.90487230918299
 20
231.51797014669421
 30
0.0
 11
186.90487230918299
 21
231.51797014669421
 31
0.0
  0
LINE
  5
19F6
  8
0
 62
     0
 10
186.7263008806116
 20
231.51797014669421
 30
0.0
 11
186.7263008806116
 21
231.51797014669421
 31
0.0
  0
LINE
  5
19F7
  8
0
 62
     0
 10
186.54772945204019
 20
231.51797014669421
 30
0.0
 11
186.54772945204019
 21
231.51797014669421
 31
0.0
  0
LINE
  5
19F8
  8
0
 62
     0
 10
186.3691580234688
 20
231.51797014669421
 30
0.0
 11
186.3691580234688
 21
231.51797014669421
 31
0.0
  0
LINE
  5
19F9
  8
0
 62
     0
 10
186.1905865948973
 20
231.51797014669421
 30
0.0
 11
186.1905865948973
 21
231.51797014669421
 31
0.0
  0
LINE
  5
19FA
  8
0
 62
     0
 10
186.01201516632591
 20
231.51797014669421
 30
0.0
 11
186.01201516632591
 21
231.51797014669421
 31
0.0
  0
LINE
  5
19FB
  8
0
 62
     0
 10
185.83344373775449
 20
231.51797014669421
 30
0.0
 11
185.83344373775449
 21
231.51797014669421
 31
0.0
  0
LINE
  5
19FC
  8
0
 62
     0
 10
185.65487230918311
 20
231.51797014669421
 30
0.0
 11
185.65487230918311
 21
231.51797014669421
 31
0.0
  0
LINE
  5
19FD
  8
0
 62
     0
 10
185.47630088061169
 20
231.51797014669421
 30
0.0
 11
185.47630088061169
 21
231.51797014669421
 31
0.0
  0
LINE
  5
19FE
  8
0
 62
     0
 10
185.2977294520403
 20
231.51797014669421
 30
0.0
 11
185.2977294520403
 21
231.51797014669421
 31
0.0
  0
LINE
  5
19FF
  8
0
 62
     0
 10
185.1191580234688
 20
231.51797014669421
 30
0.0
 11
185.1191580234688
 21
231.51797014669421
 31
0.0
  0
LINE
  5
1A00
  8
0
 62
     0
 10
184.94058659489741
 20
231.51797014669421
 30
0.0
 11
184.94058659489741
 21
231.51797014669421
 31
0.0
  0
LINE
  5
1A01
  8
0
 62
     0
 10
189.58344373775461
 20
231.51797014669421
 30
0.0
 11
189.58344373775461
 21
231.51797014669421
 31
0.0
  0
LINE
  5
1A02
  8
0
 62
     0
 10
189.40487230918311
 20
231.51797014669421
 30
0.0
 11
189.40487230918311
 21
231.51797014669421
 31
0.0
  0
LINE
  5
1A03
  8
0
 62
     0
 10
189.22630088061169
 20
231.51797014669421
 30
0.0
 11
189.22630088061169
 21
231.51797014669421
 31
0.0
  0
LINE
  5
1A04
  8
0
 62
     0
 10
189.0477294520403
 20
231.51797014669421
 30
0.0
 11
189.0477294520403
 21
231.51797014669421
 31
0.0
  0
LINE
  5
1A05
  8
0
 62
     0
 10
181.90487230918299
 20
231.51797014669421
 30
0.0
 11
181.90487230918299
 21
231.51797014669421
 31
0.0
  0
LINE
  5
1A06
  8
0
 62
     0
 10
181.7263008806116
 20
231.51797014669421
 30
0.0
 11
181.7263008806116
 21
231.51797014669421
 31
0.0
  0
LINE
  5
1A07
  8
0
 62
     0
 10
181.54772945204019
 20
231.51797014669421
 30
0.0
 11
181.54772945204019
 21
231.51797014669421
 31
0.0
  0
LINE
  5
1A08
  8
0
 62
     0
 10
181.3691580234688
 20
231.51797014669421
 30
0.0
 11
181.3691580234688
 21
231.51797014669421
 31
0.0
  0
LINE
  5
1A09
  8
0
 62
     0
 10
181.19058659489741
 20
231.51797014669421
 30
0.0
 11
181.19058659489741
 21
231.51797014669421
 31
0.0
  0
LINE
  5
1A0A
  8
0
 62
     0
 10
181.01201516632591
 20
231.51797014669421
 30
0.0
 11
181.01201516632591
 21
231.51797014669421
 31
0.0
  0
LINE
  5
1A0B
  8
0
 62
     0
 10
180.83344373775449
 20
231.51797014669421
 30
0.0
 11
180.83344373775449
 21
231.51797014669421
 31
0.0
  0
LINE
  5
1A0C
  8
0
 62
     0
 10
180.65487230918311
 20
231.51797014669421
 30
0.0
 11
180.65487230918311
 21
231.51797014669421
 31
0.0
  0
LINE
  5
1A0D
  8
0
 62
     0
 10
180.47630088061169
 20
231.51797014669421
 30
0.0
 11
180.47630088061169
 21
231.51797014669421
 31
0.0
  0
LINE
  5
1A0E
  8
0
 62
     0
 10
180.2977294520403
 20
231.51797014669421
 30
0.0
 11
180.2977294520403
 21
231.51797014669421
 31
0.0
  0
LINE
  5
1A0F
  8
0
 62
     0
 10
180.11915802346891
 20
231.51797014669421
 30
0.0
 11
180.11915802346891
 21
231.51797014669421
 31
0.0
  0
LINE
  5
1A10
  8
0
 62
     0
 10
192.97630088061169
 20
231.51797014669421
 30
0.0
 11
192.97630088061169
 21
231.51797014669421
 31
0.0
  0
LINE
  5
1A11
  8
0
 62
     0
 10
192.7977294520403
 20
231.51797014669421
 30
0.0
 11
192.7977294520403
 21
231.51797014669421
 31
0.0
  0
LINE
  5
1A12
  8
0
 62
     0
 10
192.6191580234688
 20
231.51797014669421
 30
0.0
 11
192.6191580234688
 21
231.51797014669421
 31
0.0
  0
LINE
  5
1A13
  8
0
 62
     0
 10
192.44058659489741
 20
231.51797014669421
 30
0.0
 11
192.44058659489741
 21
231.51797014669421
 31
0.0
  0
LINE
  5
1A14
  8
0
 62
     0
 10
174.94058659489741
 20
231.51797014669421
 30
0.0
 11
174.94058659489741
 21
231.51797014669421
 31
0.0
  0
LINE
  5
1A15
  8
0
 62
     0
 10
174.76201516632599
 20
231.51797014669421
 30
0.0
 11
174.76201516632599
 21
231.51797014669421
 31
0.0
  0
LINE
  5
1A16
  8
0
 62
     0
 10
174.58344373775461
 20
231.51797014669421
 30
0.0
 11
174.58344373775461
 21
231.51797014669421
 31
0.0
  0
LINE
  5
1A17
  8
0
 62
     0
 10
174.40487230918319
 20
231.51797014669421
 30
0.0
 11
174.40487230918319
 21
231.51797014669421
 31
0.0
  0
LINE
  5
1A18
  8
0
 62
     0
 10
187.52987230918311
 20
231.6965415752656
 30
0.0
 11
187.52987230918311
 21
231.6965415752656
 31
0.0
  0
LINE
  5
1A19
  8
0
 62
     0
 10
187.35130088061169
 20
231.6965415752656
 30
0.0
 11
187.35130088061169
 21
231.6965415752656
 31
0.0
  0
LINE
  5
1A1A
  8
0
 62
     0
 10
187.17272945204019
 20
231.6965415752656
 30
0.0
 11
187.17272945204019
 21
231.6965415752656
 31
0.0
  0
LINE
  5
1A1B
  8
0
 62
     0
 10
186.9941580234688
 20
231.6965415752656
 30
0.0
 11
186.9941580234688
 21
231.6965415752656
 31
0.0
  0
LINE
  5
1A1C
  8
0
 62
     0
 10
186.81558659489741
 20
231.6965415752656
 30
0.0
 11
186.81558659489741
 21
231.6965415752656
 31
0.0
  0
LINE
  5
1A1D
  8
0
 62
     0
 10
186.63701516632599
 20
231.6965415752656
 30
0.0
 11
186.63701516632599
 21
231.6965415752656
 31
0.0
  0
LINE
  5
1A1E
  8
0
 62
     0
 10
186.45844373775461
 20
231.6965415752656
 30
0.0
 11
186.45844373775461
 21
231.6965415752656
 31
0.0
  0
LINE
  5
1A1F
  8
0
 62
     0
 10
186.27987230918319
 20
231.6965415752656
 30
0.0
 11
186.27987230918319
 21
231.6965415752656
 31
0.0
  0
LINE
  5
1A20
  8
0
 62
     0
 10
186.1013008806118
 20
231.6965415752656
 30
0.0
 11
186.1013008806118
 21
231.6965415752656
 31
0.0
  0
LINE
  5
1A21
  8
0
 62
     0
 10
185.9227294520403
 20
231.6965415752656
 30
0.0
 11
185.9227294520403
 21
231.6965415752656
 31
0.0
  0
LINE
  5
1A22
  8
0
 62
     0
 10
185.74415802346891
 20
231.6965415752656
 30
0.0
 11
185.74415802346891
 21
231.6965415752656
 31
0.0
  0
LINE
  5
1A23
  8
0
 62
     0
 10
185.5655865948975
 20
231.6965415752656
 30
0.0
 11
185.5655865948975
 21
231.6965415752656
 31
0.0
  0
LINE
  5
1A24
  8
0
 62
     0
 10
185.38701516632611
 20
231.6965415752656
 30
0.0
 11
185.38701516632611
 21
231.6965415752656
 31
0.0
  0
LINE
  5
1A25
  8
0
 62
     0
 10
185.20844373775469
 20
231.6965415752656
 30
0.0
 11
185.20844373775469
 21
231.6965415752656
 31
0.0
  0
LINE
  5
1A26
  8
0
 62
     0
 10
185.0298723091833
 20
231.6965415752656
 30
0.0
 11
185.0298723091833
 21
231.6965415752656
 31
0.0
  0
LINE
  5
1A27
  8
0
 62
     0
 10
184.8513008806118
 20
231.6965415752656
 30
0.0
 11
184.8513008806118
 21
231.6965415752656
 31
0.0
  0
LINE
  5
1A28
  8
0
 62
     0
 10
184.67272945204039
 20
231.6965415752656
 30
0.0
 11
184.67272945204039
 21
231.6965415752656
 31
0.0
  0
LINE
  5
1A29
  8
0
 62
     0
 10
189.6727294520403
 20
231.6965415752656
 30
0.0
 11
189.6727294520403
 21
231.6965415752656
 31
0.0
  0
LINE
  5
1A2A
  8
0
 62
     0
 10
189.49415802346891
 20
231.6965415752656
 30
0.0
 11
189.49415802346891
 21
231.6965415752656
 31
0.0
  0
LINE
  5
1A2B
  8
0
 62
     0
 10
189.3155865948975
 20
231.6965415752656
 30
0.0
 11
189.3155865948975
 21
231.6965415752656
 31
0.0
  0
LINE
  5
1A2C
  8
0
 62
     0
 10
189.13701516632611
 20
231.6965415752656
 30
0.0
 11
189.13701516632611
 21
231.6965415752656
 31
0.0
  0
LINE
  5
1A2D
  8
0
 62
     0
 10
182.17272945204019
 20
231.6965415752656
 30
0.0
 11
182.17272945204019
 21
231.6965415752656
 31
0.0
  0
LINE
  5
1A2E
  8
0
 62
     0
 10
181.99415802346871
 20
231.6965415752656
 30
0.0
 11
181.99415802346871
 21
231.6965415752656
 31
0.0
  0
LINE
  5
1A2F
  8
0
 62
     0
 10
181.8155865948973
 20
231.6965415752656
 30
0.0
 11
181.8155865948973
 21
231.6965415752656
 31
0.0
  0
LINE
  5
1A30
  8
0
 62
     0
 10
181.63701516632591
 20
231.6965415752656
 30
0.0
 11
181.63701516632591
 21
231.6965415752656
 31
0.0
  0
LINE
  5
1A31
  8
0
 62
     0
 10
181.45844373775449
 20
231.6965415752656
 30
0.0
 11
181.45844373775449
 21
231.6965415752656
 31
0.0
  0
LINE
  5
1A32
  8
0
 62
     0
 10
181.27987230918311
 20
231.6965415752656
 30
0.0
 11
181.27987230918311
 21
231.6965415752656
 31
0.0
  0
LINE
  5
1A33
  8
0
 62
     0
 10
181.10130088061169
 20
231.6965415752656
 30
0.0
 11
181.10130088061169
 21
231.6965415752656
 31
0.0
  0
LINE
  5
1A34
  8
0
 62
     0
 10
180.92272945204019
 20
231.6965415752656
 30
0.0
 11
180.92272945204019
 21
231.6965415752656
 31
0.0
  0
LINE
  5
1A35
  8
0
 62
     0
 10
180.7441580234688
 20
231.6965415752656
 30
0.0
 11
180.7441580234688
 21
231.6965415752656
 31
0.0
  0
LINE
  5
1A36
  8
0
 62
     0
 10
180.56558659489741
 20
231.6965415752656
 30
0.0
 11
180.56558659489741
 21
231.6965415752656
 31
0.0
  0
LINE
  5
1A37
  8
0
 62
     0
 10
180.38701516632599
 20
231.6965415752656
 30
0.0
 11
180.38701516632599
 21
231.6965415752656
 31
0.0
  0
LINE
  5
1A38
  8
0
 62
     0
 10
180.20844373775461
 20
231.6965415752656
 30
0.0
 11
180.20844373775461
 21
231.6965415752656
 31
0.0
  0
LINE
  5
1A39
  8
0
 62
     0
 10
180.02987230918319
 20
231.6965415752656
 30
0.0
 11
180.02987230918319
 21
231.6965415752656
 31
0.0
  0
LINE
  5
1A3A
  8
0
 62
     0
 10
179.8513008806118
 20
231.6965415752656
 30
0.0
 11
179.8513008806118
 21
231.6965415752656
 31
0.0
  0
LINE
  5
1A3B
  8
0
 62
     0
 10
192.88701516632599
 20
231.6965415752656
 30
0.0
 11
192.88701516632599
 21
231.6965415752656
 31
0.0
  0
LINE
  5
1A3C
  8
0
 62
     0
 10
192.70844373775461
 20
231.6965415752656
 30
0.0
 11
192.70844373775461
 21
231.6965415752656
 31
0.0
  0
LINE
  5
1A3D
  8
0
 62
     0
 10
192.52987230918319
 20
231.6965415752656
 30
0.0
 11
192.52987230918319
 21
231.6965415752656
 31
0.0
  0
LINE
  5
1A3E
  8
0
 62
     0
 10
192.3513008806118
 20
231.6965415752656
 30
0.0
 11
192.3513008806118
 21
231.6965415752656
 31
0.0
  0
LINE
  5
1A3F
  8
0
 62
     0
 10
174.8513008806118
 20
231.6965415752656
 30
0.0
 11
174.8513008806118
 21
231.6965415752656
 31
0.0
  0
LINE
  5
1A40
  8
0
 62
     0
 10
174.67272945204039
 20
231.6965415752656
 30
0.0
 11
174.67272945204039
 21
231.6965415752656
 31
0.0
  0
LINE
  5
1A41
  8
0
 62
     0
 10
174.49415802346891
 20
231.6965415752656
 30
0.0
 11
174.49415802346891
 21
231.6965415752656
 31
0.0
  0
LINE
  5
1A42
  8
0
 62
     0
 10
174.3155865948975
 20
231.6965415752656
 30
0.0
 11
174.3155865948975
 21
231.6965415752656
 31
0.0
  0
LINE
  5
1A43
  8
0
 62
     0
 10
185.1191580234688
 20
231.8751130038371
 30
0.0
 11
185.1191580234688
 21
231.8751130038371
 31
0.0
  0
LINE
  5
1A44
  8
0
 62
     0
 10
184.94058659489741
 20
231.8751130038371
 30
0.0
 11
184.94058659489741
 21
231.8751130038371
 31
0.0
  0
LINE
  5
1A45
  8
0
 62
     0
 10
184.76201516632599
 20
231.8751130038371
 30
0.0
 11
184.76201516632599
 21
231.8751130038371
 31
0.0
  0
LINE
  5
1A46
  8
0
 62
     0
 10
184.58344373775461
 20
231.8751130038371
 30
0.0
 11
184.58344373775461
 21
231.8751130038371
 31
0.0
  0
LINE
  5
1A47
  8
0
 62
     0
 10
184.40487230918319
 20
231.8751130038371
 30
0.0
 11
184.40487230918319
 21
231.8751130038371
 31
0.0
  0
LINE
  5
1A48
  8
0
 62
     0
 10
187.61915802346891
 20
231.8751130038371
 30
0.0
 11
187.61915802346891
 21
231.8751130038371
 31
0.0
  0
LINE
  5
1A49
  8
0
 62
     0
 10
187.44058659489741
 20
231.8751130038371
 30
0.0
 11
187.44058659489741
 21
231.8751130038371
 31
0.0
  0
LINE
  5
1A4A
  8
0
 62
     0
 10
187.26201516632599
 20
231.8751130038371
 30
0.0
 11
187.26201516632599
 21
231.8751130038371
 31
0.0
  0
LINE
  5
1A4B
  8
0
 62
     0
 10
187.08344373775461
 20
231.8751130038371
 30
0.0
 11
187.08344373775461
 21
231.8751130038371
 31
0.0
  0
LINE
  5
1A4C
  8
0
 62
     0
 10
186.90487230918319
 20
231.8751130038371
 30
0.0
 11
186.90487230918319
 21
231.8751130038371
 31
0.0
  0
LINE
  5
1A4D
  8
0
 62
     0
 10
182.44058659489741
 20
231.8751130038371
 30
0.0
 11
182.44058659489741
 21
231.8751130038371
 31
0.0
  0
LINE
  5
1A4E
  8
0
 62
     0
 10
182.26201516632599
 20
231.8751130038371
 30
0.0
 11
182.26201516632599
 21
231.8751130038371
 31
0.0
  0
LINE
  5
1A4F
  8
0
 62
     0
 10
182.08344373775461
 20
231.8751130038371
 30
0.0
 11
182.08344373775461
 21
231.8751130038371
 31
0.0
  0
LINE
  5
1A50
  8
0
 62
     0
 10
181.90487230918319
 20
231.8751130038371
 30
0.0
 11
181.90487230918319
 21
231.8751130038371
 31
0.0
  0
LINE
  5
1A51
  8
0
 62
     0
 10
181.72630088061169
 20
231.8751130038371
 30
0.0
 11
181.72630088061169
 21
231.8751130038371
 31
0.0
  0
LINE
  5
1A52
  8
0
 62
     0
 10
181.5477294520403
 20
231.8751130038371
 30
0.0
 11
181.5477294520403
 21
231.8751130038371
 31
0.0
  0
LINE
  5
1A53
  8
0
 62
     0
 10
189.58344373775461
 20
231.8751130038371
 30
0.0
 11
189.58344373775461
 21
231.8751130038371
 31
0.0
  0
LINE
  5
1A54
  8
0
 62
     0
 10
189.40487230918311
 20
231.8751130038371
 30
0.0
 11
189.40487230918311
 21
231.8751130038371
 31
0.0
  0
LINE
  5
1A55
  8
0
 62
     0
 10
189.22630088061169
 20
231.8751130038371
 30
0.0
 11
189.22630088061169
 21
231.8751130038371
 31
0.0
  0
LINE
  5
1A56
  8
0
 62
     0
 10
189.0477294520403
 20
231.8751130038371
 30
0.0
 11
189.0477294520403
 21
231.8751130038371
 31
0.0
  0
LINE
  5
1A57
  8
0
 62
     0
 10
180.47630088061169
 20
231.8751130038371
 30
0.0
 11
180.47630088061169
 21
231.8751130038371
 31
0.0
  0
LINE
  5
1A58
  8
0
 62
     0
 10
180.2977294520403
 20
231.8751130038371
 30
0.0
 11
180.2977294520403
 21
231.8751130038371
 31
0.0
  0
LINE
  5
1A59
  8
0
 62
     0
 10
180.11915802346891
 20
231.8751130038371
 30
0.0
 11
180.11915802346891
 21
231.8751130038371
 31
0.0
  0
LINE
  5
1A5A
  8
0
 62
     0
 10
179.9405865948975
 20
231.8751130038371
 30
0.0
 11
179.9405865948975
 21
231.8751130038371
 31
0.0
  0
LINE
  5
1A5B
  8
0
 62
     0
 10
179.76201516632611
 20
231.8751130038371
 30
0.0
 11
179.76201516632611
 21
231.8751130038371
 31
0.0
  0
LINE
  5
1A5C
  8
0
 62
     0
 10
192.97630088061169
 20
231.8751130038371
 30
0.0
 11
192.97630088061169
 21
231.8751130038371
 31
0.0
  0
LINE
  5
1A5D
  8
0
 62
     0
 10
192.7977294520403
 20
231.8751130038371
 30
0.0
 11
192.7977294520403
 21
231.8751130038371
 31
0.0
  0
LINE
  5
1A5E
  8
0
 62
     0
 10
192.6191580234688
 20
231.8751130038371
 30
0.0
 11
192.6191580234688
 21
231.8751130038371
 31
0.0
  0
LINE
  5
1A5F
  8
0
 62
     0
 10
192.44058659489741
 20
231.8751130038371
 30
0.0
 11
192.44058659489741
 21
231.8751130038371
 31
0.0
  0
LINE
  5
1A60
  8
0
 62
     0
 10
174.94058659489741
 20
231.8751130038371
 30
0.0
 11
174.94058659489741
 21
231.8751130038371
 31
0.0
  0
LINE
  5
1A61
  8
0
 62
     0
 10
174.76201516632599
 20
231.8751130038371
 30
0.0
 11
174.76201516632599
 21
231.8751130038371
 31
0.0
  0
LINE
  5
1A62
  8
0
 62
     0
 10
174.58344373775461
 20
231.8751130038371
 30
0.0
 11
174.58344373775461
 21
231.8751130038371
 31
0.0
  0
LINE
  5
1A63
  8
0
 62
     0
 10
174.40487230918319
 20
231.8751130038371
 30
0.0
 11
174.40487230918319
 21
231.8751130038371
 31
0.0
  0
LINE
  5
1A64
  8
0
 62
     0
 10
184.85130088061169
 20
232.05368443240849
 30
0.0
 11
184.85130088061169
 21
232.05368443240849
 31
0.0
  0
LINE
  5
1A65
  8
0
 62
     0
 10
184.6727294520403
 20
232.05368443240849
 30
0.0
 11
184.6727294520403
 21
232.05368443240849
 31
0.0
  0
LINE
  5
1A66
  8
0
 62
     0
 10
184.4941580234688
 20
232.05368443240849
 30
0.0
 11
184.4941580234688
 21
232.05368443240849
 31
0.0
  0
LINE
  5
1A67
  8
0
 62
     0
 10
184.31558659489741
 20
232.05368443240849
 30
0.0
 11
184.31558659489741
 21
232.05368443240849
 31
0.0
  0
LINE
  5
1A68
  8
0
 62
     0
 10
187.70844373775449
 20
232.05368443240849
 30
0.0
 11
187.70844373775449
 21
232.05368443240849
 31
0.0
  0
LINE
  5
1A69
  8
0
 62
     0
 10
187.52987230918311
 20
232.05368443240849
 30
0.0
 11
187.52987230918311
 21
232.05368443240849
 31
0.0
  0
LINE
  5
1A6A
  8
0
 62
     0
 10
187.35130088061169
 20
232.05368443240849
 30
0.0
 11
187.35130088061169
 21
232.05368443240849
 31
0.0
  0
LINE
  5
1A6B
  8
0
 62
     0
 10
187.1727294520403
 20
232.05368443240849
 30
0.0
 11
187.1727294520403
 21
232.05368443240849
 31
0.0
  0
LINE
  5
1A6C
  8
0
 62
     0
 10
182.52987230918311
 20
232.05368443240849
 30
0.0
 11
182.52987230918311
 21
232.05368443240849
 31
0.0
  0
LINE
  5
1A6D
  8
0
 62
     0
 10
182.35130088061169
 20
232.05368443240849
 30
0.0
 11
182.35130088061169
 21
232.05368443240849
 31
0.0
  0
LINE
  5
1A6E
  8
0
 62
     0
 10
182.1727294520403
 20
232.05368443240849
 30
0.0
 11
182.1727294520403
 21
232.05368443240849
 31
0.0
  0
LINE
  5
1A6F
  8
0
 62
     0
 10
181.9941580234688
 20
232.05368443240849
 30
0.0
 11
181.9941580234688
 21
232.05368443240849
 31
0.0
  0
LINE
  5
1A70
  8
0
 62
     0
 10
189.67272945204019
 20
232.05368443240849
 30
0.0
 11
189.67272945204019
 21
232.05368443240849
 31
0.0
  0
LINE
  5
1A71
  8
0
 62
     0
 10
189.4941580234688
 20
232.05368443240849
 30
0.0
 11
189.4941580234688
 21
232.05368443240849
 31
0.0
  0
LINE
  5
1A72
  8
0
 62
     0
 10
189.31558659489741
 20
232.05368443240849
 30
0.0
 11
189.31558659489741
 21
232.05368443240849
 31
0.0
  0
LINE
  5
1A73
  8
0
 62
     0
 10
189.13701516632599
 20
232.05368443240849
 30
0.0
 11
189.13701516632599
 21
232.05368443240849
 31
0.0
  0
LINE
  5
1A74
  8
0
 62
     0
 10
180.20844373775449
 20
232.05368443240849
 30
0.0
 11
180.20844373775449
 21
232.05368443240849
 31
0.0
  0
LINE
  5
1A75
  8
0
 62
     0
 10
180.02987230918311
 20
232.05368443240849
 30
0.0
 11
180.02987230918311
 21
232.05368443240849
 31
0.0
  0
LINE
  5
1A76
  8
0
 62
     0
 10
179.85130088061169
 20
232.05368443240849
 30
0.0
 11
179.85130088061169
 21
232.05368443240849
 31
0.0
  0
LINE
  5
1A77
  8
0
 62
     0
 10
179.6727294520403
 20
232.05368443240849
 30
0.0
 11
179.6727294520403
 21
232.05368443240849
 31
0.0
  0
LINE
  5
1A78
  8
0
 62
     0
 10
179.49415802346891
 20
232.05368443240849
 30
0.0
 11
179.49415802346891
 21
232.05368443240849
 31
0.0
  0
LINE
  5
1A79
  8
0
 62
     0
 10
192.88701516632599
 20
232.05368443240849
 30
0.0
 11
192.88701516632599
 21
232.05368443240849
 31
0.0
  0
LINE
  5
1A7A
  8
0
 62
     0
 10
192.70844373775461
 20
232.05368443240849
 30
0.0
 11
192.70844373775461
 21
232.05368443240849
 31
0.0
  0
LINE
  5
1A7B
  8
0
 62
     0
 10
192.52987230918319
 20
232.05368443240849
 30
0.0
 11
192.52987230918319
 21
232.05368443240849
 31
0.0
  0
LINE
  5
1A7C
  8
0
 62
     0
 10
192.3513008806118
 20
232.05368443240849
 30
0.0
 11
192.3513008806118
 21
232.05368443240849
 31
0.0
  0
LINE
  5
1A7D
  8
0
 62
     0
 10
174.85130088061169
 20
232.05368443240849
 30
0.0
 11
174.85130088061169
 21
232.05368443240849
 31
0.0
  0
LINE
  5
1A7E
  8
0
 62
     0
 10
174.67272945204019
 20
232.05368443240849
 30
0.0
 11
174.67272945204019
 21
232.05368443240849
 31
0.0
  0
LINE
  5
1A7F
  8
0
 62
     0
 10
174.4941580234688
 20
232.05368443240849
 30
0.0
 11
174.4941580234688
 21
232.05368443240849
 31
0.0
  0
LINE
  5
1A80
  8
0
 62
     0
 10
174.31558659489741
 20
232.05368443240849
 30
0.0
 11
174.31558659489741
 21
232.05368443240849
 31
0.0
  0
LINE
  5
1A81
  8
0
 62
     0
 10
184.76201516632599
 20
232.2322558609799
 30
0.0
 11
184.76201516632599
 21
232.2322558609799
 31
0.0
  0
LINE
  5
1A82
  8
0
 62
     0
 10
184.58344373775461
 20
232.2322558609799
 30
0.0
 11
184.58344373775461
 21
232.2322558609799
 31
0.0
  0
LINE
  5
1A83
  8
0
 62
     0
 10
184.40487230918319
 20
232.2322558609799
 30
0.0
 11
184.40487230918319
 21
232.2322558609799
 31
0.0
  0
LINE
  5
1A84
  8
0
 62
     0
 10
184.22630088061169
 20
232.2322558609799
 30
0.0
 11
184.22630088061169
 21
232.2322558609799
 31
0.0
  0
LINE
  5
1A85
  8
0
 62
     0
 10
187.7977294520403
 20
232.2322558609799
 30
0.0
 11
187.7977294520403
 21
232.2322558609799
 31
0.0
  0
LINE
  5
1A86
  8
0
 62
     0
 10
187.61915802346891
 20
232.2322558609799
 30
0.0
 11
187.61915802346891
 21
232.2322558609799
 31
0.0
  0
LINE
  5
1A87
  8
0
 62
     0
 10
187.4405865948975
 20
232.2322558609799
 30
0.0
 11
187.4405865948975
 21
232.2322558609799
 31
0.0
  0
LINE
  5
1A88
  8
0
 62
     0
 10
187.26201516632611
 20
232.2322558609799
 30
0.0
 11
187.26201516632611
 21
232.2322558609799
 31
0.0
  0
LINE
  5
1A89
  8
0
 62
     0
 10
182.61915802346891
 20
232.2322558609799
 30
0.0
 11
182.61915802346891
 21
232.2322558609799
 31
0.0
  0
LINE
  5
1A8A
  8
0
 62
     0
 10
182.4405865948975
 20
232.2322558609799
 30
0.0
 11
182.4405865948975
 21
232.2322558609799
 31
0.0
  0
LINE
  5
1A8B
  8
0
 62
     0
 10
182.26201516632611
 20
232.2322558609799
 30
0.0
 11
182.26201516632611
 21
232.2322558609799
 31
0.0
  0
LINE
  5
1A8C
  8
0
 62
     0
 10
182.08344373775461
 20
232.2322558609799
 30
0.0
 11
182.08344373775461
 21
232.2322558609799
 31
0.0
  0
LINE
  5
1A8D
  8
0
 62
     0
 10
189.58344373775461
 20
232.2322558609799
 30
0.0
 11
189.58344373775461
 21
232.2322558609799
 31
0.0
  0
LINE
  5
1A8E
  8
0
 62
     0
 10
189.40487230918311
 20
232.2322558609799
 30
0.0
 11
189.40487230918311
 21
232.2322558609799
 31
0.0
  0
LINE
  5
1A8F
  8
0
 62
     0
 10
189.22630088061169
 20
232.2322558609799
 30
0.0
 11
189.22630088061169
 21
232.2322558609799
 31
0.0
  0
LINE
  5
1A90
  8
0
 62
     0
 10
189.0477294520403
 20
232.2322558609799
 30
0.0
 11
189.0477294520403
 21
232.2322558609799
 31
0.0
  0
LINE
  5
1A91
  8
0
 62
     0
 10
179.94058659489741
 20
232.2322558609799
 30
0.0
 11
179.94058659489741
 21
232.2322558609799
 31
0.0
  0
LINE
  5
1A92
  8
0
 62
     0
 10
179.76201516632599
 20
232.2322558609799
 30
0.0
 11
179.76201516632599
 21
232.2322558609799
 31
0.0
  0
LINE
  5
1A93
  8
0
 62
     0
 10
179.58344373775461
 20
232.2322558609799
 30
0.0
 11
179.58344373775461
 21
232.2322558609799
 31
0.0
  0
LINE
  5
1A94
  8
0
 62
     0
 10
179.40487230918319
 20
232.2322558609799
 30
0.0
 11
179.40487230918319
 21
232.2322558609799
 31
0.0
  0
LINE
  5
1A95
  8
0
 62
     0
 10
192.9763008806118
 20
232.2322558609799
 30
0.0
 11
192.9763008806118
 21
232.2322558609799
 31
0.0
  0
LINE
  5
1A96
  8
0
 62
     0
 10
192.79772945204039
 20
232.2322558609799
 30
0.0
 11
192.79772945204039
 21
232.2322558609799
 31
0.0
  0
LINE
  5
1A97
  8
0
 62
     0
 10
192.619158023469
 20
232.2322558609799
 30
0.0
 11
192.619158023469
 21
232.2322558609799
 31
0.0
  0
LINE
  5
1A98
  8
0
 62
     0
 10
192.4405865948975
 20
232.2322558609799
 30
0.0
 11
192.4405865948975
 21
232.2322558609799
 31
0.0
  0
LINE
  5
1A99
  8
0
 62
     0
 10
174.94058659489741
 20
232.2322558609799
 30
0.0
 11
174.94058659489741
 21
232.2322558609799
 31
0.0
  0
LINE
  5
1A9A
  8
0
 62
     0
 10
174.76201516632599
 20
232.2322558609799
 30
0.0
 11
174.76201516632599
 21
232.2322558609799
 31
0.0
  0
LINE
  5
1A9B
  8
0
 62
     0
 10
174.58344373775461
 20
232.2322558609799
 30
0.0
 11
174.58344373775461
 21
232.2322558609799
 31
0.0
  0
LINE
  5
1A9C
  8
0
 62
     0
 10
174.40487230918319
 20
232.2322558609799
 30
0.0
 11
174.40487230918319
 21
232.2322558609799
 31
0.0
  0
LINE
  5
1A9D
  8
0
 62
     0
 10
184.85130088061169
 20
232.41082728955141
 30
0.0
 11
184.85130088061169
 21
232.41082728955141
 31
0.0
  0
LINE
  5
1A9E
  8
0
 62
     0
 10
184.6727294520403
 20
232.41082728955141
 30
0.0
 11
184.6727294520403
 21
232.41082728955141
 31
0.0
  0
LINE
  5
1A9F
  8
0
 62
     0
 10
184.4941580234688
 20
232.41082728955141
 30
0.0
 11
184.4941580234688
 21
232.41082728955141
 31
0.0
  0
LINE
  5
1AA0
  8
0
 62
     0
 10
184.31558659489741
 20
232.41082728955141
 30
0.0
 11
184.31558659489741
 21
232.41082728955141
 31
0.0
  0
LINE
  5
1AA1
  8
0
 62
     0
 10
187.88701516632599
 20
232.41082728955141
 30
0.0
 11
187.88701516632599
 21
232.41082728955141
 31
0.0
  0
LINE
  5
1AA2
  8
0
 62
     0
 10
187.70844373775461
 20
232.41082728955141
 30
0.0
 11
187.70844373775461
 21
232.41082728955141
 31
0.0
  0
LINE
  5
1AA3
  8
0
 62
     0
 10
187.52987230918319
 20
232.41082728955141
 30
0.0
 11
187.52987230918319
 21
232.41082728955141
 31
0.0
  0
LINE
  5
1AA4
  8
0
 62
     0
 10
187.35130088061169
 20
232.41082728955141
 30
0.0
 11
187.35130088061169
 21
232.41082728955141
 31
0.0
  0
LINE
  5
1AA5
  8
0
 62
     0
 10
182.70844373775461
 20
232.41082728955141
 30
0.0
 11
182.70844373775461
 21
232.41082728955141
 31
0.0
  0
LINE
  5
1AA6
  8
0
 62
     0
 10
182.52987230918311
 20
232.41082728955141
 30
0.0
 11
182.52987230918311
 21
232.41082728955141
 31
0.0
  0
LINE
  5
1AA7
  8
0
 62
     0
 10
182.35130088061169
 20
232.41082728955141
 30
0.0
 11
182.35130088061169
 21
232.41082728955141
 31
0.0
  0
LINE
  5
1AA8
  8
0
 62
     0
 10
182.1727294520403
 20
232.41082728955141
 30
0.0
 11
182.1727294520403
 21
232.41082728955141
 31
0.0
  0
LINE
  5
1AA9
  8
0
 62
     0
 10
189.67272945204019
 20
232.41082728955141
 30
0.0
 11
189.67272945204019
 21
232.41082728955141
 31
0.0
  0
LINE
  5
1AAA
  8
0
 62
     0
 10
189.4941580234688
 20
232.41082728955141
 30
0.0
 11
189.4941580234688
 21
232.41082728955141
 31
0.0
  0
LINE
  5
1AAB
  8
0
 62
     0
 10
189.31558659489741
 20
232.41082728955141
 30
0.0
 11
189.31558659489741
 21
232.41082728955141
 31
0.0
  0
LINE
  5
1AAC
  8
0
 62
     0
 10
189.13701516632599
 20
232.41082728955141
 30
0.0
 11
189.13701516632599
 21
232.41082728955141
 31
0.0
  0
LINE
  5
1AAD
  8
0
 62
     0
 10
179.85130088061169
 20
232.41082728955141
 30
0.0
 11
179.85130088061169
 21
232.41082728955141
 31
0.0
  0
LINE
  5
1AAE
  8
0
 62
     0
 10
179.67272945204019
 20
232.41082728955141
 30
0.0
 11
179.67272945204019
 21
232.41082728955141
 31
0.0
  0
LINE
  5
1AAF
  8
0
 62
     0
 10
179.4941580234688
 20
232.41082728955141
 30
0.0
 11
179.4941580234688
 21
232.41082728955141
 31
0.0
  0
LINE
  5
1AB0
  8
0
 62
     0
 10
179.31558659489741
 20
232.41082728955141
 30
0.0
 11
179.31558659489741
 21
232.41082728955141
 31
0.0
  0
LINE
  5
1AB1
  8
0
 62
     0
 10
192.88701516632599
 20
232.41082728955141
 30
0.0
 11
192.88701516632599
 21
232.41082728955141
 31
0.0
  0
LINE
  5
1AB2
  8
0
 62
     0
 10
192.70844373775461
 20
232.41082728955141
 30
0.0
 11
192.70844373775461
 21
232.41082728955141
 31
0.0
  0
LINE
  5
1AB3
  8
0
 62
     0
 10
192.52987230918319
 20
232.41082728955141
 30
0.0
 11
192.52987230918319
 21
232.41082728955141
 31
0.0
  0
LINE
  5
1AB4
  8
0
 62
     0
 10
192.3513008806118
 20
232.41082728955141
 30
0.0
 11
192.3513008806118
 21
232.41082728955141
 31
0.0
  0
LINE
  5
1AB5
  8
0
 62
     0
 10
174.85130088061169
 20
232.41082728955141
 30
0.0
 11
174.85130088061169
 21
232.41082728955141
 31
0.0
  0
LINE
  5
1AB6
  8
0
 62
     0
 10
174.67272945204019
 20
232.41082728955141
 30
0.0
 11
174.67272945204019
 21
232.41082728955141
 31
0.0
  0
LINE
  5
1AB7
  8
0
 62
     0
 10
174.4941580234688
 20
232.41082728955141
 30
0.0
 11
174.4941580234688
 21
232.41082728955141
 31
0.0
  0
LINE
  5
1AB8
  8
0
 62
     0
 10
174.31558659489741
 20
232.41082728955141
 30
0.0
 11
174.31558659489741
 21
232.41082728955141
 31
0.0
  0
LINE
  5
1AB9
  8
0
 62
     0
 10
187.79772945204019
 20
232.58939871812279
 30
0.0
 11
187.79772945204019
 21
232.58939871812279
 31
0.0
  0
LINE
  5
1ABA
  8
0
 62
     0
 10
187.6191580234688
 20
232.58939871812279
 30
0.0
 11
187.6191580234688
 21
232.58939871812279
 31
0.0
  0
LINE
  5
1ABB
  8
0
 62
     0
 10
187.44058659489741
 20
232.58939871812279
 30
0.0
 11
187.44058659489741
 21
232.58939871812279
 31
0.0
  0
LINE
  5
1ABC
  8
0
 62
     0
 10
187.26201516632591
 20
232.58939871812279
 30
0.0
 11
187.26201516632591
 21
232.58939871812279
 31
0.0
  0
LINE
  5
1ABD
  8
0
 62
     0
 10
187.08344373775449
 20
232.58939871812279
 30
0.0
 11
187.08344373775449
 21
232.58939871812279
 31
0.0
  0
LINE
  5
1ABE
  8
0
 62
     0
 10
182.79772945204019
 20
232.58939871812279
 30
0.0
 11
182.79772945204019
 21
232.58939871812279
 31
0.0
  0
LINE
  5
1ABF
  8
0
 62
     0
 10
182.6191580234688
 20
232.58939871812279
 30
0.0
 11
182.6191580234688
 21
232.58939871812279
 31
0.0
  0
LINE
  5
1AC0
  8
0
 62
     0
 10
182.44058659489741
 20
232.58939871812279
 30
0.0
 11
182.44058659489741
 21
232.58939871812279
 31
0.0
  0
LINE
  5
1AC1
  8
0
 62
     0
 10
182.26201516632599
 20
232.58939871812279
 30
0.0
 11
182.26201516632599
 21
232.58939871812279
 31
0.0
  0
LINE
  5
1AC2
  8
0
 62
     0
 10
189.58344373775441
 20
232.58939871812279
 30
0.0
 11
189.58344373775441
 21
232.58939871812279
 31
0.0
  0
LINE
  5
1AC3
  8
0
 62
     0
 10
189.40487230918299
 20
232.58939871812279
 30
0.0
 11
189.40487230918299
 21
232.58939871812279
 31
0.0
  0
LINE
  5
1AC4
  8
0
 62
     0
 10
189.2263008806116
 20
232.58939871812279
 30
0.0
 11
189.2263008806116
 21
232.58939871812279
 31
0.0
  0
LINE
  5
1AC5
  8
0
 62
     0
 10
189.04772945204019
 20
232.58939871812279
 30
0.0
 11
189.04772945204019
 21
232.58939871812279
 31
0.0
  0
LINE
  5
1AC6
  8
0
 62
     0
 10
179.76201516632591
 20
232.58939871812279
 30
0.0
 11
179.76201516632591
 21
232.58939871812279
 31
0.0
  0
LINE
  5
1AC7
  8
0
 62
     0
 10
179.58344373775449
 20
232.58939871812279
 30
0.0
 11
179.58344373775449
 21
232.58939871812279
 31
0.0
  0
LINE
  5
1AC8
  8
0
 62
     0
 10
179.40487230918299
 20
232.58939871812279
 30
0.0
 11
179.40487230918299
 21
232.58939871812279
 31
0.0
  0
LINE
  5
1AC9
  8
0
 62
     0
 10
179.2263008806116
 20
232.58939871812279
 30
0.0
 11
179.2263008806116
 21
232.58939871812279
 31
0.0
  0
LINE
  5
1ACA
  8
0
 62
     0
 10
192.97630088061169
 20
232.58939871812279
 30
0.0
 11
192.97630088061169
 21
232.58939871812279
 31
0.0
  0
LINE
  5
1ACB
  8
0
 62
     0
 10
192.7977294520403
 20
232.58939871812279
 30
0.0
 11
192.7977294520403
 21
232.58939871812279
 31
0.0
  0
LINE
  5
1ACC
  8
0
 62
     0
 10
192.6191580234688
 20
232.58939871812279
 30
0.0
 11
192.6191580234688
 21
232.58939871812279
 31
0.0
  0
LINE
  5
1ACD
  8
0
 62
     0
 10
192.44058659489741
 20
232.58939871812279
 30
0.0
 11
192.44058659489741
 21
232.58939871812279
 31
0.0
  0
LINE
  5
1ACE
  8
0
 62
     0
 10
174.9405865948973
 20
232.58939871812279
 30
0.0
 11
174.9405865948973
 21
232.58939871812279
 31
0.0
  0
LINE
  5
1ACF
  8
0
 62
     0
 10
174.76201516632591
 20
232.58939871812279
 30
0.0
 11
174.76201516632591
 21
232.58939871812279
 31
0.0
  0
LINE
  5
1AD0
  8
0
 62
     0
 10
174.58344373775449
 20
232.58939871812279
 30
0.0
 11
174.58344373775449
 21
232.58939871812279
 31
0.0
  0
LINE
  5
1AD1
  8
0
 62
     0
 10
174.40487230918311
 20
232.58939871812279
 30
0.0
 11
174.40487230918311
 21
232.58939871812279
 31
0.0
  0
LINE
  5
1AD2
  8
0
 62
     0
 10
187.52987230918311
 20
232.76797014669421
 30
0.0
 11
187.52987230918311
 21
232.76797014669421
 31
0.0
  0
LINE
  5
1AD3
  8
0
 62
     0
 10
187.35130088061169
 20
232.76797014669421
 30
0.0
 11
187.35130088061169
 21
232.76797014669421
 31
0.0
  0
LINE
  5
1AD4
  8
0
 62
     0
 10
187.17272945204019
 20
232.76797014669421
 30
0.0
 11
187.17272945204019
 21
232.76797014669421
 31
0.0
  0
LINE
  5
1AD5
  8
0
 62
     0
 10
186.9941580234688
 20
232.76797014669421
 30
0.0
 11
186.9941580234688
 21
232.76797014669421
 31
0.0
  0
LINE
  5
1AD6
  8
0
 62
     0
 10
186.81558659489741
 20
232.76797014669421
 30
0.0
 11
186.81558659489741
 21
232.76797014669421
 31
0.0
  0
LINE
  5
1AD7
  8
0
 62
     0
 10
182.88701516632599
 20
232.76797014669421
 30
0.0
 11
182.88701516632599
 21
232.76797014669421
 31
0.0
  0
LINE
  5
1AD8
  8
0
 62
     0
 10
182.70844373775461
 20
232.76797014669421
 30
0.0
 11
182.70844373775461
 21
232.76797014669421
 31
0.0
  0
LINE
  5
1AD9
  8
0
 62
     0
 10
182.52987230918319
 20
232.76797014669421
 30
0.0
 11
182.52987230918319
 21
232.76797014669421
 31
0.0
  0
LINE
  5
1ADA
  8
0
 62
     0
 10
182.35130088061169
 20
232.76797014669421
 30
0.0
 11
182.35130088061169
 21
232.76797014669421
 31
0.0
  0
LINE
  5
1ADB
  8
0
 62
     0
 10
189.67272945204019
 20
232.76797014669421
 30
0.0
 11
189.67272945204019
 21
232.76797014669421
 31
0.0
  0
LINE
  5
1ADC
  8
0
 62
     0
 10
189.4941580234688
 20
232.76797014669421
 30
0.0
 11
189.4941580234688
 21
232.76797014669421
 31
0.0
  0
LINE
  5
1ADD
  8
0
 62
     0
 10
189.31558659489741
 20
232.76797014669421
 30
0.0
 11
189.31558659489741
 21
232.76797014669421
 31
0.0
  0
LINE
  5
1ADE
  8
0
 62
     0
 10
189.13701516632599
 20
232.76797014669421
 30
0.0
 11
189.13701516632599
 21
232.76797014669421
 31
0.0
  0
LINE
  5
1ADF
  8
0
 62
     0
 10
179.67272945204019
 20
232.76797014669421
 30
0.0
 11
179.67272945204019
 21
232.76797014669421
 31
0.0
  0
LINE
  5
1AE0
  8
0
 62
     0
 10
179.4941580234688
 20
232.76797014669421
 30
0.0
 11
179.4941580234688
 21
232.76797014669421
 31
0.0
  0
LINE
  5
1AE1
  8
0
 62
     0
 10
179.31558659489741
 20
232.76797014669421
 30
0.0
 11
179.31558659489741
 21
232.76797014669421
 31
0.0
  0
LINE
  5
1AE2
  8
0
 62
     0
 10
179.13701516632599
 20
232.76797014669421
 30
0.0
 11
179.13701516632599
 21
232.76797014669421
 31
0.0
  0
LINE
  5
1AE3
  8
0
 62
     0
 10
192.88701516632599
 20
232.76797014669421
 30
0.0
 11
192.88701516632599
 21
232.76797014669421
 31
0.0
  0
LINE
  5
1AE4
  8
0
 62
     0
 10
192.70844373775461
 20
232.76797014669421
 30
0.0
 11
192.70844373775461
 21
232.76797014669421
 31
0.0
  0
LINE
  5
1AE5
  8
0
 62
     0
 10
192.52987230918319
 20
232.76797014669421
 30
0.0
 11
192.52987230918319
 21
232.76797014669421
 31
0.0
  0
LINE
  5
1AE6
  8
0
 62
     0
 10
192.3513008806118
 20
232.76797014669421
 30
0.0
 11
192.3513008806118
 21
232.76797014669421
 31
0.0
  0
LINE
  5
1AE7
  8
0
 62
     0
 10
174.85130088061169
 20
232.76797014669421
 30
0.0
 11
174.85130088061169
 21
232.76797014669421
 31
0.0
  0
LINE
  5
1AE8
  8
0
 62
     0
 10
174.67272945204019
 20
232.76797014669421
 30
0.0
 11
174.67272945204019
 21
232.76797014669421
 31
0.0
  0
LINE
  5
1AE9
  8
0
 62
     0
 10
174.4941580234688
 20
232.76797014669421
 30
0.0
 11
174.4941580234688
 21
232.76797014669421
 31
0.0
  0
LINE
  5
1AEA
  8
0
 62
     0
 10
174.31558659489741
 20
232.76797014669421
 30
0.0
 11
174.31558659489741
 21
232.76797014669421
 31
0.0
  0
LINE
  5
1AEB
  8
0
 62
     0
 10
187.26201516632611
 20
232.94654157526571
 30
0.0
 11
187.26201516632611
 21
232.94654157526571
 31
0.0
  0
LINE
  5
1AEC
  8
0
 62
     0
 10
187.08344373775461
 20
232.94654157526571
 30
0.0
 11
187.08344373775461
 21
232.94654157526571
 31
0.0
  0
LINE
  5
1AED
  8
0
 62
     0
 10
186.90487230918319
 20
232.94654157526571
 30
0.0
 11
186.90487230918319
 21
232.94654157526571
 31
0.0
  0
LINE
  5
1AEE
  8
0
 62
     0
 10
186.7263008806118
 20
232.94654157526571
 30
0.0
 11
186.7263008806118
 21
232.94654157526571
 31
0.0
  0
LINE
  5
1AEF
  8
0
 62
     0
 10
186.54772945204039
 20
232.94654157526571
 30
0.0
 11
186.54772945204039
 21
232.94654157526571
 31
0.0
  0
LINE
  5
1AF0
  8
0
 62
     0
 10
186.369158023469
 20
232.94654157526571
 30
0.0
 11
186.369158023469
 21
232.94654157526571
 31
0.0
  0
LINE
  5
1AF1
  8
0
 62
     0
 10
182.9763008806118
 20
232.94654157526571
 30
0.0
 11
182.9763008806118
 21
232.94654157526571
 31
0.0
  0
LINE
  5
1AF2
  8
0
 62
     0
 10
182.79772945204039
 20
232.94654157526571
 30
0.0
 11
182.79772945204039
 21
232.94654157526571
 31
0.0
  0
LINE
  5
1AF3
  8
0
 62
     0
 10
182.619158023469
 20
232.94654157526571
 30
0.0
 11
182.619158023469
 21
232.94654157526571
 31
0.0
  0
LINE
  5
1AF4
  8
0
 62
     0
 10
182.4405865948975
 20
232.94654157526571
 30
0.0
 11
182.4405865948975
 21
232.94654157526571
 31
0.0
  0
LINE
  5
1AF5
  8
0
 62
     0
 10
189.58344373775469
 20
232.94654157526571
 30
0.0
 11
189.58344373775469
 21
232.94654157526571
 31
0.0
  0
LINE
  5
1AF6
  8
0
 62
     0
 10
189.4048723091833
 20
232.94654157526571
 30
0.0
 11
189.4048723091833
 21
232.94654157526571
 31
0.0
  0
LINE
  5
1AF7
  8
0
 62
     0
 10
189.2263008806118
 20
232.94654157526571
 30
0.0
 11
189.2263008806118
 21
232.94654157526571
 31
0.0
  0
LINE
  5
1AF8
  8
0
 62
     0
 10
189.04772945204039
 20
232.94654157526571
 30
0.0
 11
189.04772945204039
 21
232.94654157526571
 31
0.0
  0
LINE
  5
1AF9
  8
0
 62
     0
 10
179.76201516632599
 20
232.94654157526571
 30
0.0
 11
179.76201516632599
 21
232.94654157526571
 31
0.0
  0
LINE
  5
1AFA
  8
0
 62
     0
 10
179.58344373775461
 20
232.94654157526571
 30
0.0
 11
179.58344373775461
 21
232.94654157526571
 31
0.0
  0
LINE
  5
1AFB
  8
0
 62
     0
 10
179.40487230918319
 20
232.94654157526571
 30
0.0
 11
179.40487230918319
 21
232.94654157526571
 31
0.0
  0
LINE
  5
1AFC
  8
0
 62
     0
 10
179.22630088061169
 20
232.94654157526571
 30
0.0
 11
179.22630088061169
 21
232.94654157526571
 31
0.0
  0
LINE
  5
1AFD
  8
0
 62
     0
 10
192.9763008806118
 20
232.94654157526571
 30
0.0
 11
192.9763008806118
 21
232.94654157526571
 31
0.0
  0
LINE
  5
1AFE
  8
0
 62
     0
 10
192.79772945204039
 20
232.94654157526571
 30
0.0
 11
192.79772945204039
 21
232.94654157526571
 31
0.0
  0
LINE
  5
1AFF
  8
0
 62
     0
 10
192.619158023469
 20
232.94654157526571
 30
0.0
 11
192.619158023469
 21
232.94654157526571
 31
0.0
  0
LINE
  5
1B00
  8
0
 62
     0
 10
192.4405865948975
 20
232.94654157526571
 30
0.0
 11
192.4405865948975
 21
232.94654157526571
 31
0.0
  0
LINE
  5
1B01
  8
0
 62
     0
 10
176.90487230918299
 20
232.94654157526571
 30
0.0
 11
176.90487230918299
 21
232.94654157526571
 31
0.0
  0
LINE
  5
1B02
  8
0
 62
     0
 10
176.7263008806116
 20
232.94654157526571
 30
0.0
 11
176.7263008806116
 21
232.94654157526571
 31
0.0
  0
LINE
  5
1B03
  8
0
 62
     0
 10
176.54772945204019
 20
232.94654157526571
 30
0.0
 11
176.54772945204019
 21
232.94654157526571
 31
0.0
  0
LINE
  5
1B04
  8
0
 62
     0
 10
176.3691580234688
 20
232.94654157526571
 30
0.0
 11
176.3691580234688
 21
232.94654157526571
 31
0.0
  0
LINE
  5
1B05
  8
0
 62
     0
 10
176.19058659489741
 20
232.94654157526571
 30
0.0
 11
176.19058659489741
 21
232.94654157526571
 31
0.0
  0
LINE
  5
1B06
  8
0
 62
     0
 10
176.01201516632591
 20
232.94654157526571
 30
0.0
 11
176.01201516632591
 21
232.94654157526571
 31
0.0
  0
LINE
  5
1B07
  8
0
 62
     0
 10
175.83344373775449
 20
232.94654157526571
 30
0.0
 11
175.83344373775449
 21
232.94654157526571
 31
0.0
  0
LINE
  5
1B08
  8
0
 62
     0
 10
175.65487230918311
 20
232.94654157526571
 30
0.0
 11
175.65487230918311
 21
232.94654157526571
 31
0.0
  0
LINE
  5
1B09
  8
0
 62
     0
 10
175.47630088061169
 20
232.94654157526571
 30
0.0
 11
175.47630088061169
 21
232.94654157526571
 31
0.0
  0
LINE
  5
1B0A
  8
0
 62
     0
 10
175.2977294520403
 20
232.94654157526571
 30
0.0
 11
175.2977294520403
 21
232.94654157526571
 31
0.0
  0
LINE
  5
1B0B
  8
0
 62
     0
 10
175.11915802346891
 20
232.94654157526571
 30
0.0
 11
175.11915802346891
 21
232.94654157526571
 31
0.0
  0
LINE
  5
1B0C
  8
0
 62
     0
 10
174.94058659489741
 20
232.94654157526571
 30
0.0
 11
174.94058659489741
 21
232.94654157526571
 31
0.0
  0
LINE
  5
1B0D
  8
0
 62
     0
 10
174.76201516632599
 20
232.94654157526571
 30
0.0
 11
174.76201516632599
 21
232.94654157526571
 31
0.0
  0
LINE
  5
1B0E
  8
0
 62
     0
 10
174.58344373775461
 20
232.94654157526571
 30
0.0
 11
174.58344373775461
 21
232.94654157526571
 31
0.0
  0
LINE
  5
1B0F
  8
0
 62
     0
 10
174.40487230918319
 20
232.94654157526571
 30
0.0
 11
174.40487230918319
 21
232.94654157526571
 31
0.0
  0
LINE
  5
1B10
  8
0
 62
     0
 10
186.81558659489741
 20
233.1251130038371
 30
0.0
 11
186.81558659489741
 21
233.1251130038371
 31
0.0
  0
LINE
  5
1B11
  8
0
 62
     0
 10
186.63701516632599
 20
233.1251130038371
 30
0.0
 11
186.63701516632599
 21
233.1251130038371
 31
0.0
  0
LINE
  5
1B12
  8
0
 62
     0
 10
186.45844373775461
 20
233.1251130038371
 30
0.0
 11
186.45844373775461
 21
233.1251130038371
 31
0.0
  0
LINE
  5
1B13
  8
0
 62
     0
 10
186.27987230918311
 20
233.1251130038371
 30
0.0
 11
186.27987230918311
 21
233.1251130038371
 31
0.0
  0
LINE
  5
1B14
  8
0
 62
     0
 10
186.10130088061169
 20
233.1251130038371
 30
0.0
 11
186.10130088061169
 21
233.1251130038371
 31
0.0
  0
LINE
  5
1B15
  8
0
 62
     0
 10
185.9227294520403
 20
233.1251130038371
 30
0.0
 11
185.9227294520403
 21
233.1251130038371
 31
0.0
  0
LINE
  5
1B16
  8
0
 62
     0
 10
182.88701516632599
 20
233.1251130038371
 30
0.0
 11
182.88701516632599
 21
233.1251130038371
 31
0.0
  0
LINE
  5
1B17
  8
0
 62
     0
 10
182.70844373775461
 20
233.1251130038371
 30
0.0
 11
182.70844373775461
 21
233.1251130038371
 31
0.0
  0
LINE
  5
1B18
  8
0
 62
     0
 10
182.52987230918319
 20
233.1251130038371
 30
0.0
 11
182.52987230918319
 21
233.1251130038371
 31
0.0
  0
LINE
  5
1B19
  8
0
 62
     0
 10
182.35130088061169
 20
233.1251130038371
 30
0.0
 11
182.35130088061169
 21
233.1251130038371
 31
0.0
  0
LINE
  5
1B1A
  8
0
 62
     0
 10
189.6727294520403
 20
233.1251130038371
 30
0.0
 11
189.6727294520403
 21
233.1251130038371
 31
0.0
  0
LINE
  5
1B1B
  8
0
 62
     0
 10
189.49415802346891
 20
233.1251130038371
 30
0.0
 11
189.49415802346891
 21
233.1251130038371
 31
0.0
  0
LINE
  5
1B1C
  8
0
 62
     0
 10
189.3155865948975
 20
233.1251130038371
 30
0.0
 11
189.3155865948975
 21
233.1251130038371
 31
0.0
  0
LINE
  5
1B1D
  8
0
 62
     0
 10
189.13701516632611
 20
233.1251130038371
 30
0.0
 11
189.13701516632611
 21
233.1251130038371
 31
0.0
  0
LINE
  5
1B1E
  8
0
 62
     0
 10
179.6727294520403
 20
233.1251130038371
 30
0.0
 11
179.6727294520403
 21
233.1251130038371
 31
0.0
  0
LINE
  5
1B1F
  8
0
 62
     0
 10
179.49415802346891
 20
233.1251130038371
 30
0.0
 11
179.49415802346891
 21
233.1251130038371
 31
0.0
  0
LINE
  5
1B20
  8
0
 62
     0
 10
179.3155865948975
 20
233.1251130038371
 30
0.0
 11
179.3155865948975
 21
233.1251130038371
 31
0.0
  0
LINE
  5
1B21
  8
0
 62
     0
 10
179.13701516632611
 20
233.1251130038371
 30
0.0
 11
179.13701516632611
 21
233.1251130038371
 31
0.0
  0
LINE
  5
1B22
  8
0
 62
     0
 10
192.88701516632599
 20
233.1251130038371
 30
0.0
 11
192.88701516632599
 21
233.1251130038371
 31
0.0
  0
LINE
  5
1B23
  8
0
 62
     0
 10
192.70844373775461
 20
233.1251130038371
 30
0.0
 11
192.70844373775461
 21
233.1251130038371
 31
0.0
  0
LINE
  5
1B24
  8
0
 62
     0
 10
192.52987230918319
 20
233.1251130038371
 30
0.0
 11
192.52987230918319
 21
233.1251130038371
 31
0.0
  0
LINE
  5
1B25
  8
0
 62
     0
 10
192.3513008806118
 20
233.1251130038371
 30
0.0
 11
192.3513008806118
 21
233.1251130038371
 31
0.0
  0
LINE
  5
1B26
  8
0
 62
     0
 10
177.35130088061149
 20
233.1251130038371
 30
0.0
 11
177.35130088061149
 21
233.1251130038371
 31
0.0
  0
LINE
  5
1B27
  8
0
 62
     0
 10
177.1727294520401
 20
233.1251130038371
 30
0.0
 11
177.1727294520401
 21
233.1251130038371
 31
0.0
  0
LINE
  5
1B28
  8
0
 62
     0
 10
176.99415802346871
 20
233.1251130038371
 30
0.0
 11
176.99415802346871
 21
233.1251130038371
 31
0.0
  0
LINE
  5
1B29
  8
0
 62
     0
 10
176.81558659489721
 20
233.1251130038371
 30
0.0
 11
176.81558659489721
 21
233.1251130038371
 31
0.0
  0
LINE
  5
1B2A
  8
0
 62
     0
 10
176.6370151663258
 20
233.1251130038371
 30
0.0
 11
176.6370151663258
 21
233.1251130038371
 31
0.0
  0
LINE
  5
1B2B
  8
0
 62
     0
 10
176.45844373775441
 20
233.1251130038371
 30
0.0
 11
176.45844373775441
 21
233.1251130038371
 31
0.0
  0
LINE
  5
1B2C
  8
0
 62
     0
 10
176.27987230918299
 20
233.1251130038371
 30
0.0
 11
176.27987230918299
 21
233.1251130038371
 31
0.0
  0
LINE
  5
1B2D
  8
0
 62
     0
 10
176.1013008806116
 20
233.1251130038371
 30
0.0
 11
176.1013008806116
 21
233.1251130038371
 31
0.0
  0
LINE
  5
1B2E
  8
0
 62
     0
 10
175.92272945204019
 20
233.1251130038371
 30
0.0
 11
175.92272945204019
 21
233.1251130038371
 31
0.0
  0
LINE
  5
1B2F
  8
0
 62
     0
 10
175.74415802346871
 20
233.1251130038371
 30
0.0
 11
175.74415802346871
 21
233.1251130038371
 31
0.0
  0
LINE
  5
1B30
  8
0
 62
     0
 10
175.5655865948973
 20
233.1251130038371
 30
0.0
 11
175.5655865948973
 21
233.1251130038371
 31
0.0
  0
LINE
  5
1B31
  8
0
 62
     0
 10
175.38701516632591
 20
233.1251130038371
 30
0.0
 11
175.38701516632591
 21
233.1251130038371
 31
0.0
  0
LINE
  5
1B32
  8
0
 62
     0
 10
175.20844373775449
 20
233.1251130038371
 30
0.0
 11
175.20844373775449
 21
233.1251130038371
 31
0.0
  0
LINE
  5
1B33
  8
0
 62
     0
 10
175.02987230918311
 20
233.1251130038371
 30
0.0
 11
175.02987230918311
 21
233.1251130038371
 31
0.0
  0
LINE
  5
1B34
  8
0
 62
     0
 10
174.85130088061169
 20
233.1251130038371
 30
0.0
 11
174.85130088061169
 21
233.1251130038371
 31
0.0
  0
LINE
  5
1B35
  8
0
 62
     0
 10
174.67272945204019
 20
233.1251130038371
 30
0.0
 11
174.67272945204019
 21
233.1251130038371
 31
0.0
  0
LINE
  5
1B36
  8
0
 62
     0
 10
174.4941580234688
 20
233.1251130038371
 30
0.0
 11
174.4941580234688
 21
233.1251130038371
 31
0.0
  0
LINE
  5
1B37
  8
0
 62
     0
 10
174.31558659489741
 20
233.1251130038371
 30
0.0
 11
174.31558659489741
 21
233.1251130038371
 31
0.0
  0
LINE
  5
1B38
  8
0
 62
     0
 10
182.97630088061169
 20
233.30368443240849
 30
0.0
 11
182.97630088061169
 21
233.30368443240849
 31
0.0
  0
LINE
  5
1B39
  8
0
 62
     0
 10
182.7977294520403
 20
233.30368443240849
 30
0.0
 11
182.7977294520403
 21
233.30368443240849
 31
0.0
  0
LINE
  5
1B3A
  8
0
 62
     0
 10
182.6191580234688
 20
233.30368443240849
 30
0.0
 11
182.6191580234688
 21
233.30368443240849
 31
0.0
  0
LINE
  5
1B3B
  8
0
 62
     0
 10
182.44058659489741
 20
233.30368443240849
 30
0.0
 11
182.44058659489741
 21
233.30368443240849
 31
0.0
  0
LINE
  5
1B3C
  8
0
 62
     0
 10
186.3691580234688
 20
233.30368443240849
 30
0.0
 11
186.3691580234688
 21
233.30368443240849
 31
0.0
  0
LINE
  5
1B3D
  8
0
 62
     0
 10
186.19058659489741
 20
233.30368443240849
 30
0.0
 11
186.19058659489741
 21
233.30368443240849
 31
0.0
  0
LINE
  5
1B3E
  8
0
 62
     0
 10
186.01201516632599
 20
233.30368443240849
 30
0.0
 11
186.01201516632599
 21
233.30368443240849
 31
0.0
  0
LINE
  5
1B3F
  8
0
 62
     0
 10
185.83344373775461
 20
233.30368443240849
 30
0.0
 11
185.83344373775461
 21
233.30368443240849
 31
0.0
  0
LINE
  5
1B40
  8
0
 62
     0
 10
185.65487230918319
 20
233.30368443240849
 30
0.0
 11
185.65487230918319
 21
233.30368443240849
 31
0.0
  0
LINE
  5
1B41
  8
0
 62
     0
 10
185.47630088061169
 20
233.30368443240849
 30
0.0
 11
185.47630088061169
 21
233.30368443240849
 31
0.0
  0
LINE
  5
1B42
  8
0
 62
     0
 10
179.76201516632599
 20
233.30368443240849
 30
0.0
 11
179.76201516632599
 21
233.30368443240849
 31
0.0
  0
LINE
  5
1B43
  8
0
 62
     0
 10
179.58344373775461
 20
233.30368443240849
 30
0.0
 11
179.58344373775461
 21
233.30368443240849
 31
0.0
  0
LINE
  5
1B44
  8
0
 62
     0
 10
179.40487230918319
 20
233.30368443240849
 30
0.0
 11
179.40487230918319
 21
233.30368443240849
 31
0.0
  0
LINE
  5
1B45
  8
0
 62
     0
 10
179.22630088061169
 20
233.30368443240849
 30
0.0
 11
179.22630088061169
 21
233.30368443240849
 31
0.0
  0
LINE
  5
1B46
  8
0
 62
     0
 10
192.97630088061149
 20
233.30368443240849
 30
0.0
 11
192.97630088061149
 21
233.30368443240849
 31
0.0
  0
LINE
  5
1B47
  8
0
 62
     0
 10
192.7977294520401
 20
233.30368443240849
 30
0.0
 11
192.7977294520401
 21
233.30368443240849
 31
0.0
  0
LINE
  5
1B48
  8
0
 62
     0
 10
192.6191580234686
 20
233.30368443240849
 30
0.0
 11
192.6191580234686
 21
233.30368443240849
 31
0.0
  0
LINE
  5
1B49
  8
0
 62
     0
 10
192.44058659489721
 20
233.30368443240849
 30
0.0
 11
192.44058659489721
 21
233.30368443240849
 31
0.0
  0
LINE
  5
1B4A
  8
0
 62
     0
 10
192.2620151663258
 20
233.30368443240849
 30
0.0
 11
192.2620151663258
 21
233.30368443240849
 31
0.0
  0
LINE
  5
1B4B
  8
0
 62
     0
 10
192.08344373775441
 20
233.30368443240849
 30
0.0
 11
192.08344373775441
 21
233.30368443240849
 31
0.0
  0
LINE
  5
1B4C
  8
0
 62
     0
 10
191.90487230918299
 20
233.30368443240849
 30
0.0
 11
191.90487230918299
 21
233.30368443240849
 31
0.0
  0
LINE
  5
1B4D
  8
0
 62
     0
 10
191.72630088061149
 20
233.30368443240849
 30
0.0
 11
191.72630088061149
 21
233.30368443240849
 31
0.0
  0
LINE
  5
1B4E
  8
0
 62
     0
 10
191.5477294520401
 20
233.30368443240849
 30
0.0
 11
191.5477294520401
 21
233.30368443240849
 31
0.0
  0
LINE
  5
1B4F
  8
0
 62
     0
 10
191.36915802346871
 20
233.30368443240849
 30
0.0
 11
191.36915802346871
 21
233.30368443240849
 31
0.0
  0
LINE
  5
1B50
  8
0
 62
     0
 10
191.1905865948973
 20
233.30368443240849
 30
0.0
 11
191.1905865948973
 21
233.30368443240849
 31
0.0
  0
LINE
  5
1B51
  8
0
 62
     0
 10
191.01201516632591
 20
233.30368443240849
 30
0.0
 11
191.01201516632591
 21
233.30368443240849
 31
0.0
  0
LINE
  5
1B52
  8
0
 62
     0
 10
190.83344373775449
 20
233.30368443240849
 30
0.0
 11
190.83344373775449
 21
233.30368443240849
 31
0.0
  0
LINE
  5
1B53
  8
0
 62
     0
 10
190.65487230918299
 20
233.30368443240849
 30
0.0
 11
190.65487230918299
 21
233.30368443240849
 31
0.0
  0
LINE
  5
1B54
  8
0
 62
     0
 10
190.4763008806116
 20
233.30368443240849
 30
0.0
 11
190.4763008806116
 21
233.30368443240849
 31
0.0
  0
LINE
  5
1B55
  8
0
 62
     0
 10
190.29772945204019
 20
233.30368443240849
 30
0.0
 11
190.29772945204019
 21
233.30368443240849
 31
0.0
  0
LINE
  5
1B56
  8
0
 62
     0
 10
190.1191580234688
 20
233.30368443240849
 30
0.0
 11
190.1191580234688
 21
233.30368443240849
 31
0.0
  0
LINE
  5
1B57
  8
0
 62
     0
 10
189.94058659489741
 20
233.30368443240849
 30
0.0
 11
189.94058659489741
 21
233.30368443240849
 31
0.0
  0
LINE
  5
1B58
  8
0
 62
     0
 10
189.76201516632599
 20
233.30368443240849
 30
0.0
 11
189.76201516632599
 21
233.30368443240849
 31
0.0
  0
LINE
  5
1B59
  8
0
 62
     0
 10
189.58344373775461
 20
233.30368443240849
 30
0.0
 11
189.58344373775461
 21
233.30368443240849
 31
0.0
  0
LINE
  5
1B5A
  8
0
 62
     0
 10
189.40487230918311
 20
233.30368443240849
 30
0.0
 11
189.40487230918311
 21
233.30368443240849
 31
0.0
  0
LINE
  5
1B5B
  8
0
 62
     0
 10
189.22630088061169
 20
233.30368443240849
 30
0.0
 11
189.22630088061169
 21
233.30368443240849
 31
0.0
  0
LINE
  5
1B5C
  8
0
 62
     0
 10
189.0477294520403
 20
233.30368443240849
 30
0.0
 11
189.0477294520403
 21
233.30368443240849
 31
0.0
  0
LINE
  5
1B5D
  8
0
 62
     0
 10
177.6191580234686
 20
233.30368443240849
 30
0.0
 11
177.6191580234686
 21
233.30368443240849
 31
0.0
  0
LINE
  5
1B5E
  8
0
 62
     0
 10
177.44058659489721
 20
233.30368443240849
 30
0.0
 11
177.44058659489721
 21
233.30368443240849
 31
0.0
  0
LINE
  5
1B5F
  8
0
 62
     0
 10
177.26201516632571
 20
233.30368443240849
 30
0.0
 11
177.26201516632571
 21
233.30368443240849
 31
0.0
  0
LINE
  5
1B60
  8
0
 62
     0
 10
177.08344373775429
 20
233.30368443240849
 30
0.0
 11
177.08344373775429
 21
233.30368443240849
 31
0.0
  0
LINE
  5
1B61
  8
0
 62
     0
 10
176.90487230918291
 20
233.30368443240849
 30
0.0
 11
176.90487230918291
 21
233.30368443240849
 31
0.0
  0
LINE
  5
1B62
  8
0
 62
     0
 10
176.72630088061149
 20
233.30368443240849
 30
0.0
 11
176.72630088061149
 21
233.30368443240849
 31
0.0
  0
LINE
  5
1B63
  8
0
 62
     0
 10
176.5477294520401
 20
233.30368443240849
 30
0.0
 11
176.5477294520401
 21
233.30368443240849
 31
0.0
  0
LINE
  5
1B64
  8
0
 62
     0
 10
176.36915802346871
 20
233.30368443240849
 30
0.0
 11
176.36915802346871
 21
233.30368443240849
 31
0.0
  0
LINE
  5
1B65
  8
0
 62
     0
 10
176.1905865948973
 20
233.30368443240849
 30
0.0
 11
176.1905865948973
 21
233.30368443240849
 31
0.0
  0
LINE
  5
1B66
  8
0
 62
     0
 10
176.0120151663258
 20
233.30368443240849
 30
0.0
 11
176.0120151663258
 21
233.30368443240849
 31
0.0
  0
LINE
  5
1B67
  8
0
 62
     0
 10
175.83344373775441
 20
233.30368443240849
 30
0.0
 11
175.83344373775441
 21
233.30368443240849
 31
0.0
  0
LINE
  5
1B68
  8
0
 62
     0
 10
175.65487230918299
 20
233.30368443240849
 30
0.0
 11
175.65487230918299
 21
233.30368443240849
 31
0.0
  0
LINE
  5
1B69
  8
0
 62
     0
 10
175.4763008806116
 20
233.30368443240849
 30
0.0
 11
175.4763008806116
 21
233.30368443240849
 31
0.0
  0
LINE
  5
1B6A
  8
0
 62
     0
 10
175.29772945204019
 20
233.30368443240849
 30
0.0
 11
175.29772945204019
 21
233.30368443240849
 31
0.0
  0
LINE
  5
1B6B
  8
0
 62
     0
 10
175.1191580234688
 20
233.30368443240849
 30
0.0
 11
175.1191580234688
 21
233.30368443240849
 31
0.0
  0
LINE
  5
1B6C
  8
0
 62
     0
 10
174.9405865948973
 20
233.30368443240849
 30
0.0
 11
174.9405865948973
 21
233.30368443240849
 31
0.0
  0
LINE
  5
1B6D
  8
0
 62
     0
 10
174.76201516632591
 20
233.30368443240849
 30
0.0
 11
174.76201516632591
 21
233.30368443240849
 31
0.0
  0
LINE
  5
1B6E
  8
0
 62
     0
 10
174.58344373775449
 20
233.30368443240849
 30
0.0
 11
174.58344373775449
 21
233.30368443240849
 31
0.0
  0
LINE
  5
1B6F
  8
0
 62
     0
 10
174.40487230918311
 20
233.30368443240849
 30
0.0
 11
174.40487230918311
 21
233.30368443240849
 31
0.0
  0
LINE
  5
1B70
  8
0
 62
     0
 10
182.88701516632599
 20
233.4822558609799
 30
0.0
 11
182.88701516632599
 21
233.4822558609799
 31
0.0
  0
LINE
  5
1B71
  8
0
 62
     0
 10
182.70844373775461
 20
233.4822558609799
 30
0.0
 11
182.70844373775461
 21
233.4822558609799
 31
0.0
  0
LINE
  5
1B72
  8
0
 62
     0
 10
182.52987230918319
 20
233.4822558609799
 30
0.0
 11
182.52987230918319
 21
233.4822558609799
 31
0.0
  0
LINE
  5
1B73
  8
0
 62
     0
 10
182.35130088061169
 20
233.4822558609799
 30
0.0
 11
182.35130088061169
 21
233.4822558609799
 31
0.0
  0
LINE
  5
1B74
  8
0
 62
     0
 10
179.6727294520403
 20
233.4822558609799
 30
0.0
 11
179.6727294520403
 21
233.4822558609799
 31
0.0
  0
LINE
  5
1B75
  8
0
 62
     0
 10
179.49415802346891
 20
233.4822558609799
 30
0.0
 11
179.49415802346891
 21
233.4822558609799
 31
0.0
  0
LINE
  5
1B76
  8
0
 62
     0
 10
179.3155865948975
 20
233.4822558609799
 30
0.0
 11
179.3155865948975
 21
233.4822558609799
 31
0.0
  0
LINE
  5
1B77
  8
0
 62
     0
 10
179.13701516632611
 20
233.4822558609799
 30
0.0
 11
179.13701516632611
 21
233.4822558609799
 31
0.0
  0
LINE
  5
1B78
  8
0
 62
     0
 10
186.10130088061169
 20
233.4822558609799
 30
0.0
 11
186.10130088061169
 21
233.4822558609799
 31
0.0
  0
LINE
  5
1B79
  8
0
 62
     0
 10
185.9227294520403
 20
233.4822558609799
 30
0.0
 11
185.9227294520403
 21
233.4822558609799
 31
0.0
  0
LINE
  5
1B7A
  8
0
 62
     0
 10
185.74415802346891
 20
233.4822558609799
 30
0.0
 11
185.74415802346891
 21
233.4822558609799
 31
0.0
  0
LINE
  5
1B7B
  8
0
 62
     0
 10
185.5655865948975
 20
233.4822558609799
 30
0.0
 11
185.5655865948975
 21
233.4822558609799
 31
0.0
  0
LINE
  5
1B7C
  8
0
 62
     0
 10
185.38701516632611
 20
233.4822558609799
 30
0.0
 11
185.38701516632611
 21
233.4822558609799
 31
0.0
  0
LINE
  5
1B7D
  8
0
 62
     0
 10
185.20844373775461
 20
233.4822558609799
 30
0.0
 11
185.20844373775461
 21
233.4822558609799
 31
0.0
  0
LINE
  5
1B7E
  8
0
 62
     0
 10
177.88701516632591
 20
233.4822558609799
 30
0.0
 11
177.88701516632591
 21
233.4822558609799
 31
0.0
  0
LINE
  5
1B7F
  8
0
 62
     0
 10
177.70844373775449
 20
233.4822558609799
 30
0.0
 11
177.70844373775449
 21
233.4822558609799
 31
0.0
  0
LINE
  5
1B80
  8
0
 62
     0
 10
177.52987230918311
 20
233.4822558609799
 30
0.0
 11
177.52987230918311
 21
233.4822558609799
 31
0.0
  0
LINE
  5
1B81
  8
0
 62
     0
 10
177.35130088061169
 20
233.4822558609799
 30
0.0
 11
177.35130088061169
 21
233.4822558609799
 31
0.0
  0
LINE
  5
1B82
  8
0
 62
     0
 10
177.1727294520403
 20
233.4822558609799
 30
0.0
 11
177.1727294520403
 21
233.4822558609799
 31
0.0
  0
LINE
  5
1B83
  8
0
 62
     0
 10
176.99415802346891
 20
233.4822558609799
 30
0.0
 11
176.99415802346891
 21
233.4822558609799
 31
0.0
  0
LINE
  5
1B84
  8
0
 62
     0
 10
192.8870151663258
 20
233.4822558609799
 30
0.0
 11
192.8870151663258
 21
233.4822558609799
 31
0.0
  0
LINE
  5
1B85
  8
0
 62
     0
 10
192.70844373775441
 20
233.4822558609799
 30
0.0
 11
192.70844373775441
 21
233.4822558609799
 31
0.0
  0
LINE
  5
1B86
  8
0
 62
     0
 10
192.52987230918299
 20
233.4822558609799
 30
0.0
 11
192.52987230918299
 21
233.4822558609799
 31
0.0
  0
LINE
  5
1B87
  8
0
 62
     0
 10
192.3513008806116
 20
233.4822558609799
 30
0.0
 11
192.3513008806116
 21
233.4822558609799
 31
0.0
  0
LINE
  5
1B88
  8
0
 62
     0
 10
192.1727294520401
 20
233.4822558609799
 30
0.0
 11
192.1727294520401
 21
233.4822558609799
 31
0.0
  0
LINE
  5
1B89
  8
0
 62
     0
 10
191.9941580234688
 20
233.4822558609799
 30
0.0
 11
191.9941580234688
 21
233.4822558609799
 31
0.0
  0
LINE
  5
1B8A
  8
0
 62
     0
 10
191.8155865948973
 20
233.4822558609799
 30
0.0
 11
191.8155865948973
 21
233.4822558609799
 31
0.0
  0
LINE
  5
1B8B
  8
0
 62
     0
 10
191.63701516632591
 20
233.4822558609799
 30
0.0
 11
191.63701516632591
 21
233.4822558609799
 31
0.0
  0
LINE
  5
1B8C
  8
0
 62
     0
 10
191.45844373775449
 20
233.4822558609799
 30
0.0
 11
191.45844373775449
 21
233.4822558609799
 31
0.0
  0
LINE
  5
1B8D
  8
0
 62
     0
 10
191.27987230918311
 20
233.4822558609799
 30
0.0
 11
191.27987230918311
 21
233.4822558609799
 31
0.0
  0
LINE
  5
1B8E
  8
0
 62
     0
 10
191.10130088061169
 20
233.4822558609799
 30
0.0
 11
191.10130088061169
 21
233.4822558609799
 31
0.0
  0
LINE
  5
1B8F
  8
0
 62
     0
 10
190.9227294520403
 20
233.4822558609799
 30
0.0
 11
190.9227294520403
 21
233.4822558609799
 31
0.0
  0
LINE
  5
1B90
  8
0
 62
     0
 10
190.7441580234688
 20
233.4822558609799
 30
0.0
 11
190.7441580234688
 21
233.4822558609799
 31
0.0
  0
LINE
  5
1B91
  8
0
 62
     0
 10
190.56558659489741
 20
233.4822558609799
 30
0.0
 11
190.56558659489741
 21
233.4822558609799
 31
0.0
  0
LINE
  5
1B92
  8
0
 62
     0
 10
190.38701516632599
 20
233.4822558609799
 30
0.0
 11
190.38701516632599
 21
233.4822558609799
 31
0.0
  0
LINE
  5
1B93
  8
0
 62
     0
 10
190.20844373775461
 20
233.4822558609799
 30
0.0
 11
190.20844373775461
 21
233.4822558609799
 31
0.0
  0
LINE
  5
1B94
  8
0
 62
     0
 10
190.02987230918319
 20
233.4822558609799
 30
0.0
 11
190.02987230918319
 21
233.4822558609799
 31
0.0
  0
LINE
  5
1B95
  8
0
 62
     0
 10
189.85130088061169
 20
233.4822558609799
 30
0.0
 11
189.85130088061169
 21
233.4822558609799
 31
0.0
  0
LINE
  5
1B96
  8
0
 62
     0
 10
189.6727294520403
 20
233.4822558609799
 30
0.0
 11
189.6727294520403
 21
233.4822558609799
 31
0.0
  0
LINE
  5
1B97
  8
0
 62
     0
 10
189.49415802346891
 20
233.4822558609799
 30
0.0
 11
189.49415802346891
 21
233.4822558609799
 31
0.0
  0
LINE
  5
1B98
  8
0
 62
     0
 10
189.3155865948975
 20
233.4822558609799
 30
0.0
 11
189.3155865948975
 21
233.4822558609799
 31
0.0
  0
LINE
  5
1B99
  8
0
 62
     0
 10
189.13701516632611
 20
233.4822558609799
 30
0.0
 11
189.13701516632611
 21
233.4822558609799
 31
0.0
  0
LINE
  5
1B9A
  8
0
 62
     0
 10
174.8513008806118
 20
233.4822558609799
 30
0.0
 11
174.8513008806118
 21
233.4822558609799
 31
0.0
  0
LINE
  5
1B9B
  8
0
 62
     0
 10
174.67272945204039
 20
233.4822558609799
 30
0.0
 11
174.67272945204039
 21
233.4822558609799
 31
0.0
  0
LINE
  5
1B9C
  8
0
 62
     0
 10
174.49415802346891
 20
233.4822558609799
 30
0.0
 11
174.49415802346891
 21
233.4822558609799
 31
0.0
  0
LINE
  5
1B9D
  8
0
 62
     0
 10
174.3155865948975
 20
233.4822558609799
 30
0.0
 11
174.3155865948975
 21
233.4822558609799
 31
0.0
  0
LINE
  5
1B9E
  8
0
 62
     0
 10
182.97630088061169
 20
233.66082728955141
 30
0.0
 11
182.97630088061169
 21
233.66082728955141
 31
0.0
  0
LINE
  5
1B9F
  8
0
 62
     0
 10
182.7977294520403
 20
233.66082728955141
 30
0.0
 11
182.7977294520403
 21
233.66082728955141
 31
0.0
  0
LINE
  5
1BA0
  8
0
 62
     0
 10
182.6191580234688
 20
233.66082728955141
 30
0.0
 11
182.6191580234688
 21
233.66082728955141
 31
0.0
  0
LINE
  5
1BA1
  8
0
 62
     0
 10
182.44058659489741
 20
233.66082728955141
 30
0.0
 11
182.44058659489741
 21
233.66082728955141
 31
0.0
  0
LINE
  5
1BA2
  8
0
 62
     0
 10
185.65487230918299
 20
233.66082728955141
 30
0.0
 11
185.65487230918299
 21
233.66082728955141
 31
0.0
  0
LINE
  5
1BA3
  8
0
 62
     0
 10
185.4763008806116
 20
233.66082728955141
 30
0.0
 11
185.4763008806116
 21
233.66082728955141
 31
0.0
  0
LINE
  5
1BA4
  8
0
 62
     0
 10
185.29772945204019
 20
233.66082728955141
 30
0.0
 11
185.29772945204019
 21
233.66082728955141
 31
0.0
  0
LINE
  5
1BA5
  8
0
 62
     0
 10
185.1191580234688
 20
233.66082728955141
 30
0.0
 11
185.1191580234688
 21
233.66082728955141
 31
0.0
  0
LINE
  5
1BA6
  8
0
 62
     0
 10
184.94058659489741
 20
233.66082728955141
 30
0.0
 11
184.94058659489741
 21
233.66082728955141
 31
0.0
  0
LINE
  5
1BA7
  8
0
 62
     0
 10
184.76201516632599
 20
233.66082728955141
 30
0.0
 11
184.76201516632599
 21
233.66082728955141
 31
0.0
  0
LINE
  5
1BA8
  8
0
 62
     0
 10
179.76201516632599
 20
233.66082728955141
 30
0.0
 11
179.76201516632599
 21
233.66082728955141
 31
0.0
  0
LINE
  5
1BA9
  8
0
 62
     0
 10
179.58344373775461
 20
233.66082728955141
 30
0.0
 11
179.58344373775461
 21
233.66082728955141
 31
0.0
  0
LINE
  5
1BAA
  8
0
 62
     0
 10
179.40487230918319
 20
233.66082728955141
 30
0.0
 11
179.40487230918319
 21
233.66082728955141
 31
0.0
  0
LINE
  5
1BAB
  8
0
 62
     0
 10
179.22630088061169
 20
233.66082728955141
 30
0.0
 11
179.22630088061169
 21
233.66082728955141
 31
0.0
  0
LINE
  5
1BAC
  8
0
 62
     0
 10
189.58344373775461
 20
233.66082728955141
 30
0.0
 11
189.58344373775461
 21
233.66082728955141
 31
0.0
  0
LINE
  5
1BAD
  8
0
 62
     0
 10
189.40487230918311
 20
233.66082728955141
 30
0.0
 11
189.40487230918311
 21
233.66082728955141
 31
0.0
  0
LINE
  5
1BAE
  8
0
 62
     0
 10
189.22630088061169
 20
233.66082728955141
 30
0.0
 11
189.22630088061169
 21
233.66082728955141
 31
0.0
  0
LINE
  5
1BAF
  8
0
 62
     0
 10
189.0477294520403
 20
233.66082728955141
 30
0.0
 11
189.0477294520403
 21
233.66082728955141
 31
0.0
  0
LINE
  5
1BB0
  8
0
 62
     0
 10
177.9763008806116
 20
233.66082728955141
 30
0.0
 11
177.9763008806116
 21
233.66082728955141
 31
0.0
  0
LINE
  5
1BB1
  8
0
 62
     0
 10
177.79772945204019
 20
233.66082728955141
 30
0.0
 11
177.79772945204019
 21
233.66082728955141
 31
0.0
  0
LINE
  5
1BB2
  8
0
 62
     0
 10
177.6191580234688
 20
233.66082728955141
 30
0.0
 11
177.6191580234688
 21
233.66082728955141
 31
0.0
  0
LINE
  5
1BB3
  8
0
 62
     0
 10
177.44058659489741
 20
233.66082728955141
 30
0.0
 11
177.44058659489741
 21
233.66082728955141
 31
0.0
  0
LINE
  5
1BB4
  8
0
 62
     0
 10
177.26201516632599
 20
233.66082728955141
 30
0.0
 11
177.26201516632599
 21
233.66082728955141
 31
0.0
  0
LINE
  5
1BB5
  8
0
 62
     0
 10
192.97630088061169
 20
233.66082728955141
 30
0.0
 11
192.97630088061169
 21
233.66082728955141
 31
0.0
  0
LINE
  5
1BB6
  8
0
 62
     0
 10
192.7977294520403
 20
233.66082728955141
 30
0.0
 11
192.7977294520403
 21
233.66082728955141
 31
0.0
  0
LINE
  5
1BB7
  8
0
 62
     0
 10
192.6191580234688
 20
233.66082728955141
 30
0.0
 11
192.6191580234688
 21
233.66082728955141
 31
0.0
  0
LINE
  5
1BB8
  8
0
 62
     0
 10
192.44058659489741
 20
233.66082728955141
 30
0.0
 11
192.44058659489741
 21
233.66082728955141
 31
0.0
  0
LINE
  5
1BB9
  8
0
 62
     0
 10
174.94058659489741
 20
233.66082728955141
 30
0.0
 11
174.94058659489741
 21
233.66082728955141
 31
0.0
  0
LINE
  5
1BBA
  8
0
 62
     0
 10
174.76201516632599
 20
233.66082728955141
 30
0.0
 11
174.76201516632599
 21
233.66082728955141
 31
0.0
  0
LINE
  5
1BBB
  8
0
 62
     0
 10
174.58344373775461
 20
233.66082728955141
 30
0.0
 11
174.58344373775461
 21
233.66082728955141
 31
0.0
  0
LINE
  5
1BBC
  8
0
 62
     0
 10
174.40487230918319
 20
233.66082728955141
 30
0.0
 11
174.40487230918319
 21
233.66082728955141
 31
0.0
  0
LINE
  5
1BBD
  8
0
 62
     0
 10
182.88701516632591
 20
233.83939871812279
 30
0.0
 11
182.88701516632591
 21
233.83939871812279
 31
0.0
  0
LINE
  5
1BBE
  8
0
 62
     0
 10
182.70844373775449
 20
233.83939871812279
 30
0.0
 11
182.70844373775449
 21
233.83939871812279
 31
0.0
  0
LINE
  5
1BBF
  8
0
 62
     0
 10
182.52987230918299
 20
233.83939871812279
 30
0.0
 11
182.52987230918299
 21
233.83939871812279
 31
0.0
  0
LINE
  5
1BC0
  8
0
 62
     0
 10
182.3513008806116
 20
233.83939871812279
 30
0.0
 11
182.3513008806116
 21
233.83939871812279
 31
0.0
  0
LINE
  5
1BC1
  8
0
 62
     0
 10
185.20844373775449
 20
233.83939871812279
 30
0.0
 11
185.20844373775449
 21
233.83939871812279
 31
0.0
  0
LINE
  5
1BC2
  8
0
 62
     0
 10
185.02987230918311
 20
233.83939871812279
 30
0.0
 11
185.02987230918311
 21
233.83939871812279
 31
0.0
  0
LINE
  5
1BC3
  8
0
 62
     0
 10
184.85130088061169
 20
233.83939871812279
 30
0.0
 11
184.85130088061169
 21
233.83939871812279
 31
0.0
  0
LINE
  5
1BC4
  8
0
 62
     0
 10
184.6727294520403
 20
233.83939871812279
 30
0.0
 11
184.6727294520403
 21
233.83939871812279
 31
0.0
  0
LINE
  5
1BC5
  8
0
 62
     0
 10
184.49415802346891
 20
233.83939871812279
 30
0.0
 11
184.49415802346891
 21
233.83939871812279
 31
0.0
  0
LINE
  5
1BC6
  8
0
 62
     0
 10
179.67272945204019
 20
233.83939871812279
 30
0.0
 11
179.67272945204019
 21
233.83939871812279
 31
0.0
  0
LINE
  5
1BC7
  8
0
 62
     0
 10
179.4941580234688
 20
233.83939871812279
 30
0.0
 11
179.4941580234688
 21
233.83939871812279
 31
0.0
  0
LINE
  5
1BC8
  8
0
 62
     0
 10
179.31558659489741
 20
233.83939871812279
 30
0.0
 11
179.31558659489741
 21
233.83939871812279
 31
0.0
  0
LINE
  5
1BC9
  8
0
 62
     0
 10
179.13701516632599
 20
233.83939871812279
 30
0.0
 11
179.13701516632599
 21
233.83939871812279
 31
0.0
  0
LINE
  5
1BCA
  8
0
 62
     0
 10
189.67272945204019
 20
233.83939871812279
 30
0.0
 11
189.67272945204019
 21
233.83939871812279
 31
0.0
  0
LINE
  5
1BCB
  8
0
 62
     0
 10
189.4941580234688
 20
233.83939871812279
 30
0.0
 11
189.4941580234688
 21
233.83939871812279
 31
0.0
  0
LINE
  5
1BCC
  8
0
 62
     0
 10
189.31558659489741
 20
233.83939871812279
 30
0.0
 11
189.31558659489741
 21
233.83939871812279
 31
0.0
  0
LINE
  5
1BCD
  8
0
 62
     0
 10
189.13701516632599
 20
233.83939871812279
 30
0.0
 11
189.13701516632599
 21
233.83939871812279
 31
0.0
  0
LINE
  5
1BCE
  8
0
 62
     0
 10
178.0655865948973
 20
233.83939871812279
 30
0.0
 11
178.0655865948973
 21
233.83939871812279
 31
0.0
  0
LINE
  5
1BCF
  8
0
 62
     0
 10
177.88701516632591
 20
233.83939871812279
 30
0.0
 11
177.88701516632591
 21
233.83939871812279
 31
0.0
  0
LINE
  5
1BD0
  8
0
 62
     0
 10
177.70844373775449
 20
233.83939871812279
 30
0.0
 11
177.70844373775449
 21
233.83939871812279
 31
0.0
  0
LINE
  5
1BD1
  8
0
 62
     0
 10
177.52987230918311
 20
233.83939871812279
 30
0.0
 11
177.52987230918311
 21
233.83939871812279
 31
0.0
  0
LINE
  5
1BD2
  8
0
 62
     0
 10
192.88701516632591
 20
233.83939871812279
 30
0.0
 11
192.88701516632591
 21
233.83939871812279
 31
0.0
  0
LINE
  5
1BD3
  8
0
 62
     0
 10
192.70844373775449
 20
233.83939871812279
 30
0.0
 11
192.70844373775449
 21
233.83939871812279
 31
0.0
  0
LINE
  5
1BD4
  8
0
 62
     0
 10
192.52987230918311
 20
233.83939871812279
 30
0.0
 11
192.52987230918311
 21
233.83939871812279
 31
0.0
  0
LINE
  5
1BD5
  8
0
 62
     0
 10
192.3513008806116
 20
233.83939871812279
 30
0.0
 11
192.3513008806116
 21
233.83939871812279
 31
0.0
  0
LINE
  5
1BD6
  8
0
 62
     0
 10
174.85130088061169
 20
233.83939871812279
 30
0.0
 11
174.85130088061169
 21
233.83939871812279
 31
0.0
  0
LINE
  5
1BD7
  8
0
 62
     0
 10
174.67272945204019
 20
233.83939871812279
 30
0.0
 11
174.67272945204019
 21
233.83939871812279
 31
0.0
  0
LINE
  5
1BD8
  8
0
 62
     0
 10
174.4941580234688
 20
233.83939871812279
 30
0.0
 11
174.4941580234688
 21
233.83939871812279
 31
0.0
  0
LINE
  5
1BD9
  8
0
 62
     0
 10
174.31558659489741
 20
233.83939871812279
 30
0.0
 11
174.31558659489741
 21
233.83939871812279
 31
0.0
  0
LINE
  5
1BDA
  8
0
 62
     0
 10
182.97630088061169
 20
234.01797014669421
 30
0.0
 11
182.97630088061169
 21
234.01797014669421
 31
0.0
  0
LINE
  5
1BDB
  8
0
 62
     0
 10
182.7977294520403
 20
234.01797014669421
 30
0.0
 11
182.7977294520403
 21
234.01797014669421
 31
0.0
  0
LINE
  5
1BDC
  8
0
 62
     0
 10
182.6191580234688
 20
234.01797014669421
 30
0.0
 11
182.6191580234688
 21
234.01797014669421
 31
0.0
  0
LINE
  5
1BDD
  8
0
 62
     0
 10
182.44058659489741
 20
234.01797014669421
 30
0.0
 11
182.44058659489741
 21
234.01797014669421
 31
0.0
  0
LINE
  5
1BDE
  8
0
 62
     0
 10
184.94058659489741
 20
234.01797014669421
 30
0.0
 11
184.94058659489741
 21
234.01797014669421
 31
0.0
  0
LINE
  5
1BDF
  8
0
 62
     0
 10
184.76201516632599
 20
234.01797014669421
 30
0.0
 11
184.76201516632599
 21
234.01797014669421
 31
0.0
  0
LINE
  5
1BE0
  8
0
 62
     0
 10
184.58344373775461
 20
234.01797014669421
 30
0.0
 11
184.58344373775461
 21
234.01797014669421
 31
0.0
  0
LINE
  5
1BE1
  8
0
 62
     0
 10
184.40487230918319
 20
234.01797014669421
 30
0.0
 11
184.40487230918319
 21
234.01797014669421
 31
0.0
  0
LINE
  5
1BE2
  8
0
 62
     0
 10
179.76201516632599
 20
234.01797014669421
 30
0.0
 11
179.76201516632599
 21
234.01797014669421
 31
0.0
  0
LINE
  5
1BE3
  8
0
 62
     0
 10
179.58344373775461
 20
234.01797014669421
 30
0.0
 11
179.58344373775461
 21
234.01797014669421
 31
0.0
  0
LINE
  5
1BE4
  8
0
 62
     0
 10
179.40487230918319
 20
234.01797014669421
 30
0.0
 11
179.40487230918319
 21
234.01797014669421
 31
0.0
  0
LINE
  5
1BE5
  8
0
 62
     0
 10
179.22630088061169
 20
234.01797014669421
 30
0.0
 11
179.22630088061169
 21
234.01797014669421
 31
0.0
  0
LINE
  5
1BE6
  8
0
 62
     0
 10
189.58344373775461
 20
234.01797014669421
 30
0.0
 11
189.58344373775461
 21
234.01797014669421
 31
0.0
  0
LINE
  5
1BE7
  8
0
 62
     0
 10
189.40487230918311
 20
234.01797014669421
 30
0.0
 11
189.40487230918311
 21
234.01797014669421
 31
0.0
  0
LINE
  5
1BE8
  8
0
 62
     0
 10
189.22630088061169
 20
234.01797014669421
 30
0.0
 11
189.22630088061169
 21
234.01797014669421
 31
0.0
  0
LINE
  5
1BE9
  8
0
 62
     0
 10
189.0477294520403
 20
234.01797014669421
 30
0.0
 11
189.0477294520403
 21
234.01797014669421
 31
0.0
  0
LINE
  5
1BEA
  8
0
 62
     0
 10
178.15487230918311
 20
234.01797014669421
 30
0.0
 11
178.15487230918311
 21
234.01797014669421
 31
0.0
  0
LINE
  5
1BEB
  8
0
 62
     0
 10
177.97630088061169
 20
234.01797014669421
 30
0.0
 11
177.97630088061169
 21
234.01797014669421
 31
0.0
  0
LINE
  5
1BEC
  8
0
 62
     0
 10
177.7977294520403
 20
234.01797014669421
 30
0.0
 11
177.7977294520403
 21
234.01797014669421
 31
0.0
  0
LINE
  5
1BED
  8
0
 62
     0
 10
177.61915802346891
 20
234.01797014669421
 30
0.0
 11
177.61915802346891
 21
234.01797014669421
 31
0.0
  0
LINE
  5
1BEE
  8
0
 62
     0
 10
192.97630088061169
 20
234.01797014669421
 30
0.0
 11
192.97630088061169
 21
234.01797014669421
 31
0.0
  0
LINE
  5
1BEF
  8
0
 62
     0
 10
192.7977294520403
 20
234.01797014669421
 30
0.0
 11
192.7977294520403
 21
234.01797014669421
 31
0.0
  0
LINE
  5
1BF0
  8
0
 62
     0
 10
192.6191580234688
 20
234.01797014669421
 30
0.0
 11
192.6191580234688
 21
234.01797014669421
 31
0.0
  0
LINE
  5
1BF1
  8
0
 62
     0
 10
192.44058659489741
 20
234.01797014669421
 30
0.0
 11
192.44058659489741
 21
234.01797014669421
 31
0.0
  0
LINE
  5
1BF2
  8
0
 62
     0
 10
174.94058659489741
 20
234.01797014669421
 30
0.0
 11
174.94058659489741
 21
234.01797014669421
 31
0.0
  0
LINE
  5
1BF3
  8
0
 62
     0
 10
174.76201516632599
 20
234.01797014669421
 30
0.0
 11
174.76201516632599
 21
234.01797014669421
 31
0.0
  0
LINE
  5
1BF4
  8
0
 62
     0
 10
174.58344373775461
 20
234.01797014669421
 30
0.0
 11
174.58344373775461
 21
234.01797014669421
 31
0.0
  0
LINE
  5
1BF5
  8
0
 62
     0
 10
174.40487230918319
 20
234.01797014669421
 30
0.0
 11
174.40487230918319
 21
234.01797014669421
 31
0.0
  0
LINE
  5
1BF6
  8
0
 62
     0
 10
184.8513008806118
 20
234.19654157526571
 30
0.0
 11
184.8513008806118
 21
234.19654157526571
 31
0.0
  0
LINE
  5
1BF7
  8
0
 62
     0
 10
184.67272945204039
 20
234.19654157526571
 30
0.0
 11
184.67272945204039
 21
234.19654157526571
 31
0.0
  0
LINE
  5
1BF8
  8
0
 62
     0
 10
184.494158023469
 20
234.19654157526571
 30
0.0
 11
184.494158023469
 21
234.19654157526571
 31
0.0
  0
LINE
  5
1BF9
  8
0
 62
     0
 10
184.3155865948975
 20
234.19654157526571
 30
0.0
 11
184.3155865948975
 21
234.19654157526571
 31
0.0
  0
LINE
  5
1BFA
  8
0
 62
     0
 10
182.88701516632599
 20
234.19654157526571
 30
0.0
 11
182.88701516632599
 21
234.19654157526571
 31
0.0
  0
LINE
  5
1BFB
  8
0
 62
     0
 10
182.70844373775461
 20
234.19654157526571
 30
0.0
 11
182.70844373775461
 21
234.19654157526571
 31
0.0
  0
LINE
  5
1BFC
  8
0
 62
     0
 10
182.52987230918319
 20
234.19654157526571
 30
0.0
 11
182.52987230918319
 21
234.19654157526571
 31
0.0
  0
LINE
  5
1BFD
  8
0
 62
     0
 10
182.35130088061169
 20
234.19654157526571
 30
0.0
 11
182.35130088061169
 21
234.19654157526571
 31
0.0
  0
LINE
  5
1BFE
  8
0
 62
     0
 10
187.88701516632599
 20
234.19654157526571
 30
0.0
 11
187.88701516632599
 21
234.19654157526571
 31
0.0
  0
LINE
  5
1BFF
  8
0
 62
     0
 10
187.70844373775461
 20
234.19654157526571
 30
0.0
 11
187.70844373775461
 21
234.19654157526571
 31
0.0
  0
LINE
  5
1C00
  8
0
 62
     0
 10
187.52987230918319
 20
234.19654157526571
 30
0.0
 11
187.52987230918319
 21
234.19654157526571
 31
0.0
  0
LINE
  5
1C01
  8
0
 62
     0
 10
187.35130088061169
 20
234.19654157526571
 30
0.0
 11
187.35130088061169
 21
234.19654157526571
 31
0.0
  0
LINE
  5
1C02
  8
0
 62
     0
 10
179.6727294520403
 20
234.19654157526571
 30
0.0
 11
179.6727294520403
 21
234.19654157526571
 31
0.0
  0
LINE
  5
1C03
  8
0
 62
     0
 10
179.49415802346891
 20
234.19654157526571
 30
0.0
 11
179.49415802346891
 21
234.19654157526571
 31
0.0
  0
LINE
  5
1C04
  8
0
 62
     0
 10
179.3155865948975
 20
234.19654157526571
 30
0.0
 11
179.3155865948975
 21
234.19654157526571
 31
0.0
  0
LINE
  5
1C05
  8
0
 62
     0
 10
179.13701516632611
 20
234.19654157526571
 30
0.0
 11
179.13701516632611
 21
234.19654157526571
 31
0.0
  0
LINE
  5
1C06
  8
0
 62
     0
 10
189.6727294520403
 20
234.19654157526571
 30
0.0
 11
189.6727294520403
 21
234.19654157526571
 31
0.0
  0
LINE
  5
1C07
  8
0
 62
     0
 10
189.49415802346891
 20
234.19654157526571
 30
0.0
 11
189.49415802346891
 21
234.19654157526571
 31
0.0
  0
LINE
  5
1C08
  8
0
 62
     0
 10
189.3155865948975
 20
234.19654157526571
 30
0.0
 11
189.3155865948975
 21
234.19654157526571
 31
0.0
  0
LINE
  5
1C09
  8
0
 62
     0
 10
189.13701516632611
 20
234.19654157526571
 30
0.0
 11
189.13701516632611
 21
234.19654157526571
 31
0.0
  0
LINE
  5
1C0A
  8
0
 62
     0
 10
178.06558659489741
 20
234.19654157526571
 30
0.0
 11
178.06558659489741
 21
234.19654157526571
 31
0.0
  0
LINE
  5
1C0B
  8
0
 62
     0
 10
177.88701516632599
 20
234.19654157526571
 30
0.0
 11
177.88701516632599
 21
234.19654157526571
 31
0.0
  0
LINE
  5
1C0C
  8
0
 62
     0
 10
177.70844373775461
 20
234.19654157526571
 30
0.0
 11
177.70844373775461
 21
234.19654157526571
 31
0.0
  0
LINE
  5
1C0D
  8
0
 62
     0
 10
177.52987230918319
 20
234.19654157526571
 30
0.0
 11
177.52987230918319
 21
234.19654157526571
 31
0.0
  0
LINE
  5
1C0E
  8
0
 62
     0
 10
192.88701516632599
 20
234.19654157526571
 30
0.0
 11
192.88701516632599
 21
234.19654157526571
 31
0.0
  0
LINE
  5
1C0F
  8
0
 62
     0
 10
192.70844373775461
 20
234.19654157526571
 30
0.0
 11
192.70844373775461
 21
234.19654157526571
 31
0.0
  0
LINE
  5
1C10
  8
0
 62
     0
 10
192.52987230918319
 20
234.19654157526571
 30
0.0
 11
192.52987230918319
 21
234.19654157526571
 31
0.0
  0
LINE
  5
1C11
  8
0
 62
     0
 10
192.3513008806118
 20
234.19654157526571
 30
0.0
 11
192.3513008806118
 21
234.19654157526571
 31
0.0
  0
LINE
  5
1C12
  8
0
 62
     0
 10
174.8513008806118
 20
234.19654157526571
 30
0.0
 11
174.8513008806118
 21
234.19654157526571
 31
0.0
  0
LINE
  5
1C13
  8
0
 62
     0
 10
174.67272945204039
 20
234.19654157526571
 30
0.0
 11
174.67272945204039
 21
234.19654157526571
 31
0.0
  0
LINE
  5
1C14
  8
0
 62
     0
 10
174.49415802346891
 20
234.19654157526571
 30
0.0
 11
174.49415802346891
 21
234.19654157526571
 31
0.0
  0
LINE
  5
1C15
  8
0
 62
     0
 10
174.3155865948975
 20
234.19654157526571
 30
0.0
 11
174.3155865948975
 21
234.19654157526571
 31
0.0
  0
LINE
  5
1C16
  8
0
 62
     0
 10
184.94058659489741
 20
234.3751130038371
 30
0.0
 11
184.94058659489741
 21
234.3751130038371
 31
0.0
  0
LINE
  5
1C17
  8
0
 62
     0
 10
184.76201516632599
 20
234.3751130038371
 30
0.0
 11
184.76201516632599
 21
234.3751130038371
 31
0.0
  0
LINE
  5
1C18
  8
0
 62
     0
 10
184.58344373775461
 20
234.3751130038371
 30
0.0
 11
184.58344373775461
 21
234.3751130038371
 31
0.0
  0
LINE
  5
1C19
  8
0
 62
     0
 10
184.40487230918319
 20
234.3751130038371
 30
0.0
 11
184.40487230918319
 21
234.3751130038371
 31
0.0
  0
LINE
  5
1C1A
  8
0
 62
     0
 10
184.22630088061169
 20
234.3751130038371
 30
0.0
 11
184.22630088061169
 21
234.3751130038371
 31
0.0
  0
LINE
  5
1C1B
  8
0
 62
     0
 10
182.97630088061169
 20
234.3751130038371
 30
0.0
 11
182.97630088061169
 21
234.3751130038371
 31
0.0
  0
LINE
  5
1C1C
  8
0
 62
     0
 10
182.7977294520403
 20
234.3751130038371
 30
0.0
 11
182.7977294520403
 21
234.3751130038371
 31
0.0
  0
LINE
  5
1C1D
  8
0
 62
     0
 10
182.6191580234688
 20
234.3751130038371
 30
0.0
 11
182.6191580234688
 21
234.3751130038371
 31
0.0
  0
LINE
  5
1C1E
  8
0
 62
     0
 10
182.44058659489741
 20
234.3751130038371
 30
0.0
 11
182.44058659489741
 21
234.3751130038371
 31
0.0
  0
LINE
  5
1C1F
  8
0
 62
     0
 10
187.7977294520403
 20
234.3751130038371
 30
0.0
 11
187.7977294520403
 21
234.3751130038371
 31
0.0
  0
LINE
  5
1C20
  8
0
 62
     0
 10
187.61915802346891
 20
234.3751130038371
 30
0.0
 11
187.61915802346891
 21
234.3751130038371
 31
0.0
  0
LINE
  5
1C21
  8
0
 62
     0
 10
187.4405865948975
 20
234.3751130038371
 30
0.0
 11
187.4405865948975
 21
234.3751130038371
 31
0.0
  0
LINE
  5
1C22
  8
0
 62
     0
 10
187.26201516632611
 20
234.3751130038371
 30
0.0
 11
187.26201516632611
 21
234.3751130038371
 31
0.0
  0
LINE
  5
1C23
  8
0
 62
     0
 10
179.76201516632599
 20
234.3751130038371
 30
0.0
 11
179.76201516632599
 21
234.3751130038371
 31
0.0
  0
LINE
  5
1C24
  8
0
 62
     0
 10
179.58344373775461
 20
234.3751130038371
 30
0.0
 11
179.58344373775461
 21
234.3751130038371
 31
0.0
  0
LINE
  5
1C25
  8
0
 62
     0
 10
179.40487230918319
 20
234.3751130038371
 30
0.0
 11
179.40487230918319
 21
234.3751130038371
 31
0.0
  0
LINE
  5
1C26
  8
0
 62
     0
 10
179.22630088061169
 20
234.3751130038371
 30
0.0
 11
179.22630088061169
 21
234.3751130038371
 31
0.0
  0
LINE
  5
1C27
  8
0
 62
     0
 10
189.58344373775461
 20
234.3751130038371
 30
0.0
 11
189.58344373775461
 21
234.3751130038371
 31
0.0
  0
LINE
  5
1C28
  8
0
 62
     0
 10
189.40487230918311
 20
234.3751130038371
 30
0.0
 11
189.40487230918311
 21
234.3751130038371
 31
0.0
  0
LINE
  5
1C29
  8
0
 62
     0
 10
189.22630088061169
 20
234.3751130038371
 30
0.0
 11
189.22630088061169
 21
234.3751130038371
 31
0.0
  0
LINE
  5
1C2A
  8
0
 62
     0
 10
189.0477294520403
 20
234.3751130038371
 30
0.0
 11
189.0477294520403
 21
234.3751130038371
 31
0.0
  0
LINE
  5
1C2B
  8
0
 62
     0
 10
177.97630088061169
 20
234.3751130038371
 30
0.0
 11
177.97630088061169
 21
234.3751130038371
 31
0.0
  0
LINE
  5
1C2C
  8
0
 62
     0
 10
177.79772945204019
 20
234.3751130038371
 30
0.0
 11
177.79772945204019
 21
234.3751130038371
 31
0.0
  0
LINE
  5
1C2D
  8
0
 62
     0
 10
177.6191580234688
 20
234.3751130038371
 30
0.0
 11
177.6191580234688
 21
234.3751130038371
 31
0.0
  0
LINE
  5
1C2E
  8
0
 62
     0
 10
177.44058659489741
 20
234.3751130038371
 30
0.0
 11
177.44058659489741
 21
234.3751130038371
 31
0.0
  0
LINE
  5
1C2F
  8
0
 62
     0
 10
192.97630088061169
 20
234.3751130038371
 30
0.0
 11
192.97630088061169
 21
234.3751130038371
 31
0.0
  0
LINE
  5
1C30
  8
0
 62
     0
 10
192.7977294520403
 20
234.3751130038371
 30
0.0
 11
192.7977294520403
 21
234.3751130038371
 31
0.0
  0
LINE
  5
1C31
  8
0
 62
     0
 10
192.6191580234688
 20
234.3751130038371
 30
0.0
 11
192.6191580234688
 21
234.3751130038371
 31
0.0
  0
LINE
  5
1C32
  8
0
 62
     0
 10
192.44058659489741
 20
234.3751130038371
 30
0.0
 11
192.44058659489741
 21
234.3751130038371
 31
0.0
  0
LINE
  5
1C33
  8
0
 62
     0
 10
174.94058659489741
 20
234.3751130038371
 30
0.0
 11
174.94058659489741
 21
234.3751130038371
 31
0.0
  0
LINE
  5
1C34
  8
0
 62
     0
 10
174.76201516632599
 20
234.3751130038371
 30
0.0
 11
174.76201516632599
 21
234.3751130038371
 31
0.0
  0
LINE
  5
1C35
  8
0
 62
     0
 10
174.58344373775461
 20
234.3751130038371
 30
0.0
 11
174.58344373775461
 21
234.3751130038371
 31
0.0
  0
LINE
  5
1C36
  8
0
 62
     0
 10
174.40487230918319
 20
234.3751130038371
 30
0.0
 11
174.40487230918319
 21
234.3751130038371
 31
0.0
  0
LINE
  5
1C37
  8
0
 62
     0
 10
185.02987230918311
 20
234.55368443240849
 30
0.0
 11
185.02987230918311
 21
234.55368443240849
 31
0.0
  0
LINE
  5
1C38
  8
0
 62
     0
 10
184.85130088061169
 20
234.55368443240849
 30
0.0
 11
184.85130088061169
 21
234.55368443240849
 31
0.0
  0
LINE
  5
1C39
  8
0
 62
     0
 10
184.6727294520403
 20
234.55368443240849
 30
0.0
 11
184.6727294520403
 21
234.55368443240849
 31
0.0
  0
LINE
  5
1C3A
  8
0
 62
     0
 10
184.4941580234688
 20
234.55368443240849
 30
0.0
 11
184.4941580234688
 21
234.55368443240849
 31
0.0
  0
LINE
  5
1C3B
  8
0
 62
     0
 10
184.31558659489741
 20
234.55368443240849
 30
0.0
 11
184.31558659489741
 21
234.55368443240849
 31
0.0
  0
LINE
  5
1C3C
  8
0
 62
     0
 10
182.88701516632599
 20
234.55368443240849
 30
0.0
 11
182.88701516632599
 21
234.55368443240849
 31
0.0
  0
LINE
  5
1C3D
  8
0
 62
     0
 10
182.70844373775461
 20
234.55368443240849
 30
0.0
 11
182.70844373775461
 21
234.55368443240849
 31
0.0
  0
LINE
  5
1C3E
  8
0
 62
     0
 10
182.52987230918319
 20
234.55368443240849
 30
0.0
 11
182.52987230918319
 21
234.55368443240849
 31
0.0
  0
LINE
  5
1C3F
  8
0
 62
     0
 10
182.35130088061169
 20
234.55368443240849
 30
0.0
 11
182.35130088061169
 21
234.55368443240849
 31
0.0
  0
LINE
  5
1C40
  8
0
 62
     0
 10
187.70844373775449
 20
234.55368443240849
 30
0.0
 11
187.70844373775449
 21
234.55368443240849
 31
0.0
  0
LINE
  5
1C41
  8
0
 62
     0
 10
187.52987230918311
 20
234.55368443240849
 30
0.0
 11
187.52987230918311
 21
234.55368443240849
 31
0.0
  0
LINE
  5
1C42
  8
0
 62
     0
 10
187.35130088061169
 20
234.55368443240849
 30
0.0
 11
187.35130088061169
 21
234.55368443240849
 31
0.0
  0
LINE
  5
1C43
  8
0
 62
     0
 10
187.1727294520403
 20
234.55368443240849
 30
0.0
 11
187.1727294520403
 21
234.55368443240849
 31
0.0
  0
LINE
  5
1C44
  8
0
 62
     0
 10
179.67272945204019
 20
234.55368443240849
 30
0.0
 11
179.67272945204019
 21
234.55368443240849
 31
0.0
  0
LINE
  5
1C45
  8
0
 62
     0
 10
179.4941580234688
 20
234.55368443240849
 30
0.0
 11
179.4941580234688
 21
234.55368443240849
 31
0.0
  0
LINE
  5
1C46
  8
0
 62
     0
 10
179.31558659489741
 20
234.55368443240849
 30
0.0
 11
179.31558659489741
 21
234.55368443240849
 31
0.0
  0
LINE
  5
1C47
  8
0
 62
     0
 10
179.13701516632599
 20
234.55368443240849
 30
0.0
 11
179.13701516632599
 21
234.55368443240849
 31
0.0
  0
LINE
  5
1C48
  8
0
 62
     0
 10
189.67272945204019
 20
234.55368443240849
 30
0.0
 11
189.67272945204019
 21
234.55368443240849
 31
0.0
  0
LINE
  5
1C49
  8
0
 62
     0
 10
189.4941580234688
 20
234.55368443240849
 30
0.0
 11
189.4941580234688
 21
234.55368443240849
 31
0.0
  0
LINE
  5
1C4A
  8
0
 62
     0
 10
189.31558659489741
 20
234.55368443240849
 30
0.0
 11
189.31558659489741
 21
234.55368443240849
 31
0.0
  0
LINE
  5
1C4B
  8
0
 62
     0
 10
189.13701516632599
 20
234.55368443240849
 30
0.0
 11
189.13701516632599
 21
234.55368443240849
 31
0.0
  0
LINE
  5
1C4C
  8
0
 62
     0
 10
177.88701516632599
 20
234.55368443240849
 30
0.0
 11
177.88701516632599
 21
234.55368443240849
 31
0.0
  0
LINE
  5
1C4D
  8
0
 62
     0
 10
177.70844373775461
 20
234.55368443240849
 30
0.0
 11
177.70844373775461
 21
234.55368443240849
 31
0.0
  0
LINE
  5
1C4E
  8
0
 62
     0
 10
177.52987230918311
 20
234.55368443240849
 30
0.0
 11
177.52987230918311
 21
234.55368443240849
 31
0.0
  0
LINE
  5
1C4F
  8
0
 62
     0
 10
177.35130088061169
 20
234.55368443240849
 30
0.0
 11
177.35130088061169
 21
234.55368443240849
 31
0.0
  0
LINE
  5
1C50
  8
0
 62
     0
 10
177.1727294520403
 20
234.55368443240849
 30
0.0
 11
177.1727294520403
 21
234.55368443240849
 31
0.0
  0
LINE
  5
1C51
  8
0
 62
     0
 10
192.88701516632599
 20
234.55368443240849
 30
0.0
 11
192.88701516632599
 21
234.55368443240849
 31
0.0
  0
LINE
  5
1C52
  8
0
 62
     0
 10
192.70844373775461
 20
234.55368443240849
 30
0.0
 11
192.70844373775461
 21
234.55368443240849
 31
0.0
  0
LINE
  5
1C53
  8
0
 62
     0
 10
192.52987230918319
 20
234.55368443240849
 30
0.0
 11
192.52987230918319
 21
234.55368443240849
 31
0.0
  0
LINE
  5
1C54
  8
0
 62
     0
 10
192.3513008806118
 20
234.55368443240849
 30
0.0
 11
192.3513008806118
 21
234.55368443240849
 31
0.0
  0
LINE
  5
1C55
  8
0
 62
     0
 10
174.85130088061169
 20
234.55368443240849
 30
0.0
 11
174.85130088061169
 21
234.55368443240849
 31
0.0
  0
LINE
  5
1C56
  8
0
 62
     0
 10
174.67272945204019
 20
234.55368443240849
 30
0.0
 11
174.67272945204019
 21
234.55368443240849
 31
0.0
  0
LINE
  5
1C57
  8
0
 62
     0
 10
174.4941580234688
 20
234.55368443240849
 30
0.0
 11
174.4941580234688
 21
234.55368443240849
 31
0.0
  0
LINE
  5
1C58
  8
0
 62
     0
 10
174.31558659489741
 20
234.55368443240849
 30
0.0
 11
174.31558659489741
 21
234.55368443240849
 31
0.0
  0
LINE
  5
1C59
  8
0
 62
     0
 10
185.2977294520403
 20
234.7322558609799
 30
0.0
 11
185.2977294520403
 21
234.7322558609799
 31
0.0
  0
LINE
  5
1C5A
  8
0
 62
     0
 10
185.11915802346891
 20
234.7322558609799
 30
0.0
 11
185.11915802346891
 21
234.7322558609799
 31
0.0
  0
LINE
  5
1C5B
  8
0
 62
     0
 10
184.9405865948975
 20
234.7322558609799
 30
0.0
 11
184.9405865948975
 21
234.7322558609799
 31
0.0
  0
LINE
  5
1C5C
  8
0
 62
     0
 10
184.76201516632611
 20
234.7322558609799
 30
0.0
 11
184.76201516632611
 21
234.7322558609799
 31
0.0
  0
LINE
  5
1C5D
  8
0
 62
     0
 10
184.58344373775461
 20
234.7322558609799
 30
0.0
 11
184.58344373775461
 21
234.7322558609799
 31
0.0
  0
LINE
  5
1C5E
  8
0
 62
     0
 10
182.9763008806118
 20
234.7322558609799
 30
0.0
 11
182.9763008806118
 21
234.7322558609799
 31
0.0
  0
LINE
  5
1C5F
  8
0
 62
     0
 10
182.79772945204039
 20
234.7322558609799
 30
0.0
 11
182.79772945204039
 21
234.7322558609799
 31
0.0
  0
LINE
  5
1C60
  8
0
 62
     0
 10
182.619158023469
 20
234.7322558609799
 30
0.0
 11
182.619158023469
 21
234.7322558609799
 31
0.0
  0
LINE
  5
1C61
  8
0
 62
     0
 10
182.4405865948975
 20
234.7322558609799
 30
0.0
 11
182.4405865948975
 21
234.7322558609799
 31
0.0
  0
LINE
  5
1C62
  8
0
 62
     0
 10
187.61915802346891
 20
234.7322558609799
 30
0.0
 11
187.61915802346891
 21
234.7322558609799
 31
0.0
  0
LINE
  5
1C63
  8
0
 62
     0
 10
187.44058659489741
 20
234.7322558609799
 30
0.0
 11
187.44058659489741
 21
234.7322558609799
 31
0.0
  0
LINE
  5
1C64
  8
0
 62
     0
 10
187.26201516632599
 20
234.7322558609799
 30
0.0
 11
187.26201516632599
 21
234.7322558609799
 31
0.0
  0
LINE
  5
1C65
  8
0
 62
     0
 10
187.08344373775461
 20
234.7322558609799
 30
0.0
 11
187.08344373775461
 21
234.7322558609799
 31
0.0
  0
LINE
  5
1C66
  8
0
 62
     0
 10
186.90487230918319
 20
234.7322558609799
 30
0.0
 11
186.90487230918319
 21
234.7322558609799
 31
0.0
  0
LINE
  5
1C67
  8
0
 62
     0
 10
179.76201516632599
 20
234.7322558609799
 30
0.0
 11
179.76201516632599
 21
234.7322558609799
 31
0.0
  0
LINE
  5
1C68
  8
0
 62
     0
 10
179.58344373775461
 20
234.7322558609799
 30
0.0
 11
179.58344373775461
 21
234.7322558609799
 31
0.0
  0
LINE
  5
1C69
  8
0
 62
     0
 10
179.40487230918319
 20
234.7322558609799
 30
0.0
 11
179.40487230918319
 21
234.7322558609799
 31
0.0
  0
LINE
  5
1C6A
  8
0
 62
     0
 10
179.22630088061169
 20
234.7322558609799
 30
0.0
 11
179.22630088061169
 21
234.7322558609799
 31
0.0
  0
LINE
  5
1C6B
  8
0
 62
     0
 10
189.58344373775461
 20
234.7322558609799
 30
0.0
 11
189.58344373775461
 21
234.7322558609799
 31
0.0
  0
LINE
  5
1C6C
  8
0
 62
     0
 10
189.40487230918311
 20
234.7322558609799
 30
0.0
 11
189.40487230918311
 21
234.7322558609799
 31
0.0
  0
LINE
  5
1C6D
  8
0
 62
     0
 10
189.22630088061169
 20
234.7322558609799
 30
0.0
 11
189.22630088061169
 21
234.7322558609799
 31
0.0
  0
LINE
  5
1C6E
  8
0
 62
     0
 10
189.0477294520403
 20
234.7322558609799
 30
0.0
 11
189.0477294520403
 21
234.7322558609799
 31
0.0
  0
LINE
  5
1C6F
  8
0
 62
     0
 10
177.79772945204019
 20
234.7322558609799
 30
0.0
 11
177.79772945204019
 21
234.7322558609799
 31
0.0
  0
LINE
  5
1C70
  8
0
 62
     0
 10
177.6191580234688
 20
234.7322558609799
 30
0.0
 11
177.6191580234688
 21
234.7322558609799
 31
0.0
  0
LINE
  5
1C71
  8
0
 62
     0
 10
177.44058659489741
 20
234.7322558609799
 30
0.0
 11
177.44058659489741
 21
234.7322558609799
 31
0.0
  0
LINE
  5
1C72
  8
0
 62
     0
 10
177.26201516632599
 20
234.7322558609799
 30
0.0
 11
177.26201516632599
 21
234.7322558609799
 31
0.0
  0
LINE
  5
1C73
  8
0
 62
     0
 10
177.08344373775461
 20
234.7322558609799
 30
0.0
 11
177.08344373775461
 21
234.7322558609799
 31
0.0
  0
LINE
  5
1C74
  8
0
 62
     0
 10
176.90487230918319
 20
234.7322558609799
 30
0.0
 11
176.90487230918319
 21
234.7322558609799
 31
0.0
  0
LINE
  5
1C75
  8
0
 62
     0
 10
176.7263008806118
 20
234.7322558609799
 30
0.0
 11
176.7263008806118
 21
234.7322558609799
 31
0.0
  0
LINE
  5
1C76
  8
0
 62
     0
 10
192.9763008806118
 20
234.7322558609799
 30
0.0
 11
192.9763008806118
 21
234.7322558609799
 31
0.0
  0
LINE
  5
1C77
  8
0
 62
     0
 10
192.79772945204039
 20
234.7322558609799
 30
0.0
 11
192.79772945204039
 21
234.7322558609799
 31
0.0
  0
LINE
  5
1C78
  8
0
 62
     0
 10
192.619158023469
 20
234.7322558609799
 30
0.0
 11
192.619158023469
 21
234.7322558609799
 31
0.0
  0
LINE
  5
1C79
  8
0
 62
     0
 10
192.4405865948975
 20
234.7322558609799
 30
0.0
 11
192.4405865948975
 21
234.7322558609799
 31
0.0
  0
LINE
  5
1C7A
  8
0
 62
     0
 10
174.94058659489741
 20
234.7322558609799
 30
0.0
 11
174.94058659489741
 21
234.7322558609799
 31
0.0
  0
LINE
  5
1C7B
  8
0
 62
     0
 10
174.76201516632599
 20
234.7322558609799
 30
0.0
 11
174.76201516632599
 21
234.7322558609799
 31
0.0
  0
LINE
  5
1C7C
  8
0
 62
     0
 10
174.58344373775461
 20
234.7322558609799
 30
0.0
 11
174.58344373775461
 21
234.7322558609799
 31
0.0
  0
LINE
  5
1C7D
  8
0
 62
     0
 10
174.40487230918319
 20
234.7322558609799
 30
0.0
 11
174.40487230918319
 21
234.7322558609799
 31
0.0
  0
LINE
  5
1C7E
  8
0
 62
     0
 10
187.35130088061149
 20
234.91082728955141
 30
0.0
 11
187.35130088061149
 21
234.91082728955141
 31
0.0
  0
LINE
  5
1C7F
  8
0
 62
     0
 10
187.1727294520401
 20
234.91082728955141
 30
0.0
 11
187.1727294520401
 21
234.91082728955141
 31
0.0
  0
LINE
  5
1C80
  8
0
 62
     0
 10
186.99415802346871
 20
234.91082728955141
 30
0.0
 11
186.99415802346871
 21
234.91082728955141
 31
0.0
  0
LINE
  5
1C81
  8
0
 62
     0
 10
186.8155865948973
 20
234.91082728955141
 30
0.0
 11
186.8155865948973
 21
234.91082728955141
 31
0.0
  0
LINE
  5
1C82
  8
0
 62
     0
 10
186.63701516632591
 20
234.91082728955141
 30
0.0
 11
186.63701516632591
 21
234.91082728955141
 31
0.0
  0
LINE
  5
1C83
  8
0
 62
     0
 10
186.45844373775449
 20
234.91082728955141
 30
0.0
 11
186.45844373775449
 21
234.91082728955141
 31
0.0
  0
LINE
  5
1C84
  8
0
 62
     0
 10
186.27987230918311
 20
234.91082728955141
 30
0.0
 11
186.27987230918311
 21
234.91082728955141
 31
0.0
  0
LINE
  5
1C85
  8
0
 62
     0
 10
186.1013008806116
 20
234.91082728955141
 30
0.0
 11
186.1013008806116
 21
234.91082728955141
 31
0.0
  0
LINE
  5
1C86
  8
0
 62
     0
 10
185.92272945204019
 20
234.91082728955141
 30
0.0
 11
185.92272945204019
 21
234.91082728955141
 31
0.0
  0
LINE
  5
1C87
  8
0
 62
     0
 10
185.7441580234688
 20
234.91082728955141
 30
0.0
 11
185.7441580234688
 21
234.91082728955141
 31
0.0
  0
LINE
  5
1C88
  8
0
 62
     0
 10
185.56558659489741
 20
234.91082728955141
 30
0.0
 11
185.56558659489741
 21
234.91082728955141
 31
0.0
  0
LINE
  5
1C89
  8
0
 62
     0
 10
185.38701516632599
 20
234.91082728955141
 30
0.0
 11
185.38701516632599
 21
234.91082728955141
 31
0.0
  0
LINE
  5
1C8A
  8
0
 62
     0
 10
185.20844373775461
 20
234.91082728955141
 30
0.0
 11
185.20844373775461
 21
234.91082728955141
 31
0.0
  0
LINE
  5
1C8B
  8
0
 62
     0
 10
185.02987230918319
 20
234.91082728955141
 30
0.0
 11
185.02987230918319
 21
234.91082728955141
 31
0.0
  0
LINE
  5
1C8C
  8
0
 62
     0
 10
184.85130088061169
 20
234.91082728955141
 30
0.0
 11
184.85130088061169
 21
234.91082728955141
 31
0.0
  0
LINE
  5
1C8D
  8
0
 62
     0
 10
184.6727294520403
 20
234.91082728955141
 30
0.0
 11
184.6727294520403
 21
234.91082728955141
 31
0.0
  0
LINE
  5
1C8E
  8
0
 62
     0
 10
182.88701516632599
 20
234.91082728955141
 30
0.0
 11
182.88701516632599
 21
234.91082728955141
 31
0.0
  0
LINE
  5
1C8F
  8
0
 62
     0
 10
182.70844373775461
 20
234.91082728955141
 30
0.0
 11
182.70844373775461
 21
234.91082728955141
 31
0.0
  0
LINE
  5
1C90
  8
0
 62
     0
 10
182.52987230918319
 20
234.91082728955141
 30
0.0
 11
182.52987230918319
 21
234.91082728955141
 31
0.0
  0
LINE
  5
1C91
  8
0
 62
     0
 10
182.35130088061169
 20
234.91082728955141
 30
0.0
 11
182.35130088061169
 21
234.91082728955141
 31
0.0
  0
LINE
  5
1C92
  8
0
 62
     0
 10
189.67272945204019
 20
234.91082728955141
 30
0.0
 11
189.67272945204019
 21
234.91082728955141
 31
0.0
  0
LINE
  5
1C93
  8
0
 62
     0
 10
189.4941580234688
 20
234.91082728955141
 30
0.0
 11
189.4941580234688
 21
234.91082728955141
 31
0.0
  0
LINE
  5
1C94
  8
0
 62
     0
 10
189.31558659489741
 20
234.91082728955141
 30
0.0
 11
189.31558659489741
 21
234.91082728955141
 31
0.0
  0
LINE
  5
1C95
  8
0
 62
     0
 10
189.13701516632599
 20
234.91082728955141
 30
0.0
 11
189.13701516632599
 21
234.91082728955141
 31
0.0
  0
LINE
  5
1C96
  8
0
 62
     0
 10
179.67272945204019
 20
234.91082728955141
 30
0.0
 11
179.67272945204019
 21
234.91082728955141
 31
0.0
  0
LINE
  5
1C97
  8
0
 62
     0
 10
179.4941580234688
 20
234.91082728955141
 30
0.0
 11
179.4941580234688
 21
234.91082728955141
 31
0.0
  0
LINE
  5
1C98
  8
0
 62
     0
 10
179.31558659489741
 20
234.91082728955141
 30
0.0
 11
179.31558659489741
 21
234.91082728955141
 31
0.0
  0
LINE
  5
1C99
  8
0
 62
     0
 10
179.13701516632599
 20
234.91082728955141
 30
0.0
 11
179.13701516632599
 21
234.91082728955141
 31
0.0
  0
LINE
  5
1C9A
  8
0
 62
     0
 10
192.88701516632599
 20
234.91082728955141
 30
0.0
 11
192.88701516632599
 21
234.91082728955141
 31
0.0
  0
LINE
  5
1C9B
  8
0
 62
     0
 10
192.70844373775461
 20
234.91082728955141
 30
0.0
 11
192.70844373775461
 21
234.91082728955141
 31
0.0
  0
LINE
  5
1C9C
  8
0
 62
     0
 10
192.52987230918319
 20
234.91082728955141
 30
0.0
 11
192.52987230918319
 21
234.91082728955141
 31
0.0
  0
LINE
  5
1C9D
  8
0
 62
     0
 10
192.3513008806118
 20
234.91082728955141
 30
0.0
 11
192.3513008806118
 21
234.91082728955141
 31
0.0
  0
LINE
  5
1C9E
  8
0
 62
     0
 10
177.52987230918291
 20
234.91082728955141
 30
0.0
 11
177.52987230918291
 21
234.91082728955141
 31
0.0
  0
LINE
  5
1C9F
  8
0
 62
     0
 10
177.35130088061149
 20
234.91082728955141
 30
0.0
 11
177.35130088061149
 21
234.91082728955141
 31
0.0
  0
LINE
  5
1CA0
  8
0
 62
     0
 10
177.1727294520401
 20
234.91082728955141
 30
0.0
 11
177.1727294520401
 21
234.91082728955141
 31
0.0
  0
LINE
  5
1CA1
  8
0
 62
     0
 10
176.99415802346871
 20
234.91082728955141
 30
0.0
 11
176.99415802346871
 21
234.91082728955141
 31
0.0
  0
LINE
  5
1CA2
  8
0
 62
     0
 10
176.81558659489721
 20
234.91082728955141
 30
0.0
 11
176.81558659489721
 21
234.91082728955141
 31
0.0
  0
LINE
  5
1CA3
  8
0
 62
     0
 10
176.6370151663258
 20
234.91082728955141
 30
0.0
 11
176.6370151663258
 21
234.91082728955141
 31
0.0
  0
LINE
  5
1CA4
  8
0
 62
     0
 10
176.45844373775441
 20
234.91082728955141
 30
0.0
 11
176.45844373775441
 21
234.91082728955141
 31
0.0
  0
LINE
  5
1CA5
  8
0
 62
     0
 10
176.27987230918299
 20
234.91082728955141
 30
0.0
 11
176.27987230918299
 21
234.91082728955141
 31
0.0
  0
LINE
  5
1CA6
  8
0
 62
     0
 10
176.1013008806116
 20
234.91082728955141
 30
0.0
 11
176.1013008806116
 21
234.91082728955141
 31
0.0
  0
LINE
  5
1CA7
  8
0
 62
     0
 10
175.92272945204019
 20
234.91082728955141
 30
0.0
 11
175.92272945204019
 21
234.91082728955141
 31
0.0
  0
LINE
  5
1CA8
  8
0
 62
     0
 10
175.74415802346871
 20
234.91082728955141
 30
0.0
 11
175.74415802346871
 21
234.91082728955141
 31
0.0
  0
LINE
  5
1CA9
  8
0
 62
     0
 10
175.5655865948973
 20
234.91082728955141
 30
0.0
 11
175.5655865948973
 21
234.91082728955141
 31
0.0
  0
LINE
  5
1CAA
  8
0
 62
     0
 10
175.38701516632591
 20
234.91082728955141
 30
0.0
 11
175.38701516632591
 21
234.91082728955141
 31
0.0
  0
LINE
  5
1CAB
  8
0
 62
     0
 10
175.20844373775449
 20
234.91082728955141
 30
0.0
 11
175.20844373775449
 21
234.91082728955141
 31
0.0
  0
LINE
  5
1CAC
  8
0
 62
     0
 10
175.02987230918311
 20
234.91082728955141
 30
0.0
 11
175.02987230918311
 21
234.91082728955141
 31
0.0
  0
LINE
  5
1CAD
  8
0
 62
     0
 10
174.85130088061169
 20
234.91082728955141
 30
0.0
 11
174.85130088061169
 21
234.91082728955141
 31
0.0
  0
LINE
  5
1CAE
  8
0
 62
     0
 10
174.67272945204019
 20
234.91082728955141
 30
0.0
 11
174.67272945204019
 21
234.91082728955141
 31
0.0
  0
LINE
  5
1CAF
  8
0
 62
     0
 10
174.4941580234688
 20
234.91082728955141
 30
0.0
 11
174.4941580234688
 21
234.91082728955141
 31
0.0
  0
LINE
  5
1CB0
  8
0
 62
     0
 10
174.31558659489741
 20
234.91082728955141
 30
0.0
 11
174.31558659489741
 21
234.91082728955141
 31
0.0
  0
LINE
  5
1CB1
  8
0
 62
     0
 10
187.08344373775449
 20
235.08939871812271
 30
0.0
 11
187.08344373775449
 21
235.08939871812271
 31
0.0
  0
LINE
  5
1CB2
  8
0
 62
     0
 10
186.90487230918299
 20
235.08939871812271
 30
0.0
 11
186.90487230918299
 21
235.08939871812271
 31
0.0
  0
LINE
  5
1CB3
  8
0
 62
     0
 10
186.7263008806116
 20
235.08939871812271
 30
0.0
 11
186.7263008806116
 21
235.08939871812271
 31
0.0
  0
LINE
  5
1CB4
  8
0
 62
     0
 10
186.54772945204019
 20
235.08939871812271
 30
0.0
 11
186.54772945204019
 21
235.08939871812271
 31
0.0
  0
LINE
  5
1CB5
  8
0
 62
     0
 10
186.3691580234688
 20
235.08939871812271
 30
0.0
 11
186.3691580234688
 21
235.08939871812271
 31
0.0
  0
LINE
  5
1CB6
  8
0
 62
     0
 10
186.19058659489741
 20
235.08939871812271
 30
0.0
 11
186.19058659489741
 21
235.08939871812271
 31
0.0
  0
LINE
  5
1CB7
  8
0
 62
     0
 10
186.01201516632591
 20
235.08939871812271
 30
0.0
 11
186.01201516632591
 21
235.08939871812271
 31
0.0
  0
LINE
  5
1CB8
  8
0
 62
     0
 10
185.83344373775449
 20
235.08939871812271
 30
0.0
 11
185.83344373775449
 21
235.08939871812271
 31
0.0
  0
LINE
  5
1CB9
  8
0
 62
     0
 10
185.65487230918311
 20
235.08939871812271
 30
0.0
 11
185.65487230918311
 21
235.08939871812271
 31
0.0
  0
LINE
  5
1CBA
  8
0
 62
     0
 10
185.47630088061169
 20
235.08939871812271
 30
0.0
 11
185.47630088061169
 21
235.08939871812271
 31
0.0
  0
LINE
  5
1CBB
  8
0
 62
     0
 10
185.2977294520403
 20
235.08939871812271
 30
0.0
 11
185.2977294520403
 21
235.08939871812271
 31
0.0
  0
LINE
  5
1CBC
  8
0
 62
     0
 10
185.1191580234688
 20
235.08939871812271
 30
0.0
 11
185.1191580234688
 21
235.08939871812271
 31
0.0
  0
LINE
  5
1CBD
  8
0
 62
     0
 10
182.97630088061169
 20
235.08939871812271
 30
0.0
 11
182.97630088061169
 21
235.08939871812271
 31
0.0
  0
LINE
  5
1CBE
  8
0
 62
     0
 10
182.7977294520403
 20
235.08939871812271
 30
0.0
 11
182.7977294520403
 21
235.08939871812271
 31
0.0
  0
LINE
  5
1CBF
  8
0
 62
     0
 10
182.6191580234688
 20
235.08939871812271
 30
0.0
 11
182.6191580234688
 21
235.08939871812271
 31
0.0
  0
LINE
  5
1CC0
  8
0
 62
     0
 10
182.44058659489741
 20
235.08939871812271
 30
0.0
 11
182.44058659489741
 21
235.08939871812271
 31
0.0
  0
LINE
  5
1CC1
  8
0
 62
     0
 10
189.58344373775441
 20
235.08939871812271
 30
0.0
 11
189.58344373775441
 21
235.08939871812271
 31
0.0
  0
LINE
  5
1CC2
  8
0
 62
     0
 10
189.40487230918299
 20
235.08939871812271
 30
0.0
 11
189.40487230918299
 21
235.08939871812271
 31
0.0
  0
LINE
  5
1CC3
  8
0
 62
     0
 10
189.2263008806116
 20
235.08939871812271
 30
0.0
 11
189.2263008806116
 21
235.08939871812271
 31
0.0
  0
LINE
  5
1CC4
  8
0
 62
     0
 10
189.04772945204019
 20
235.08939871812271
 30
0.0
 11
189.04772945204019
 21
235.08939871812271
 31
0.0
  0
LINE
  5
1CC5
  8
0
 62
     0
 10
179.76201516632591
 20
235.08939871812271
 30
0.0
 11
179.76201516632591
 21
235.08939871812271
 31
0.0
  0
LINE
  5
1CC6
  8
0
 62
     0
 10
179.58344373775449
 20
235.08939871812271
 30
0.0
 11
179.58344373775449
 21
235.08939871812271
 31
0.0
  0
LINE
  5
1CC7
  8
0
 62
     0
 10
179.40487230918299
 20
235.08939871812271
 30
0.0
 11
179.40487230918299
 21
235.08939871812271
 31
0.0
  0
LINE
  5
1CC8
  8
0
 62
     0
 10
179.2263008806116
 20
235.08939871812271
 30
0.0
 11
179.2263008806116
 21
235.08939871812271
 31
0.0
  0
LINE
  5
1CC9
  8
0
 62
     0
 10
192.97630088061169
 20
235.08939871812271
 30
0.0
 11
192.97630088061169
 21
235.08939871812271
 31
0.0
  0
LINE
  5
1CCA
  8
0
 62
     0
 10
192.7977294520403
 20
235.08939871812271
 30
0.0
 11
192.7977294520403
 21
235.08939871812271
 31
0.0
  0
LINE
  5
1CCB
  8
0
 62
     0
 10
192.6191580234688
 20
235.08939871812271
 30
0.0
 11
192.6191580234688
 21
235.08939871812271
 31
0.0
  0
LINE
  5
1CCC
  8
0
 62
     0
 10
192.44058659489741
 20
235.08939871812271
 30
0.0
 11
192.44058659489741
 21
235.08939871812271
 31
0.0
  0
LINE
  5
1CCD
  8
0
 62
     0
 10
177.26201516632571
 20
235.08939871812271
 30
0.0
 11
177.26201516632571
 21
235.08939871812271
 31
0.0
  0
LINE
  5
1CCE
  8
0
 62
     0
 10
177.08344373775429
 20
235.08939871812271
 30
0.0
 11
177.08344373775429
 21
235.08939871812271
 31
0.0
  0
LINE
  5
1CCF
  8
0
 62
     0
 10
176.90487230918291
 20
235.08939871812271
 30
0.0
 11
176.90487230918291
 21
235.08939871812271
 31
0.0
  0
LINE
  5
1CD0
  8
0
 62
     0
 10
176.72630088061149
 20
235.08939871812271
 30
0.0
 11
176.72630088061149
 21
235.08939871812271
 31
0.0
  0
LINE
  5
1CD1
  8
0
 62
     0
 10
176.5477294520401
 20
235.08939871812271
 30
0.0
 11
176.5477294520401
 21
235.08939871812271
 31
0.0
  0
LINE
  5
1CD2
  8
0
 62
     0
 10
176.36915802346871
 20
235.08939871812271
 30
0.0
 11
176.36915802346871
 21
235.08939871812271
 31
0.0
  0
LINE
  5
1CD3
  8
0
 62
     0
 10
176.1905865948973
 20
235.08939871812271
 30
0.0
 11
176.1905865948973
 21
235.08939871812271
 31
0.0
  0
LINE
  5
1CD4
  8
0
 62
     0
 10
176.0120151663258
 20
235.08939871812271
 30
0.0
 11
176.0120151663258
 21
235.08939871812271
 31
0.0
  0
LINE
  5
1CD5
  8
0
 62
     0
 10
175.83344373775441
 20
235.08939871812271
 30
0.0
 11
175.83344373775441
 21
235.08939871812271
 31
0.0
  0
LINE
  5
1CD6
  8
0
 62
     0
 10
175.65487230918299
 20
235.08939871812271
 30
0.0
 11
175.65487230918299
 21
235.08939871812271
 31
0.0
  0
LINE
  5
1CD7
  8
0
 62
     0
 10
175.4763008806116
 20
235.08939871812271
 30
0.0
 11
175.4763008806116
 21
235.08939871812271
 31
0.0
  0
LINE
  5
1CD8
  8
0
 62
     0
 10
175.29772945204019
 20
235.08939871812271
 30
0.0
 11
175.29772945204019
 21
235.08939871812271
 31
0.0
  0
LINE
  5
1CD9
  8
0
 62
     0
 10
175.1191580234688
 20
235.08939871812271
 30
0.0
 11
175.1191580234688
 21
235.08939871812271
 31
0.0
  0
LINE
  5
1CDA
  8
0
 62
     0
 10
174.9405865948973
 20
235.08939871812271
 30
0.0
 11
174.9405865948973
 21
235.08939871812271
 31
0.0
  0
LINE
  5
1CDB
  8
0
 62
     0
 10
174.76201516632591
 20
235.08939871812271
 30
0.0
 11
174.76201516632591
 21
235.08939871812271
 31
0.0
  0
LINE
  5
1CDC
  8
0
 62
     0
 10
174.58344373775449
 20
235.08939871812271
 30
0.0
 11
174.58344373775449
 21
235.08939871812271
 31
0.0
  0
LINE
  5
1CDD
  8
0
 62
     0
 10
174.40487230918311
 20
235.08939871812271
 30
0.0
 11
174.40487230918311
 21
235.08939871812271
 31
0.0
  0
LINE
  5
1CDE
  8
0
 62
     0
 10
186.27987230918311
 20
235.26797014669421
 30
0.0
 11
186.27987230918311
 21
235.26797014669421
 31
0.0
  0
LINE
  5
1CDF
  8
0
 62
     0
 10
186.10130088061169
 20
235.26797014669421
 30
0.0
 11
186.10130088061169
 21
235.26797014669421
 31
0.0
  0
LINE
  5
1CE0
  8
0
 62
     0
 10
185.9227294520403
 20
235.26797014669421
 30
0.0
 11
185.9227294520403
 21
235.26797014669421
 31
0.0
  0
LINE
  5
1CE1
  8
0
 62
     0
 10
182.88701516632599
 20
235.26797014669421
 30
0.0
 11
182.88701516632599
 21
235.26797014669421
 31
0.0
  0
LINE
  5
1CE2
  8
0
 62
     0
 10
182.70844373775461
 20
235.26797014669421
 30
0.0
 11
182.70844373775461
 21
235.26797014669421
 31
0.0
  0
LINE
  5
1CE3
  8
0
 62
     0
 10
182.52987230918319
 20
235.26797014669421
 30
0.0
 11
182.52987230918319
 21
235.26797014669421
 31
0.0
  0
LINE
  5
1CE4
  8
0
 62
     0
 10
182.35130088061169
 20
235.26797014669421
 30
0.0
 11
182.35130088061169
 21
235.26797014669421
 31
0.0
  0
LINE
  5
1CE5
  8
0
 62
     0
 10
189.67272945204019
 20
235.26797014669421
 30
0.0
 11
189.67272945204019
 21
235.26797014669421
 31
0.0
  0
LINE
  5
1CE6
  8
0
 62
     0
 10
189.4941580234688
 20
235.26797014669421
 30
0.0
 11
189.4941580234688
 21
235.26797014669421
 31
0.0
  0
LINE
  5
1CE7
  8
0
 62
     0
 10
189.31558659489741
 20
235.26797014669421
 30
0.0
 11
189.31558659489741
 21
235.26797014669421
 31
0.0
  0
LINE
  5
1CE8
  8
0
 62
     0
 10
189.13701516632599
 20
235.26797014669421
 30
0.0
 11
189.13701516632599
 21
235.26797014669421
 31
0.0
  0
LINE
  5
1CE9
  8
0
 62
     0
 10
179.67272945204019
 20
235.26797014669421
 30
0.0
 11
179.67272945204019
 21
235.26797014669421
 31
0.0
  0
LINE
  5
1CEA
  8
0
 62
     0
 10
179.4941580234688
 20
235.26797014669421
 30
0.0
 11
179.4941580234688
 21
235.26797014669421
 31
0.0
  0
LINE
  5
1CEB
  8
0
 62
     0
 10
179.31558659489741
 20
235.26797014669421
 30
0.0
 11
179.31558659489741
 21
235.26797014669421
 31
0.0
  0
LINE
  5
1CEC
  8
0
 62
     0
 10
179.13701516632599
 20
235.26797014669421
 30
0.0
 11
179.13701516632599
 21
235.26797014669421
 31
0.0
  0
LINE
  5
1CED
  8
0
 62
     0
 10
192.88701516632599
 20
235.26797014669421
 30
0.0
 11
192.88701516632599
 21
235.26797014669421
 31
0.0
  0
LINE
  5
1CEE
  8
0
 62
     0
 10
192.70844373775461
 20
235.26797014669421
 30
0.0
 11
192.70844373775461
 21
235.26797014669421
 31
0.0
  0
LINE
  5
1CEF
  8
0
 62
     0
 10
192.52987230918319
 20
235.26797014669421
 30
0.0
 11
192.52987230918319
 21
235.26797014669421
 31
0.0
  0
LINE
  5
1CF0
  8
0
 62
     0
 10
192.3513008806118
 20
235.26797014669421
 30
0.0
 11
192.3513008806118
 21
235.26797014669421
 31
0.0
  0
LINE
  5
1CF1
  8
0
 62
     0
 10
176.45844373775441
 20
235.26797014669421
 30
0.0
 11
176.45844373775441
 21
235.26797014669421
 31
0.0
  0
LINE
  5
1CF2
  8
0
 62
     0
 10
176.27987230918299
 20
235.26797014669421
 30
0.0
 11
176.27987230918299
 21
235.26797014669421
 31
0.0
  0
LINE
  5
1CF3
  8
0
 62
     0
 10
176.1013008806116
 20
235.26797014669421
 30
0.0
 11
176.1013008806116
 21
235.26797014669421
 31
0.0
  0
LINE
  5
1CF4
  8
0
 62
     0
 10
175.92272945204019
 20
235.26797014669421
 30
0.0
 11
175.92272945204019
 21
235.26797014669421
 31
0.0
  0
LINE
  5
1CF5
  8
0
 62
     0
 10
175.74415802346871
 20
235.26797014669421
 30
0.0
 11
175.74415802346871
 21
235.26797014669421
 31
0.0
  0
LINE
  5
1CF6
  8
0
 62
     0
 10
175.5655865948973
 20
235.26797014669421
 30
0.0
 11
175.5655865948973
 21
235.26797014669421
 31
0.0
  0
LINE
  5
1CF7
  8
0
 62
     0
 10
175.38701516632591
 20
235.26797014669421
 30
0.0
 11
175.38701516632591
 21
235.26797014669421
 31
0.0
  0
LINE
  5
1CF8
  8
0
 62
     0
 10
175.20844373775449
 20
235.26797014669421
 30
0.0
 11
175.20844373775449
 21
235.26797014669421
 31
0.0
  0
LINE
  5
1CF9
  8
0
 62
     0
 10
175.02987230918311
 20
235.26797014669421
 30
0.0
 11
175.02987230918311
 21
235.26797014669421
 31
0.0
  0
LINE
  5
1CFA
  8
0
 62
     0
 10
174.85130088061169
 20
235.26797014669421
 30
0.0
 11
174.85130088061169
 21
235.26797014669421
 31
0.0
  0
LINE
  5
1CFB
  8
0
 62
     0
 10
174.67272945204019
 20
235.26797014669421
 30
0.0
 11
174.67272945204019
 21
235.26797014669421
 31
0.0
  0
LINE
  5
1CFC
  8
0
 62
     0
 10
174.4941580234688
 20
235.26797014669421
 30
0.0
 11
174.4941580234688
 21
235.26797014669421
 31
0.0
  0
LINE
  5
1CFD
  8
0
 62
     0
 10
174.31558659489741
 20
235.26797014669421
 30
0.0
 11
174.31558659489741
 21
235.26797014669421
 31
0.0
  0
ENDBLK
  5
1CFF
  8
0
  0
ENDSEC
  0
SECTION
  2
ENTITIES
  0
LINE
  5
1308
  8
3
 10
248.6900519533142
 20
129.27663111322519
 30
0.0
 11
248.01355195331439
 21
130.4483634845453
 31
0.0
  0
LINE
  5
1309
  8
0
 10
249.21355195331421
 20
101.27663111322521
 30
0.0
 11
248.01355195331419
 21
102.4766311132252
 31
0.0
  0
LINE
  5
130A
  8
3
 10
248.6900519533142
 20
129.27663111322519
 30
0.0
 11
248.6900519533142
 21
101.8001311132254
 31
0.0
  0
LINE
  5
130B
  8
0
 10
248.01355195331391
 20
131.27663111322519
 30
0.0
 11
248.01355195331419
 21
102.4766311132252
 31
0.0
  0
LINE
  5
130C
  8
3
 10
255.33705195331439
 20
129.27663111322519
 30
0.0
 11
256.01355195331422
 21
130.4483634845453
 31
0.0
  0
LINE
  5
130D
  8
0
 10
256.01355195331422
 20
129.27663111322519
 30
0.0
 11
248.01355195331419
 21
129.27663111322519
 31
0.0
  0
LINE
  5
130E
  8
0
 10
256.01355195331422
 20
102.476631113225
 30
0.0
 11
248.01355195331419
 21
102.4766311132252
 31
0.0
  0
LINE
  5
130F
  8
0
 10
256.01355195331422
 20
102.4766311132252
 30
0.0
 11
254.81355195331409
 21
101.27663111322521
 31
0.0
  0
LINE
  5
1310
  8
3
 10
255.33705195331439
 20
129.27663111322519
 30
0.0
 11
255.33705195331439
 21
101.80013111322521
 31
0.0
  0
LINE
  5
1311
  8
0
 10
254.81355195331409
 20
101.27663111322521
 30
0.0
 11
249.21355195331421
 21
101.27663111322521
 31
0.0
  0
LINE
  5
1312
  8
0
 10
256.01355195331422
 20
131.27663111322519
 30
0.0
 11
256.01355195331422
 21
102.4766311132252
 31
0.0
  0
LINE
  5
1313
  8
0
 10
138.01355195331391
 20
131.27663111322519
 30
0.0
 11
138.01355195331411
 21
102.4766311132252
 31
0.0
  0
LINE
  5
1314
  8
0
 10
146.01355195331411
 20
131.27663111322519
 30
0.0
 11
146.01355195331411
 21
102.4766311132252
 31
0.0
  0
LINE
  5
1315
  8
0
 10
144.81355195331409
 20
101.27663111322521
 30
0.0
 11
139.21355195331421
 21
101.27663111322521
 31
0.0
  0
LINE
  5
1316
  8
3
 10
138.6900519533142
 20
129.27663111322519
 30
0.0
 11
138.6900519533142
 21
101.8001311132254
 31
0.0
  0
LINE
  5
1317
  8
3
 10
145.3370519533143
 20
129.27663111322519
 30
0.0
 11
145.3370519533143
 21
101.80013111322521
 31
0.0
  0
LINE
  5
1318
  8
0
 10
146.01355195331411
 20
102.4766311132252
 30
0.0
 11
144.81355195331409
 21
101.27663111322521
 31
0.0
  0
LINE
  5
1319
  8
0
 10
139.21355195331421
 20
101.27663111322521
 30
0.0
 11
138.01355195331411
 21
102.4766311132252
 31
0.0
  0
LINE
  5
131A
  8
0
 10
146.01355195331411
 20
102.476631113225
 30
0.0
 11
138.01355195331411
 21
102.4766311132252
 31
0.0
  0
LINE
  5
131B
  8
0
 10
146.01355195331411
 20
129.27663111322519
 30
0.0
 11
138.01355195331411
 21
129.27663111322519
 31
0.0
  0
LINE
  5
131C
  8
3
 10
145.3370519533143
 20
129.27663111322519
 30
0.0
 11
146.01355195331411
 21
130.4483634845453
 31
0.0
  0
LINE
  5
131D
  8
3
 10
138.6900519533142
 20
129.27663111322519
 30
0.0
 11
138.01355195331439
 21
130.4483634845453
 31
0.0
  0
LINE
  5
131E
  8
3
 10
68.690051953314196
 20
129.27663111322519
 30
0.0
 11
68.013551953314391
 21
130.4483634845453
 31
0.0
  0
LINE
  5
131F
  8
3
 10
75.337051953314344
 20
129.27663111322519
 30
0.0
 11
76.013551953314163
 21
130.4483634845453
 31
0.0
  0
LINE
  5
1320
  8
0
 10
76.013551953314163
 20
129.27663111322519
 30
0.0
 11
68.013551953314163
 21
129.27663111322519
 31
0.0
  0
LINE
  5
1321
  8
0
 10
76.013551953314163
 20
102.476631113225
 30
0.0
 11
68.013551953314163
 21
102.4766311132252
 31
0.0
  0
LINE
  5
1322
  8
0
 10
69.213551953314209
 20
101.27663111322521
 30
0.0
 11
68.013551953314163
 21
102.4766311132252
 31
0.0
  0
LINE
  5
1323
  8
0
 10
76.013551953314163
 20
102.4766311132252
 30
0.0
 11
74.813551953314118
 21
101.27663111322521
 31
0.0
  0
LINE
  5
1324
  8
0
 10
76.013551953314163
 20
131.27663111322519
 30
0.0
 11
76.013551953314163
 21
102.4766311132252
 31
0.0
  0
LINE
  5
1325
  8
3
 10
75.337051953314344
 20
129.27663111322519
 30
0.0
 11
75.337051953314344
 21
101.80013111322521
 31
0.0
  0
LINE
  5
1326
  8
3
 10
68.690051953314196
 20
129.27663111322519
 30
0.0
 11
68.690051953314196
 21
101.8001311132254
 31
0.0
  0
LINE
  5
1327
  8
0
 10
68.013551953313936
 20
131.27663111322519
 30
0.0
 11
68.013551953314163
 21
102.4766311132252
 31
0.0
  0
LINE
  5
1328
  8
0
 10
74.813551953314118
 20
101.27663111322521
 30
0.0
 11
69.213551953314209
 21
101.27663111322521
 31
0.0
  0
CIRCLE
  5
1329
  8
3
 10
142.01355195331411
 20
46.276631113225207
 30
0.0
 40
3.3235000000000001
  0
CIRCLE
  5
132A
  8
0
 10
142.01355195331411
 20
46.276631113225207
 30
0.0
 40
4.0
  0
LINE
  5
1335
  8
1
 10
142.01355195331411
 20
31.776631113225221
 30
0.0
 11
142.01355195331411
 21
60.776631113225221
 31
0.0
  0
LINE
  5
1336
  8
1
 10
127.51355195331411
 20
46.276631113225207
 30
0.0
 11
210.01355195331419
 21
46.276631113225207
 31
0.0
  0
LINE
  5
135C
  8
1
 10
252.01355195331411
 20
184.75088723380711
 30
0.0
 11
252.01355195331419
 21
96.276631113225264
 31
0.0
  0
LINE
  5
1370
  8
1
 10
72.013551953314064
 20
184.75088723380711
 30
0.0
 11
72.013551953313936
 21
96.276631113225264
 31
0.0
  0
LINE
  5
13B9
  8
1
 10
142.01355195331411
 20
173.77663111322511
 30
0.0
 11
142.01355195331411
 21
96.276631113225193
 31
0.0
  0
LINE
  5
1428
  8
1
 10
127.51355195331411
 20
233.27663111322519
 30
0.0
 11
210.01355195331419
 21
233.27663111322519
 31
0.0
  0
LINE
  5
1429
  8
1
 10
142.01355195331411
 20
218.77663111322519
 30
0.0
 11
142.01355195331411
 21
247.77663111322519
 31
0.0
  0
LINE
  5
15E3
  8
0
 10
149.51355195331411
 20
131.88163111322521
 30
0.0
 11
149.51355195331411
 21
143.27663111322519
 31
0.0
  0
LINE
  5
15E4
  8
0
 10
134.51355195331411
 20
143.27663111322519
 30
0.0
 11
134.51355195331411
 21
131.88163111322521
 31
0.0
  0
LINE
  5
15E5
  8
0
 10
148.01355195331411
 20
131.27663111322519
 30
0.0
 11
148.01355195331411
 21
131.47663111322521
 31
0.0
  0
LINE
  5
15E6
  8
0
 10
136.01355195331411
 20
131.47663111322521
 30
0.0
 11
136.01355195331411
 21
131.27663111322519
 31
0.0
  0
LINE
  5
15E7
  8
0
 10
151.51355195331411
 20
143.77663111322519
 30
0.0
 11
151.51355195331411
 21
148.8266311132252
 31
0.0
  0
LINE
  5
15E8
  8
0
 10
132.51355195331411
 20
166.27663111322519
 30
0.0
 11
132.51355195331411
 21
143.77663111322519
 31
0.0
  0
ARC
  5
15E9
  8
0
 10
166.1705780703478
 20
145.49985724255271
 30
0.0
 40
15.029831635184539
 50
120.10080904276261
 51
167.21197287030611
  0
ARC
  5
15EA
  8
0
 10
219.79606569184679
 20
68.157238812803939
 30
0.0
 40
109.1021285714247
 50
106.6653897071391
 51
124.0977077126559
  0
LINE
  5
15EB
  8
0
 10
149.10855195331419
 20
131.47663111322521
 30
0.0
 11
149.51355195331411
 21
131.88163111322521
 31
0.0
  0
LINE
  5
15EC
  8
0
 10
134.51355195331411
 20
131.88163111322521
 30
0.0
 11
134.91855195331411
 21
131.47663111322521
 31
0.0
  0
LINE
  5
15ED
  8
0
 10
136.01355195331411
 20
131.27663111322519
 30
0.0
 11
148.01355195331411
 21
131.27663111322519
 31
0.0
  0
LINE
  5
15EE
  8
0
 10
133.01355195331411
 20
143.27663111322519
 30
0.0
 11
151.01355195331439
 21
143.27663111322519
 31
0.0
  0
LINE
  5
15EF
  8
0
 10
134.51355195331439
 20
168.27663111322519
 30
0.0
 11
147.26355195331419
 21
168.27663111322519
 31
0.0
  0
POLYLINE
  5
15F0
  8
0
 66
     1
 10
0.0
 20
0.0
 30
0.0
  0
VERTEX
  5
184E
  8
0
 10
147.26355195331419
 20
168.27663111322519
 30
0.0
  0
VERTEX
  5
184F
  8
0
 10
147.35421804366911
 20
168.28304185413981
 30
0.0
  0
VERTEX
  5
1850
  8
0
 10
147.53245684094711
 20
168.29798993347171
 30
0.0
  0
VERTEX
  5
1851
  8
0
 10
147.70634961415661
 20
168.3155809689012
 30
0.0
  0
VERTEX
  5
1852
  8
0
 10
147.79158638782241
 20
168.32529293370709
 30
0.0
  0
VERTEX
  5
1853
  8
0
 10
147.87584220477831
 20
168.3356001225807
 30
0.0
  0
VERTEX
  5
1854
  8
0
 10
148.04273710905269
 20
168.35810034700319
 30
0.0
  0
VERTEX
  5
1855
  8
0
 10
148.2074652439608
 20
168.3830391572169
 30
0.0
  0
VERTEX
  5
1856
  8
0
 10
148.3699562250674
 20
168.41031668577801
 30
0.0
  0
VERTEX
  5
1857
  8
0
 10
148.5301402927025
 20
168.43983071133391
 30
0.0
  0
VERTEX
  5
1858
  8
0
 10
148.68794863314631
 20
168.47147666958091
 30
0.0
  0
VERTEX
  5
1859
  8
0
 10
148.76594072973441
 20
168.48806581512599
 30
0.0
  0
VERTEX
  5
185A
  8
0
 10
148.84331365837369
 20
168.50514769031091
 30
0.0
  0
VERTEX
  5
185B
  8
0
 10
148.99616924456879
 20
168.54073465588911
 30
0.0
  0
VERTEX
  5
185C
  8
0
 10
149.1464509303666
 20
168.57812627690441
 30
0.0
  0
VERTEX
  5
185D
  8
0
 10
149.2940960763558
 20
168.61720918117931
 30
0.0
  0
VERTEX
  5
185E
  8
0
 10
149.43904398778159
 20
168.657868012786
 30
0.0
  0
VERTEX
  5
185F
  8
0
 10
149.5812360026618
 20
168.69998553816939
 30
0.0
  0
VERTEX
  5
1860
  8
0
 10
149.65128078724089
 20
168.7215541893284
 30
0.0
  0
VERTEX
  5
1861
  8
0
 10
149.72061554767981
 20
168.7434427569271
 30
0.0
  0
VERTEX
  5
1862
  8
0
 10
149.8571282272072
 20
168.78811903629679
 30
0.0
  0
VERTEX
  5
1863
  8
0
 10
149.99072098703979
 20
168.83389193788349
 30
0.0
  0
VERTEX
  5
1864
  8
0
 10
150.05640592438689
 20
168.8571507890023
 30
0.0
  0
SEQEND
  5
1865
  8
0
  0
LINE
  5
15F1
  8
0
 10
205.01355195331419
 20
173.31663111322521
 30
0.0
 11
205.01355195331419
 21
177.27663111322519
 31
0.0
  0
POLYLINE
  5
15F2
  8
0
 66
     1
 10
0.0
 20
0.0
 30
0.0
  0
VERTEX
  5
1866
  8
0
 10
205.01355195331419
 20
173.31663111322521
 30
0.0
  0
VERTEX
  5
1867
  8
0
 10
205.01025583833601
 20
173.13438409786571
 30
0.0
  0
VERTEX
  5
1868
  8
0
 10
204.98306285479009
 20
172.7630965361715
 30
0.0
  0
VERTEX
  5
1869
  8
0
 10
204.92685874976419
 20
172.3858509134771
 30
0.0
  0
VERTEX
  5
186A
  8
0
 10
204.88742239988159
 20
172.1961503082353
 30
0.0
  0
VERTEX
  5
186B
  8
0
 10
204.84024873776701
 20
172.0063401500428
 30
0.0
  0
VERTEX
  5
186C
  8
0
 10
204.72232542113829
 20
171.6282145321382
 30
0.0
  0
VERTEX
  5
186D
  8
0
 10
204.57264615113931
 20
171.2550946571975
 30
0.0
  0
VERTEX
  5
186E
  8
0
 10
204.3911392064899
 20
170.89041536424929
 30
0.0
  0
VERTEX
  5
186F
  8
0
 10
204.1781346775432
 20
170.53758737209489
 30
0.0
  0
VERTEX
  5
1870
  8
0
 10
203.93438558882389
 20
170.1999988102715
 30
0.0
  0
VERTEX
  5
1871
  8
0
 10
203.80131726511991
 20
170.0379404114758
 30
0.0
  0
VERTEX
  5
1872
  8
0
 10
203.77843065498681
 20
170.01140826664459
 30
0.0
  0
VERTEX
  5
1873
  8
0
 10
203.7320579437972
 20
169.95876978203489
 30
0.0
  0
VERTEX
  5
1874
  8
0
 10
203.6848920830615
 20
169.90671110810379
 30
0.0
  0
VERTEX
  5
1875
  8
0
 10
203.66101410835799
 20
169.88090370041729
 30
0.0
  0
VERTEX
  5
1876
  8
0
 10
203.63694074831349
 20
169.85524663058339
 30
0.0
  0
VERTEX
  5
1877
  8
0
 10
203.58821191622451
 20
169.8043906099945
 30
0.0
  0
VERTEX
  5
1878
  8
0
 10
203.53871385575999
 20
169.75415716814859
 30
0.0
  0
VERTEX
  5
1879
  8
0
 10
203.4884551179241
 20
169.70456027457661
 30
0.0
  0
VERTEX
  5
187A
  8
0
 10
203.4374445239755
 20
169.6556137329172
 30
0.0
  0
VERTEX
  5
187B
  8
0
 10
203.38569115199741
 20
169.60733116730421
 30
0.0
  0
VERTEX
  5
187C
  8
0
 10
203.35953882767089
 20
169.58344308063371
 30
0.0
  0
VERTEX
  5
187D
  8
0
 10
203.33320432169489
 20
169.55972600880301
 30
0.0
  0
VERTEX
  5
187E
  8
0
 10
203.2799832744829
 20
169.51280252634129
 30
0.0
  0
VERTEX
  5
187F
  8
0
 10
203.22563926350611
 20
169.46623787007599
 30
0.0
  0
VERTEX
  5
1880
  8
0
 10
203.1699758254075
 20
169.41990499635321
 30
0.0
  0
VERTEX
  5
1881
  8
0
 10
203.1130015829531
 20
169.3738584818197
 30
0.0
  0
VERTEX
  5
1882
  8
0
 10
203.05472662503331
 20
169.32815237536579
 30
0.0
  0
VERTEX
  5
1883
  8
0
 10
203.02510492632459
 20
169.30544370138421
 30
0.0
  0
VERTEX
  5
1884
  8
0
 10
202.99516248496479
 20
169.28284011776961
 30
0.0
  0
VERTEX
  5
1885
  8
0
 10
202.9343221078127
 20
169.23797446032691
 30
0.0
  0
VERTEX
  5
1886
  8
0
 10
202.87221980526121
 20
169.19360738250421
 30
0.0
  0
VERTEX
  5
1887
  8
0
 10
202.8088711964501
 20
169.14979000880291
 30
0.0
  0
VERTEX
  5
1888
  8
0
 10
202.74429313308841
 20
169.1065725251882
 30
0.0
  0
VERTEX
  5
1889
  8
0
 10
202.6785036070676
 20
169.06400409562099
 30
0.0
  0
VERTEX
  5
188A
  8
0
 10
202.64516045272299
 20
169.0429783400244
 30
0.0
  0
VERTEX
  5
188B
  8
0
 10
202.61152163856511
 20
169.0221327793453
 30
0.0
  0
VERTEX
  5
188C
  8
0
 10
202.54336721591829
 20
168.98100549330761
 30
0.0
  0
VERTEX
  5
188D
  8
0
 10
202.47406173148511
 20
168.94066826497431
 30
0.0
  0
VERTEX
  5
188E
  8
0
 10
202.40362830965449
 20
168.901166369582
 30
0.0
  0
VERTEX
  5
188F
  8
0
 10
202.33209176607349
 20
168.8625442313122
 30
0.0
  0
VERTEX
  5
1890
  8
0
 10
202.25947853201271
 20
168.82484531281131
 30
0.0
  0
VERTEX
  5
1891
  8
0
 10
202.2227768353182
 20
168.80635535334369
 30
0.0
  0
VERTEX
  5
1892
  8
0
 10
202.18581656233991
 20
168.78811200653561
 30
0.0
  0
VERTEX
  5
1893
  8
0
 10
202.11113522506889
 20
168.75238552865
 30
0.0
  0
VERTEX
  5
1894
  8
0
 10
202.03546517041229
 20
168.7177058164676
 30
0.0
  0
VERTEX
  5
1895
  8
0
 10
201.95883817726309
 20
168.68411143069829
 30
0.0
  0
VERTEX
  5
1896
  8
0
 10
201.88128697507989
 20
168.6516394640656
 30
0.0
  0
VERTEX
  5
1897
  8
0
 10
201.80284350287079
 20
168.62032485971901
 30
0.0
  0
VERTEX
  5
1898
  8
0
 10
201.76329136592659
 20
168.6051098265342
 30
0.0
  0
VERTEX
  5
1899
  8
0
 10
201.72352291057379
 20
168.59019464917029
 30
0.0
  0
VERTEX
  5
189A
  8
0
 10
201.64335535406329
 20
168.5612807998574
 30
0.0
  0
VERTEX
  5
189B
  8
0
 10
201.5623786743061
 20
168.53361641006339
 30
0.0
  0
VERTEX
  5
189C
  8
0
 10
201.52159924928671
 20
168.52026274023379
 30
0.0
  0
VERTEX
  5
189D
  8
0
 10
201.48063256435691
 20
168.50723322660579
 30
0.0
  0
VERTEX
  5
189E
  8
0
 10
201.39815840454571
 20
168.48216149814749
 30
0.0
  0
VERTEX
  5
189F
  8
0
 10
201.31499907330999
 20
168.45842983865299
 30
0.0
  0
VERTEX
  5
18A0
  8
0
 10
201.27317622516489
 20
168.44707499875071
 30
0.0
  0
VERTEX
  5
18A1
  8
0
 10
201.23119873203041
 20
168.43606510301851
 30
0.0
  0
VERTEX
  5
18A2
  8
0
 10
201.14680258243851
 20
168.41509227718001
 30
0.0
  0
VERTEX
  5
18A3
  8
0
 10
201.0618565954658
 20
168.39553438527199
 30
0.0
  0
VERTEX
  5
18A4
  8
0
 10
200.97640721078301
 20
168.3774124166531
 30
0.0
  0
VERTEX
  5
18A5
  8
0
 10
200.89050100695761
 20
168.3607452758574
 30
0.0
  0
VERTEX
  5
18A6
  8
0
 10
200.8041846884235
 20
168.34554981642819
 30
0.0
  0
VERTEX
  5
18A7
  8
0
 10
200.76088770226991
 20
168.3385087344144
 30
0.0
  0
VERTEX
  5
18A8
  8
0
 10
200.71750640158871
 20
168.33184106961329
 30
0.0
  0
VERTEX
  5
18A9
  8
0
 10
200.63051626382969
 20
168.3196322244211
 30
0.0
  0
VERTEX
  5
18AA
  8
0
 10
200.54326610679101
 20
168.30893445874131
 30
0.0
  0
VERTEX
  5
18AB
  8
0
 10
200.45580917406741
 20
168.29975679019981
 30
0.0
  0
VERTEX
  5
18AC
  8
0
 10
200.36819979636081
 20
168.2921059535729
 30
0.0
  0
VERTEX
  5
18AD
  8
0
 10
200.28049304536449
 20
168.28598630703871
 30
0.0
  0
VERTEX
  5
18AE
  8
0
 10
200.23662047774411
 20
168.28350137602851
 30
0.0
  0
VERTEX
  5
18AF
  8
0
 10
200.1927443679115
 20
168.28139976944539
 30
0.0
  0
VERTEX
  5
18B0
  8
0
 10
200.1050092022069
 20
168.27834579064631
 30
0.0
  0
VERTEX
  5
18B1
  8
0
 10
200.01734257826041
 20
168.27682135677929
 30
0.0
  0
VERTEX
  5
18B2
  8
0
 10
199.9735519533142
 20
168.27663111322519
 30
0.0
  0
SEQEND
  5
18B3
  8
0
  0
LINE
  5
15F3
  8
0
 10
199.9735519533142
 20
168.27663111322519
 30
0.0
 11
199.2175519533142
 21
168.27663111322519
 31
0.0
  0
POLYLINE
  5
15F4
  8
0
 66
     1
 10
0.0
 20
0.0
 30
0.0
  0
VERTEX
  5
18B4
  8
0
 10
199.26355195331411
 20
179.57155114410651
 30
0.0
  0
VERTEX
  5
18B5
  8
0
 10
199.37249341905721
 20
179.56497355117051
 30
0.0
  0
VERTEX
  5
18B6
  8
0
 10
199.59223705425529
 20
179.55134451399931
 30
0.0
  0
VERTEX
  5
18B7
  8
0
 10
199.81388345642651
 20
179.53710762495569
 30
0.0
  0
VERTEX
  5
18B8
  8
0
 10
199.92520207406619
 20
179.5297717113904
 30
0.0
  0
VERTEX
  5
18B9
  8
0
 10
200.0367349983361
 20
179.52229714694309
 30
0.0
  0
VERTEX
  5
18BA
  8
0
 10
200.26010050935639
 20
179.50695304228151
 30
0.0
  0
VERTEX
  5
18BB
  8
0
 10
200.4833069837623
 20
179.4911201232087
 30
0.0
  0
VERTEX
  5
18BC
  8
0
 10
200.70570135237099
 20
179.47484773629759
 30
0.0
  0
VERTEX
  5
18BD
  8
0
 10
200.92663386859979
 20
179.4581907861965
 30
0.0
  0
VERTEX
  5
18BE
  8
0
 10
201.14546104756391
 20
179.44120940053119
 30
0.0
  0
VERTEX
  5
18BF
  8
0
 10
201.2538884918331
 20
179.4326170015708
 30
0.0
  0
VERTEX
  5
18C0
  8
0
 10
201.36155672699749
 20
179.4239678583414
 30
0.0
  0
VERTEX
  5
18C1
  8
0
 10
201.5743398083782
 20
179.4065319525927
 30
0.0
  0
VERTEX
  5
18C2
  8
0
 10
201.78333840182009
 20
179.38896287277129
 30
0.0
  0
VERTEX
  5
18C3
  8
0
 10
201.98800685593719
 20
179.3713318266955
 30
0.0
  0
VERTEX
  5
18C4
  8
0
 10
202.1878005159968
 20
179.35371392963401
 30
0.0
  0
VERTEX
  5
18C5
  8
0
 10
202.38220260908179
 20
179.336185496734
 30
0.0
  0
VERTEX
  5
18C6
  8
0
 10
202.47723037143589
 20
179.3274786495893
 30
0.0
  0
VERTEX
  5
18C7
  8
0
 10
202.5707346606834
 20
179.31882253153319
 30
0.0
  0
VERTEX
  5
18C8
  8
0
 10
202.75295680508501
 20
179.3017000545687
 30
0.0
  0
VERTEX
  5
18C9
  8
0
 10
202.9284500394219
 20
179.28489318522199
 30
0.0
  0
VERTEX
  5
18CA
  8
0
 10
203.01355195331419
 20
179.27663111322519
 30
0.0
  0
SEQEND
  5
18CB
  8
0
  0
POLYLINE
  5
15F5
  8
0
 66
     1
 10
0.0
 20
0.0
 30
0.0
  0
VERTEX
  5
18CC
  8
0
 10
203.01355195331419
 20
179.27663111322519
 30
0.0
  0
VERTEX
  5
18CD
  8
0
 10
203.03210496035811
 20
179.2765450578562
 30
0.0
  0
VERTEX
  5
18CE
  8
0
 10
203.06894057040009
 20
179.2758639913805
 30
0.0
  0
VERTEX
  5
18CF
  8
0
 10
203.1054171668911
 20
179.27452019486469
 30
0.0
  0
VERTEX
  5
18D0
  8
0
 10
203.12352143106
 20
179.27360550313711
 30
0.0
  0
VERTEX
  5
18D1
  8
0
 10
203.14153666463619
 20
179.27253189073591
 30
0.0
  0
VERTEX
  5
18D2
  8
0
 10
203.17730102294399
 20
179.26991640193711
 30
0.0
  0
VERTEX
  5
18D3
  8
0
 10
203.21271219477941
 20
179.26669020737779
 30
0.0
  0
VERTEX
  5
18D4
  8
0
 10
203.2477720833449
 20
179.26286899693611
 30
0.0
  0
VERTEX
  5
18D5
  8
0
 10
203.28248250567279
 20
179.2584677255644
 30
0.0
  0
VERTEX
  5
18D6
  8
0
 10
203.31684516277849
 20
179.25350066610241
 30
0.0
  0
VERTEX
  5
18D7
  8
0
 10
203.33389657325259
 20
179.25080925221789
 30
0.0
  0
VERTEX
  5
18D8
  8
0
 10
203.3508616158995
 20
179.24798146045589
 30
0.0
  0
VERTEX
  5
18D9
  8
0
 10
203.38453326832911
 20
179.241923168852
 30
0.0
  0
VERTEX
  5
18DA
  8
0
 10
203.41786135234861
 20
179.2353383169318
 30
0.0
  0
VERTEX
  5
18DB
  8
0
 10
203.45084692076369
 20
179.22823894049051
 30
0.0
  0
VERTEX
  5
18DC
  8
0
 10
203.4834908425612
 20
179.22063662771669
 30
0.0
  0
VERTEX
  5
18DD
  8
0
 10
203.51579382687081
 20
179.21254255243059
 30
0.0
  0
VERTEX
  5
18DE
  8
0
 10
203.53181767969971
 20
179.20831448191021
 30
0.0
  0
VERTEX
  5
18DF
  8
0
 10
203.54775655188379
 20
179.20396747381901
 30
0.0
  0
VERTEX
  5
18E0
  8
0
 10
203.57937967755501
 20
179.19492175504161
 30
0.0
  0
VERTEX
  5
18E1
  8
0
 10
203.6106638220563
 20
179.18541539024741
 30
0.0
  0
VERTEX
  5
18E2
  8
0
 10
203.62617895550599
 20
179.180492493732
 30
0.0
  0
VERTEX
  5
18E3
  8
0
 10
203.64160955131391
 20
179.175458028348
 30
0.0
  0
VERTEX
  5
18E4
  8
0
 10
203.67221737050929
 20
179.1650589959338
 30
0.0
  0
VERTEX
  5
18E5
  8
0
 10
203.7024877173817
 20
179.1542273192793
 30
0.0
  0
VERTEX
  5
18E6
  8
0
 10
203.7174964557741
 20
179.14865198315599
 30
0.0
  0
VERTEX
  5
18E7
  8
0
 10
203.7324209571743
 20
179.1429717453953
 30
0.0
  0
VERTEX
  5
18E8
  8
0
 10
203.7620173790736
 20
179.131300762096
 30
0.0
  0
VERTEX
  5
18E9
  8
0
 10
203.79127719399321
 20
179.11922261706181
 30
0.0
  0
VERTEX
  5
18EA
  8
0
 10
203.89103695474961
 20
179.07385677302869
 30
0.0
  0
VERTEX
  5
18EB
  8
0
 10
204.0524222365712
 20
178.98565087161461
 30
0.0
  0
VERTEX
  5
18EC
  8
0
 10
204.20155521231479
 20
178.88555878611911
 30
0.0
  0
VERTEX
  5
18ED
  8
0
 10
204.33833935417101
 20
178.77494294409721
 30
0.0
  0
VERTEX
  5
18EE
  8
0
 10
204.462666091698
 20
178.65506073200751
 30
0.0
  0
VERTEX
  5
18EF
  8
0
 10
204.52012357740679
 20
178.59201772615651
 30
0.0
  0
VERTEX
  5
18F0
  8
0
 10
204.5744194343587
 20
178.527108104864
 30
0.0
  0
VERTEX
  5
18F1
  8
0
 10
204.67345802804391
 20
178.39229765080501
 30
0.0
  0
VERTEX
  5
18F2
  8
0
 10
204.7597055340209
 20
178.25179657230649
 30
0.0
  0
VERTEX
  5
18F3
  8
0
 10
204.833143265865
 20
178.10674403041759
 30
0.0
  0
VERTEX
  5
18F4
  8
0
 10
204.89381355994789
 20
177.958258790641
 30
0.0
  0
VERTEX
  5
18F5
  8
0
 10
204.9418270893982
 20
177.80743710373409
 30
0.0
  0
VERTEX
  5
18F6
  8
0
 10
204.96114160571099
 20
177.73148773445541
 30
0.0
  0
VERTEX
  5
18F7
  8
0
 10
204.97736602852621
 20
177.65535829471469
 30
0.0
  0
VERTEX
  5
18F8
  8
0
 10
205.00068954160889
 20
177.50309127569571
 30
0.0
  0
VERTEX
  5
18F9
  8
0
 10
205.01214308504109
 20
177.3516876797772
 30
0.0
  0
VERTEX
  5
18FA
  8
0
 10
205.01355195331419
 20
177.27663111322519
 30
0.0
  0
SEQEND
  5
18FB
  8
0
  0
ARC
  5
15F6
  8
0
 10
146.5815822563444
 20
178.56596362755781
 30
0.0
 40
10.31190798339901
 50
289.6924954698485
 51
320.2825392293127
  0
ARC
  5
15F7
  8
0
 10
193.26355195331411
 20
79.291014674869132
 30
0.0
 40
100.4598725589379
 50
86.575952389849704
 51
112.6888280195687
  0
ARC
  5
15F8
  8
0
 10
199.21755195331411
 20
169.53663111322501
 30
0.0
 40
1.2599999999997791
 50
247.1774821876318
 51
270.0
  0
ARC
  5
15F9
  8
0
 10
190.24515541318851
 20
162.51064315205471
 30
0.0
 40
10.313417329402901
 50
34.655515732158698
 51
99.699448643112603
  0
LINE
  5
15FA
  8
0
 10
134.51355195331411
 20
137.27663111322511
 30
0.0
 11
149.51355195331411
 21
137.27663111322519
 31
0.0
  0
LINE
  5
15FB
  8
3
 10
135.50020124910961
 20
131.4766311132251
 30
0.0
 11
135.50020124910961
 21
137.27663111322519
 31
0.0
  0
LINE
  5
15FC
  8
3
 10
136.65268989583399
 20
131.4766311132251
 30
0.0
 11
136.65268989583399
 21
137.27663111322519
 31
0.0
  0
LINE
  5
15FD
  8
3
 10
138.32993707206671
 20
131.4766311132251
 30
0.0
 11
138.32993707206671
 21
137.27663111322519
 31
0.0
  0
LINE
  5
15FE
  8
3
 10
140.36776213812999
 20
131.47663111322521
 30
0.0
 11
140.36776213812999
 21
137.27663111322519
 31
0.0
  0
LINE
  5
15FF
  8
3
 10
141.46041532843279
 20
131.47663111322521
 30
0.0
 11
141.46041532843279
 21
137.27663111322519
 31
0.0
  0
LINE
  5
1600
  8
3
 10
142.5666885781954
 20
131.47663111322521
 30
0.0
 11
142.5666885781954
 21
137.27663111322519
 31
0.0
  0
LINE
  5
1601
  8
3
 10
143.65934176849831
 20
131.47663111322521
 30
0.0
 11
143.65934176849831
 21
137.27663111322519
 31
0.0
  0
LINE
  5
1602
  8
0
 10
149.10855195331419
 20
131.47663111322521
 30
0.0
 11
134.91855195331411
 21
131.47663111322521
 31
0.0
  0
LINE
  5
1603
  8
3
 10
145.69716683456161
 20
131.47663111322521
 30
0.0
 11
145.69716683456161
 21
137.27663111322519
 31
0.0
  0
LINE
  5
1604
  8
3
 10
147.3744140107944
 20
131.47663111322521
 30
0.0
 11
147.3744140107944
 21
137.27663111322519
 31
0.0
  0
LINE
  5
1605
  8
3
 10
148.5269026575188
 20
131.47663111322521
 30
0.0
 11
148.5269026575188
 21
137.27663111322519
 31
0.0
  0
LINE
  5
1607
  8
0
 10
256.87069481045728
 20
179.75088723380699
 30
0.0
 11
247.15640909617099
 21
179.75088723380699
 31
0.0
  0
LINE
  5
1608
  8
0
 10
261.51355195331422
 20
143.77663111322511
 30
0.0
 11
261.51355195331422
 21
166.27663111322511
 31
0.0
  0
LINE
  5
1609
  8
0
 10
242.51355195331419
 20
166.27663111322511
 30
0.0
 11
242.51355195331419
 21
143.77663111322511
 31
0.0
  0
LINE
  5
160A
  8
0
 10
251.01355195331419
 20
177.27663111322511
 30
0.0
 11
253.01355195331419
 21
177.27663111322511
 31
0.0
  0
LINE
  5
160B
  8
0
 10
243.01355195331399
 20
143.27663111322511
 30
0.0
 11
261.01355195331428
 21
143.27663111322511
 31
0.0
  0
LINE
  5
160C
  8
0
 10
258.76355195331411
 20
168.27663111322511
 30
0.0
 11
259.51355195331399
 21
168.27663111322511
 31
0.0
  0
LINE
  5
160D
  8
0
 10
244.51355195331431
 20
168.27663111322511
 30
0.0
 11
245.26355195331419
 21
168.27663111322511
 31
0.0
  0
LINE
  5
160E
  8
0
 10
251.01355195331419
 20
173.31663111322521
 30
0.0
 11
253.01355195331419
 21
173.31663111322521
 31
0.0
  0
LINE
  5
160F
  8
0
 10
251.01355195331419
 20
173.31663111322521
 30
0.0
 11
251.01355195331419
 21
177.27663111322531
 31
0.0
  0
POLYLINE
  5
1610
  8
0
 66
     1
 10
0.0
 20
0.0
 30
0.0
  0
VERTEX
  5
18FC
  8
0
 10
251.01355195331419
 20
173.31663111322521
 30
0.0
  0
VERTEX
  5
18FD
  8
0
 10
250.8188869644832
 20
173.13438409786571
 30
0.0
  0
VERTEX
  5
18FE
  8
0
 10
250.4222017627348
 20
172.7630965361715
 30
0.0
  0
VERTEX
  5
18FF
  8
0
 10
250.01883785907191
 20
172.3858509134771
 30
0.0
  0
VERTEX
  5
1900
  8
0
 10
249.81581191464761
 20
172.1961503082353
 30
0.0
  0
VERTEX
  5
1901
  8
0
 10
249.6124977165787
 20
172.0063401500428
 30
0.0
  0
VERTEX
  5
1902
  8
0
 10
249.2068167134465
 20
171.6282145321382
 30
0.0
  0
VERTEX
  5
1903
  8
0
 10
248.8053810363289
 20
171.2550946571975
 30
0.0
  0
VERTEX
  5
1904
  8
0
 10
248.4115625296098
 20
170.89041536424929
 30
0.0
  0
VERTEX
  5
1905
  8
0
 10
248.02869405942539
 20
170.53758737209489
 30
0.0
  0
VERTEX
  5
1906
  8
0
 10
247.66007418398411
 20
170.19999881027141
 30
0.0
  0
VERTEX
  5
1907
  8
0
 10
247.48209531688579
 20
170.0379404114758
 30
0.0
  0
VERTEX
  5
1908
  8
0
 10
247.45288202910271
 20
170.01140826664459
 30
0.0
  0
VERTEX
  5
1909
  8
0
 10
247.3948568552135
 20
169.95876978203481
 30
0.0
  0
VERTEX
  5
190A
  8
0
 10
247.33737847303789
 20
169.90671110810379
 30
0.0
  0
VERTEX
  5
190B
  8
0
 10
247.3088486460361
 20
169.88090370041729
 30
0.0
  0
VERTEX
  5
190C
  8
0
 10
247.2804606809535
 20
169.85524663058339
 30
0.0
  0
VERTEX
  5
190D
  8
0
 10
247.22411713988859
 20
169.8043906099945
 30
0.0
  0
VERTEX
  5
190E
  8
0
 10
247.16836135883429
 20
169.75415716814859
 30
0.0
  0
VERTEX
  5
190F
  8
0
 10
247.11320668017879
 20
169.70456027457661
 30
0.0
  0
VERTEX
  5
1910
  8
0
 10
247.05866626488049
 20
169.6556137329172
 30
0.0
  0
VERTEX
  5
1911
  8
0
 10
247.00475307750619
 20
169.60733116730421
 30
0.0
  0
VERTEX
  5
1912
  8
0
 10
246.97803568831179
 20
169.58344308063371
 30
0.0
  0
VERTEX
  5
1913
  8
0
 10
246.95147987117031
 20
169.55972600880301
 30
0.0
  0
VERTEX
  5
1914
  8
0
 10
246.89884911564329
 20
169.51280252634129
 30
0.0
  0
VERTEX
  5
1915
  8
0
 10
246.84649494069521
 20
169.46623787007599
 30
0.0
  0
VERTEX
  5
1916
  8
0
 10
246.79426853885391
 20
169.41990499635321
 30
0.0
  0
VERTEX
  5
1917
  8
0
 10
246.74222457779339
 20
169.3738584818197
 30
0.0
  0
VERTEX
  5
1918
  8
0
 10
246.69041714064451
 20
169.32815237536579
 30
0.0
  0
VERTEX
  5
1919
  8
0
 10
246.66461883917711
 20
169.30544370138421
 30
0.0
  0
VERTEX
  5
191A
  8
0
 10
246.63889964254989
 20
169.28284011776961
 30
0.0
  0
VERTEX
  5
191B
  8
0
 10
246.58772474556599
 20
169.23797446032691
 30
0.0
  0
VERTEX
  5
191C
  8
0
 10
246.53694427178519
 20
169.1936073825041
 30
0.0
  0
VERTEX
  5
191D
  8
0
 10
246.4866091146811
 20
169.14979000880291
 30
0.0
  0
VERTEX
  5
191E
  8
0
 10
246.4367691488296
 20
169.1065725251882
 30
0.0
  0
VERTEX
  5
191F
  8
0
 10
246.3874731383211
 20
169.06400409562099
 30
0.0
  0
VERTEX
  5
1920
  8
0
 10
246.36304402871849
 20
169.0429783400244
 30
0.0
  0
VERTEX
  5
1921
  8
0
 10
246.33876864425679
 20
169.0221327793453
 30
0.0
  0
VERTEX
  5
1922
  8
0
 10
246.29070198288429
 20
168.98100549330761
 30
0.0
  0
VERTEX
  5
1923
  8
0
 10
246.24331852461589
 20
168.94066826497431
 30
0.0
  0
VERTEX
  5
1924
  8
0
 10
246.1966628663252
 20
168.901166369582
 30
0.0
  0
VERTEX
  5
1925
  8
0
 10
246.15077873039789
 20
168.8625442313122
 30
0.0
  0
VERTEX
  5
1926
  8
0
 10
246.1090190950946
 20
168.82761418391721
 30
0.0
  0
SEQEND
  5
1927
  8
0
  0
POLYLINE
  5
1611
  8
0
 66
     1
 10
0.0
 20
0.0
 30
0.0
  0
VERTEX
  5
1928
  8
0
 10
246.26277524463171
 20
179.325149306377
 30
0.0
  0
VERTEX
  5
1929
  8
0
 10
246.3098255008004
 20
179.3188225315331
 30
0.0
  0
VERTEX
  5
192A
  8
0
 10
246.44337101811701
 20
179.3017000545687
 30
0.0
  0
VERTEX
  5
192B
  8
0
 10
246.5828610344567
 20
179.28489318522199
 30
0.0
  0
VERTEX
  5
192C
  8
0
 10
246.6546530097734
 20
179.27663111322511
 30
0.0
  0
SEQEND
  5
192D
  8
0
  0
POLYLINE
  5
1612
  8
0
 66
     1
 10
0.0
 20
0.0
 30
0.0
  0
VERTEX
  5
192E
  8
0
 10
246.6546530097734
 20
179.27663111322511
 30
0.0
  0
VERTEX
  5
192F
  8
0
 10
246.670683289274
 20
179.2765450578562
 30
0.0
  0
VERTEX
  5
1930
  8
0
 10
246.7029235219884
 20
179.2758639913805
 30
0.0
  0
VERTEX
  5
1931
  8
0
 10
246.73540145564479
 20
179.27452019486469
 30
0.0
  0
VERTEX
  5
1932
  8
0
 10
246.7517289125403
 20
179.27360550313711
 30
0.0
  0
VERTEX
  5
1933
  8
0
 10
246.76811504072751
 20
179.27253189073591
 30
0.0
  0
VERTEX
  5
1934
  8
0
 10
246.8010624019951
 20
179.26991640193711
 30
0.0
  0
VERTEX
  5
1935
  8
0
 10
246.83424179645439
 20
179.26669020737779
 30
0.0
  0
VERTEX
  5
1936
  8
0
 10
246.86765157396849
 20
179.26286899693611
 30
0.0
  0
VERTEX
  5
1937
  8
0
 10
246.90129014071999
 20
179.2584677255644
 30
0.0
  0
VERTEX
  5
1938
  8
0
 10
246.93515592569349
 20
179.25350066610241
 30
0.0
  0
VERTEX
  5
1939
  8
0
 10
246.95217353276041
 20
179.25080925221781
 30
0.0
  0
VERTEX
  5
193A
  8
0
 10
246.96924735027821
 20
179.24798146045589
 30
0.0
  0
VERTEX
  5
193B
  8
0
 10
247.00356280104739
 20
179.241923168852
 30
0.0
  0
VERTEX
  5
193C
  8
0
 10
247.03810060571911
 20
179.2353383169318
 30
0.0
  0
VERTEX
  5
193D
  8
0
 10
247.072859012273
 20
179.22823894049051
 30
0.0
  0
VERTEX
  5
193E
  8
0
 10
247.1078361711532
 20
179.22063662771669
 30
0.0
  0
VERTEX
  5
193F
  8
0
 10
247.1430301475659
 20
179.21254255243059
 30
0.0
  0
VERTEX
  5
1940
  8
0
 10
247.16070784941331
 20
179.20831448191021
 30
0.0
  0
VERTEX
  5
1941
  8
0
 10
247.17843905307311
 20
179.20396747381909
 30
0.0
  0
VERTEX
  5
1942
  8
0
 10
247.21406105917131
 20
179.19492175504161
 30
0.0
  0
VERTEX
  5
1943
  8
0
 10
247.24989437050431
 20
179.18541539024741
 30
0.0
  0
VERTEX
  5
1944
  8
0
 10
247.26788971016569
 20
179.180492493732
 30
0.0
  0
VERTEX
  5
1945
  8
0
 10
247.28593721080139
 20
179.175458028348
 30
0.0
  0
VERTEX
  5
1946
  8
0
 10
247.32218780990749
 20
179.1650589959338
 30
0.0
  0
VERTEX
  5
1947
  8
0
 10
247.3586443918999
 20
179.1542273192793
 30
0.0
  0
VERTEX
  5
1948
  8
0
 10
247.37694936724461
 20
179.14865198315599
 30
0.0
  0
VERTEX
  5
1949
  8
0
 10
247.39530516428249
 20
179.1429717453953
 30
0.0
  0
VERTEX
  5
194A
  8
0
 10
247.43216830823411
 20
179.131300762096
 30
0.0
  0
VERTEX
  5
194B
  8
0
 10
247.4692319698874
 20
179.11922261706181
 30
0.0
  0
VERTEX
  5
194C
  8
0
 10
247.60050601727821
 20
179.07385677302869
 30
0.0
  0
VERTEX
  5
194D
  8
0
 10
247.83090817649301
 20
178.98565087161461
 30
0.0
  0
VERTEX
  5
194E
  8
0
 10
248.06760154400661
 20
178.88555878611911
 30
0.0
  0
VERTEX
  5
194F
  8
0
 10
248.31002965155571
 20
178.77494294409721
 30
0.0
  0
VERTEX
  5
1950
  8
0
 10
248.55759752050011
 20
178.65506073200751
 30
0.0
  0
VERTEX
  5
1951
  8
0
 10
248.6831110592376
 20
178.59201772615651
 30
0.0
  0
VERTEX
  5
1952
  8
0
 10
248.80964936953589
 20
178.527108104864
 30
0.0
  0
VERTEX
  5
1953
  8
0
 10
249.06536914294901
 20
178.39229765080501
 30
0.0
  0
VERTEX
  5
1954
  8
0
 10
249.32393785024649
 20
178.25179657230649
 30
0.0
  0
VERTEX
  5
1955
  8
0
 10
249.5845129016578
 20
178.10674403041759
 30
0.0
  0
VERTEX
  5
1956
  8
0
 10
249.84622413266291
 20
177.958258790641
 30
0.0
  0
VERTEX
  5
1957
  8
0
 10
250.10818380779
 20
177.80743710373409
 30
0.0
  0
VERTEX
  5
1958
  8
0
 10
250.23897325950631
 20
177.7314877344553
 30
0.0
  0
VERTEX
  5
1959
  8
0
 10
250.3694799744884
 20
177.65535829471469
 30
0.0
  0
VERTEX
  5
195A
  8
0
 10
250.62916634877661
 20
177.50309127569571
 30
0.0
  0
VERTEX
  5
195B
  8
0
 10
250.88627273179409
 20
177.3516876797772
 30
0.0
  0
VERTEX
  5
195C
  8
0
 10
251.01355195331419
 20
177.27663111322531
 30
0.0
  0
SEQEND
  5
195D
  8
0
  0
LINE
  5
1613
  8
0
 10
256.87069481045683
 20
168.27663111322511
 30
0.0
 11
247.1564090961715
 21
168.27663111322511
 31
0.0
  0
POLYLINE
  5
1614
  8
0
 66
     1
 10
0.0
 20
0.0
 30
0.0
  0
VERTEX
  5
195E
  8
0
 10
257.9180848115335
 20
168.82761418391721
 30
0.0
  0
VERTEX
  5
195F
  8
0
 10
257.8763251762303
 20
168.8625442313122
 30
0.0
  0
VERTEX
  5
1960
  8
0
 10
257.8304410403029
 20
168.901166369582
 30
0.0
  0
VERTEX
  5
1961
  8
0
 10
257.78378538201218
 20
168.94066826497431
 30
0.0
  0
VERTEX
  5
1962
  8
0
 10
257.73640192374393
 20
168.98100549330761
 30
0.0
  0
VERTEX
  5
1963
  8
0
 10
257.68833526237131
 20
169.0221327793453
 30
0.0
  0
VERTEX
  5
1964
  8
0
 10
257.66405987790972
 20
169.0429783400244
 30
0.0
  0
VERTEX
  5
1965
  8
0
 10
257.63963076830709
 20
169.06400409562099
 30
0.0
  0
VERTEX
  5
1966
  8
0
 10
257.59033475779847
 20
169.1065725251882
 30
0.0
  0
VERTEX
  5
1967
  8
0
 10
257.5404947919472
 20
169.14979000880291
 30
0.0
  0
VERTEX
  5
1968
  8
0
 10
257.49015963484311
 20
169.19360738250421
 30
0.0
  0
VERTEX
  5
1969
  8
0
 10
257.43937916106222
 20
169.23797446032691
 30
0.0
  0
VERTEX
  5
196A
  8
0
 10
257.38820426407818
 20
169.28284011776961
 30
0.0
  0
VERTEX
  5
196B
  8
0
 10
257.36248506745102
 20
169.30544370138421
 30
0.0
  0
VERTEX
  5
196C
  8
0
 10
257.33668676598359
 20
169.32815237536579
 30
0.0
  0
VERTEX
  5
196D
  8
0
 10
257.2848793288349
 20
169.3738584818197
 30
0.0
  0
VERTEX
  5
196E
  8
0
 10
257.2328353677745
 20
169.41990499635321
 30
0.0
  0
VERTEX
  5
196F
  8
0
 10
257.18060896593312
 20
169.46623787007599
 30
0.0
  0
VERTEX
  5
1970
  8
0
 10
257.12825479098478
 20
169.51280252634129
 30
0.0
  0
VERTEX
  5
1971
  8
0
 10
257.07562403545802
 20
169.55972600880301
 30
0.0
  0
VERTEX
  5
1972
  8
0
 10
257.04906821831628
 20
169.58344308063371
 30
0.0
  0
VERTEX
  5
1973
  8
0
 10
257.0223508291221
 20
169.60733116730421
 30
0.0
  0
VERTEX
  5
1974
  8
0
 10
256.96843764174793
 20
169.65561373291729
 30
0.0
  0
VERTEX
  5
1975
  8
0
 10
256.91389722644942
 20
169.70456027457661
 30
0.0
  0
VERTEX
  5
1976
  8
0
 10
256.8587425477939
 20
169.75415716814859
 30
0.0
  0
VERTEX
  5
1977
  8
0
 10
256.80298676673971
 20
169.8043906099945
 30
0.0
  0
VERTEX
  5
1978
  8
0
 10
256.74664322567469
 20
169.85524663058339
 30
0.0
  0
VERTEX
  5
1979
  8
0
 10
256.71825526059229
 20
169.88090370041721
 30
0.0
  0
VERTEX
  5
197A
  8
0
 10
256.6897254335903
 20
169.90671110810379
 30
0.0
  0
VERTEX
  5
197B
  8
0
 10
256.63224705141471
 20
169.95876978203489
 30
0.0
  0
VERTEX
  5
197C
  8
0
 10
256.57422187752542
 20
170.01140826664459
 30
0.0
  0
VERTEX
  5
197D
  8
0
 10
256.54500858974239
 20
170.0379404114758
 30
0.0
  0
VERTEX
  5
197E
  8
0
 10
256.36702972264408
 20
170.19999881027141
 30
0.0
  0
VERTEX
  5
197F
  8
0
 10
255.99840984720291
 20
170.53758737209489
 30
0.0
  0
VERTEX
  5
1980
  8
0
 10
255.61554137701839
 20
170.89041536424929
 30
0.0
  0
VERTEX
  5
1981
  8
0
 10
255.2217228702994
 20
171.2550946571975
 30
0.0
  0
VERTEX
  5
1982
  8
0
 10
254.82028719318171
 20
171.6282145321382
 30
0.0
  0
VERTEX
  5
1983
  8
0
 10
254.41460619004951
 20
172.0063401500428
 30
0.0
  0
VERTEX
  5
1984
  8
0
 10
254.2112919919806
 20
172.1961503082353
 30
0.0
  0
VERTEX
  5
1985
  8
0
 10
254.0082660475563
 20
172.3858509134771
 30
0.0
  0
VERTEX
  5
1986
  8
0
 10
253.6049021438935
 20
172.7630965361715
 30
0.0
  0
VERTEX
  5
1987
  8
0
 10
253.20821694214499
 20
173.13438409786579
 30
0.0
  0
VERTEX
  5
1988
  8
0
 10
253.01355195331419
 20
173.31663111322521
 30
0.0
  0
SEQEND
  5
1989
  8
0
  0
LINE
  5
1615
  8
0
 10
253.01355195331419
 20
173.31663111322521
 30
0.0
 11
253.01355195331419
 21
177.27663111322511
 31
0.0
  0
POLYLINE
  5
1616
  8
0
 66
     1
 10
0.0
 20
0.0
 30
0.0
  0
VERTEX
  5
198A
  8
0
 10
253.01355195331419
 20
177.27663111322531
 30
0.0
  0
VERTEX
  5
198B
  8
0
 10
253.1408311748342
 20
177.351687679777
 30
0.0
  0
VERTEX
  5
198C
  8
0
 10
253.39793755785149
 20
177.50309127569571
 30
0.0
  0
VERTEX
  5
198D
  8
0
 10
253.65762393213981
 20
177.65535829471469
 30
0.0
  0
VERTEX
  5
198E
  8
0
 10
253.7881306471219
 20
177.7314877344553
 30
0.0
  0
VERTEX
  5
198F
  8
0
 10
253.9189200988383
 20
177.80743710373409
 30
0.0
  0
VERTEX
  5
1990
  8
0
 10
254.1808797739653
 20
177.958258790641
 30
0.0
  0
VERTEX
  5
1991
  8
0
 10
254.44259100497041
 20
178.10674403041759
 30
0.0
  0
VERTEX
  5
1992
  8
0
 10
254.70316605638169
 20
178.25179657230649
 30
0.0
  0
VERTEX
  5
1993
  8
0
 10
254.96173476367929
 20
178.39229765080501
 30
0.0
  0
VERTEX
  5
1994
  8
0
 10
255.21745453709229
 20
178.527108104864
 30
0.0
  0
VERTEX
  5
1995
  8
0
 10
255.34399284739061
 20
178.59201772615651
 30
0.0
  0
VERTEX
  5
1996
  8
0
 10
255.4695063861279
 20
178.65506073200751
 30
0.0
  0
VERTEX
  5
1997
  8
0
 10
255.7170742550725
 20
178.77494294409721
 30
0.0
  0
VERTEX
  5
1998
  8
0
 10
255.95950236262161
 20
178.88555878611911
 30
0.0
  0
VERTEX
  5
1999
  8
0
 10
256.19619573013512
 20
178.98565087161461
 30
0.0
  0
VERTEX
  5
199A
  8
0
 10
256.42659788934998
 20
179.07385677302869
 30
0.0
  0
VERTEX
  5
199B
  8
0
 10
256.55787193674092
 20
179.11922261706181
 30
0.0
  0
VERTEX
  5
199C
  8
0
 10
256.59493559839422
 20
179.131300762096
 30
0.0
  0
VERTEX
  5
199D
  8
0
 10
256.63179874234572
 20
179.1429717453953
 30
0.0
  0
VERTEX
  5
199E
  8
0
 10
256.65015453938349
 20
179.14865198315599
 30
0.0
  0
VERTEX
  5
199F
  8
0
 10
256.66845951472828
 20
179.1542273192793
 30
0.0
  0
VERTEX
  5
19A0
  8
0
 10
256.70491609672081
 20
179.1650589959338
 30
0.0
  0
VERTEX
  5
19A1
  8
0
 10
256.74116669582679
 20
179.175458028348
 30
0.0
  0
VERTEX
  5
19A2
  8
0
 10
256.75921419646238
 20
179.180492493732
 30
0.0
  0
VERTEX
  5
19A3
  8
0
 10
256.77720953612402
 20
179.18541539024741
 30
0.0
  0
VERTEX
  5
19A4
  8
0
 10
256.81304284745693
 20
179.19492175504161
 30
0.0
  0
VERTEX
  5
19A5
  8
0
 10
256.84866485355519
 20
179.20396747381909
 30
0.0
  0
VERTEX
  5
19A6
  8
0
 10
256.86639605721479
 20
179.20831448191021
 30
0.0
  0
VERTEX
  5
19A7
  8
0
 10
256.88407375906218
 20
179.21254255243059
 30
0.0
  0
VERTEX
  5
19A8
  8
0
 10
256.91926773547488
 20
179.22063662771669
 30
0.0
  0
VERTEX
  5
19A9
  8
0
 10
256.9542448943551
 20
179.22823894049051
 30
0.0
  0
VERTEX
  5
19AA
  8
0
 10
256.98900330090902
 20
179.2353383169318
 30
0.0
  0
VERTEX
  5
19AB
  8
0
 10
257.02354110558099
 20
179.241923168852
 30
0.0
  0
VERTEX
  5
19AC
  8
0
 10
257.0578565563498
 20
179.24798146045589
 30
0.0
  0
VERTEX
  5
19AD
  8
0
 10
257.0749303738678
 20
179.25080925221781
 30
0.0
  0
VERTEX
  5
19AE
  8
0
 10
257.09194798093472
 20
179.25350066610241
 30
0.0
  0
VERTEX
  5
19AF
  8
0
 10
257.12581376590811
 20
179.2584677255644
 30
0.0
  0
VERTEX
  5
19B0
  8
0
 10
257.15945233265961
 20
179.26286899693611
 30
0.0
  0
VERTEX
  5
19B1
  8
0
 10
257.19286211017379
 20
179.26669020737779
 30
0.0
  0
VERTEX
  5
19B2
  8
0
 10
257.22604150463309
 20
179.26991640193711
 30
0.0
  0
VERTEX
  5
19B3
  8
0
 10
257.25898886590062
 20
179.27253189073591
 30
0.0
  0
VERTEX
  5
19B4
  8
0
 10
257.27537499408788
 20
179.27360550313711
 30
0.0
  0
VERTEX
  5
19B5
  8
0
 10
257.29170245098339
 20
179.27452019486469
 30
0.0
  0
VERTEX
  5
19B6
  8
0
 10
257.3241803846397
 20
179.2758639913805
 30
0.0
  0
VERTEX
  5
19B7
  8
0
 10
257.3564206173541
 20
179.2765450578562
 30
0.0
  0
VERTEX
  5
19B8
  8
0
 10
257.37245089685479
 20
179.27663111322511
 30
0.0
  0
SEQEND
  5
19B9
  8
0
  0
POLYLINE
  5
1617
  8
0
 66
     1
 10
0.0
 20
0.0
 30
0.0
  0
VERTEX
  5
19BA
  8
0
 10
257.37245089685479
 20
179.27663111322511
 30
0.0
  0
VERTEX
  5
19BB
  8
0
 10
257.4442428721714
 20
179.2848931852219
 30
0.0
  0
VERTEX
  5
19BC
  8
0
 10
257.58373288851112
 20
179.3017000545687
 30
0.0
  0
VERTEX
  5
19BD
  8
0
 10
257.71727840582798
 20
179.3188225315331
 30
0.0
  0
VERTEX
  5
19BE
  8
0
 10
257.76432866199627
 20
179.325149306377
 30
0.0
  0
SEQEND
  5
19BF
  8
0
  0
LINE
  5
1618
  8
0
 10
245.26355195331419
 20
148.8266311132252
 30
0.0
 11
245.26355195331419
 21
177.3257320736121
 31
0.0
  0
LINE
  5
1619
  8
0
 10
258.76355195331411
 20
177.32573207361219
 30
0.0
 11
258.76355195331411
 21
148.8266311132252
 31
0.0
  0
LINE
  5
161B
  8
0
 10
81.513551953313993
 20
143.77663111322511
 30
0.0
 11
81.513551953313993
 21
166.27663111322511
 31
0.0
  0
LINE
  5
161C
  8
0
 10
62.513551953313993
 20
166.27663111322511
 30
0.0
 11
62.513551953313993
 21
143.77663111322511
 31
0.0
  0
LINE
  5
161D
  8
0
 10
63.013551953313879
 20
143.27663111322511
 30
0.0
 11
81.013551953314106
 21
143.27663111322511
 31
0.0
  0
LINE
  5
161E
  8
0
 10
64.513551953314106
 20
168.27663111322519
 30
0.0
 11
79.513551953313865
 21
168.27663111322511
 31
0.0
  0
LINE
  5
161F
  8
0
 10
65.263551953313993
 20
176.72697335517199
 30
0.0
 11
65.263551953313993
 21
168.27663111322531
 31
0.0
  0
LINE
  5
1620
  8
0
 10
78.763551953313993
 20
168.27663111322511
 30
0.0
 11
78.763551953313993
 21
176.72697335517211
 31
0.0
  0
POLYLINE
  5
1621
  8
3
 66
     1
 10
0.0
 20
0.0
 30
0.0
 70
   128
  0
VERTEX
  5
19C0
  8
3
 10
174.2520825250227
 20
235.2766311132244
 30
0.0
  0
VERTEX
  5
19C1
  8
3
 10
174.2520825250227
 20
235.2766311132244
 30
0.0
  0
SEQEND
  5
19C2
  8
3
  0
POLYLINE
  5
1622
  8
3
 66
     1
 10
0.0
 20
0.0
 30
0.0
 70
     1
1001
ACAD
1000
ASC_BOUNDS
1002
{
1070
    19
1005
1674
1002
}
  0
VERTEX
  5
1623
  8
0
 10
176.2520825250229
 20
235.27663111322451
 30
0.0
  0
VERTEX
  5
1624
  8
0
 10
174.2520825250227
 20
235.27663111322451
 30
0.0
  0
VERTEX
  5
1625
  8
0
 10
174.25208252502279
 20
231.2766311132244
 30
0.0
  0
VERTEX
  5
1626
  8
0
 10
174.96636823930851
 20
231.2766311132244
 30
0.0
  0
VERTEX
  5
1627
  8
0
 10
174.96636823930871
 20
232.84805968465349
 30
0.0
  0
VERTEX
  5
1628
  8
0
 10
176.2520825250229
 20
232.84805968465349
 30
0.0
 42
0.0638662016826598
  0
VERTEX
  5
1629
  8
0
 10
177.0224101463981
 20
232.94685847266859
 30
0.0
 42
0.0768515768794634
  0
VERTEX
  5
162A
  8
0
 10
177.61578846016829
 20
233.20371573606971
 30
0.0
 42
0.1071542864067526
 70
     2
 50
32.1957339347097
  0
VERTEX
  5
162B
  8
0
 10
178.05140929821201
 20
233.63072494834
 30
0.0
 42
0.1465066387553817
 50
32.1957339347097
  0
VERTEX
  5
162C
  8
0
 10
178.18065395359429
 20
234.06234539893899
 30
0.0
 42
0.1465066387556817
  0
VERTEX
  5
162D
  8
0
 10
178.05140929821161
 20
234.49396584953811
 30
0.0
 42
0.107154286406845
  0
VERTEX
  5
162E
  8
0
 10
177.61578846016829
 20
234.92097506180821
 30
0.0
 42
0.0768515768794924
 70
     2
 50
147.80426606529031
  0
VERTEX
  5
162F
  8
0
 10
177.0224101463981
 20
235.17783232520929
 30
0.0
 42
0.0638662016826858
 50
147.80426606529031
  0
SEQEND
  5
1630
  8
0
  6
CONTINUOUS
 62
     0
  0
POLYLINE
  5
1631
  8
3
 66
     1
 10
0.0
 20
0.0
 30
0.0
 70
     1
1001
ACAD
1000
ASC_BOUNDS
1002
{
1070
    19
1005
1674
1002
}
  0
VERTEX
  5
1632
  8
0
 10
174.96636823930851
 20
233.34805968465301
 30
0.0
  0
VERTEX
  5
1633
  8
0
 10
176.2520825250229
 20
233.34805968465309
 30
0.0
 42
0.0598207225921702
  0
VERTEX
  5
1634
  8
0
 10
176.7391314097423
 20
233.40654019068961
 30
0.0
 42
0.0733124203438316
  0
VERTEX
  5
1635
  8
0
 10
177.11071218789229
 20
233.55726912666259
 30
0.0
 42
0.1067926625741322
 70
     2
 50
30.46554491946257
  0
VERTEX
  5
1636
  8
0
 10
177.38702510231849
 20
233.8118585628111
 30
0.0
 42
0.1545927959857233
 50
30.46554491946257
  0
VERTEX
  5
1637
  8
0
 10
177.46636823930851
 20
234.06234539893879
 30
0.0
 42
0.1545927959856755
  0
VERTEX
  5
1638
  8
0
 10
177.38702510231849
 20
234.31283223506659
 30
0.0
 42
0.1067926625740517
  0
VERTEX
  5
1639
  8
0
 10
177.11071218789229
 20
234.5674216712149
 30
0.0
 42
0.0733124203438496
 70
     2
 50
149.53445508053741
  0
VERTEX
  5
163A
  8
0
 10
176.7391314097425
 20
234.71815060718791
 30
0.0
 42
0.0598207225922329
 50
149.53445508053741
  0
VERTEX
  5
163B
  8
0
 10
176.2520825250229
 20
234.77663111322451
 30
0.0
  0
VERTEX
  5
163C
  8
0
 10
174.96636823930851
 20
234.7766311132244
 30
0.0
  0
SEQEND
  5
163D
  8
0
  6
CONTINUOUS
 62
     0
  0
POLYLINE
  5
163E
  8
3
 66
     1
 10
0.0
 20
0.0
 30
0.0
 70
   129
1001
ACAD
1000
ASC_BOUNDS
1002
{
1070
    19
1005
1674
1002
}
  0
VERTEX
  5
19C3
  8
3
 10
183.05211671756101
 20
232.96234539894019
 30
0.0
 42
-0.8428571428574707
  0
VERTEX
  5
19C4
  8
3
 10
179.0521167175612
 20
232.96234539893879
 30
0.0
  0
VERTEX
  5
19C5
  8
3
 10
179.05211671756101
 20
235.2766311132246
 30
0.0
  0
VERTEX
  5
19C6
  8
3
 10
179.76640243184701
 20
235.2766311132246
 30
0.0
  0
VERTEX
  5
19C7
  8
3
 10
179.76640243184701
 20
232.96234539893879
 30
0.0
 42
0.9222222222221308
  0
VERTEX
  5
19C8
  8
3
 10
182.33783100327551
 20
232.96234539893879
 30
0.0
  0
VERTEX
  5
19C9
  8
3
 10
182.3378310032752
 20
235.2766311132246
 30
0.0
  0
VERTEX
  5
19CA
  8
3
 10
183.05211671756101
 20
235.2766311132246
 30
0.0
  0
SEQEND
  5
19CB
  8
3
  0
POLYLINE
  5
163F
  8
3
 66
     1
 10
0.0
 20
0.0
 30
0.0
1001
ACAD
1000
ASC_BOUNDS
1002
{
1070
    19
1005
1674
1002
}
  0
VERTEX
  5
1640
  8
0
 10
187.16472393351901
 20
234.11405936354191
 30
0.0
  0
VERTEX
  5
1641
  8
0
 10
187.90041492963491
 20
234.11405936354191
 30
0.0
 42
0.0731441652054269
 50
28.300755766006681
  0
VERTEX
  5
1642
  8
0
 10
187.92432520102321
 20
234.27663111322451
 30
0.0
 42
0.1654118402241002
  0
VERTEX
  5
1643
  8
0
 10
187.80722794293459
 20
234.6209031763747
 30
0.0
 42
0.1056769941633883
  0
VERTEX
  5
1644
  8
0
 10
187.3803806517983
 20
234.98373789441109
 30
0.0
 42
0.068731699995536
 70
     2
 50
151.69924423399331
  0
VERTEX
  5
1645
  8
0
 10
186.81564771493601
 20
235.1941759840177
 30
0.0
 42
0.0549166740501718
 50
151.69924423399331
  0
VERTEX
  5
1646
  8
0
 10
186.06718234388029
 20
235.2766311132246
 30
0.0
 42
0.054916674050175
  0
VERTEX
  5
1647
  8
0
 10
185.31871697282401
 20
235.1941759840177
 30
0.0
 42
0.068731699995473
  0
VERTEX
  5
1648
  8
0
 10
184.7539840359623
 20
234.98373789441109
 30
0.0
 42
0.1056769941631037
 70
     2
 50
208.30075576600669
  0
VERTEX
  5
1649
  8
0
 10
184.3271367448254
 20
234.6209031763747
 30
0.0
 42
0.1654118402234486
 50
208.30075576600669
  0
VERTEX
  5
164A
  8
0
 10
184.21003948673729
 20
234.27663111322451
 30
0.0
 42
0.165411840223518
  0
VERTEX
  5
164B
  8
0
 10
184.32713674482559
 20
233.9323590500739
 30
0.0
 42
0.0573677152738729
  0
VERTEX
  5
164C
  8
0
 10
184.5405786040169
 20
233.7123814748949
 30
0.0
  0
VERTEX
  5
164D
  8
0
 10
186.70624378727311
 20
232.75192891567511
 30
0.0
 42
-0.0324398768999721
  0
VERTEX
  5
164E
  8
0
 10
186.87530437952199
 20
232.68069213104559
 30
0.0
 42
-0.1042029417663218
 70
     2
 50
333.43494882292202
  0
VERTEX
  5
164F
  8
0
 10
187.1402730847675
 20
232.47020656974729
 30
0.0
 42
-0.1747045211885041
  0
VERTEX
  5
1650
  8
0
 10
187.21003948673749
 20
232.27663111322471
 30
0.0
 42
-0.1747045211886798
  0
VERTEX
  5
1651
  8
0
 10
187.14027308476739
 20
232.0830556567019
 30
0.0
 42
-0.1042029417661885
  0
VERTEX
  5
1652
  8
0
 10
186.87530437952199
 20
231.8725700954038
 30
0.0
 42
-0.0649481016502815
 70
     2
 50
206.56505117707789
  0
VERTEX
  5
1653
  8
0
 10
186.52938896689591
 20
231.75256307552559
 30
0.0
 42
-0.0510992989620986
  0
VERTEX
  5
1654
  8
0
 10
186.06718234388029
 20
231.70520254179601
 30
0.0
 42
-0.0510992989620986
  0
VERTEX
  5
1655
  8
0
 10
185.60497572086459
 20
231.75256307552559
 30
0.0
 42
-0.0649481016502818
  0
VERTEX
  5
1656
  8
0
 10
185.25906030823839
 20
231.8725700954038
 30
0.0
 42
-0.1042029417662831
 70
     2
 50
153.434948822922
  0
VERTEX
  5
1657
  8
0
 10
184.99409160299319
 20
232.0830556567019
 30
0.0
 42
-0.1747045211887488
  0
VERTEX
  5
1658
  8
0
 10
184.92432520102301
 20
232.27663111322471
 30
0.0
 42
-0.1423055512875743
  0
VERTEX
  5
1659
  8
0
 10
184.97155129544291
 20
232.439202862907
 30
0.0
  0
VERTEX
  5
165A
  8
0
 10
184.23394975817081
 20
232.439202862907
 30
0.0
 42
0.0731441652080551
  0
VERTEX
  5
165B
  8
0
 10
184.21003948673729
 20
232.27663111322471
 30
0.0
 42
0.1654118402234486
  0
VERTEX
  5
165C
  8
0
 10
184.3271367448254
 20
231.93235905007441
 30
0.0
 42
0.1056769941631037
  0
VERTEX
  5
165D
  8
0
 10
184.7539840359623
 20
231.5695243320381
 30
0.0
 42
0.068731699995473
 70
     2
 50
151.69924423399331
  0
VERTEX
  5
165E
  8
0
 10
185.31871697282401
 20
231.35908624243149
 30
0.0
 42
0.054916674050175
  0
VERTEX
  5
165F
  8
0
 10
186.06718234388029
 20
231.2766311132246
 30
0.0
 42
0.0549166740501718
  0
VERTEX
  5
1660
  8
0
 10
186.81564771493601
 20
231.35908624243149
 30
0.0
 42
0.068731699995536
  0
VERTEX
  5
1661
  8
0
 10
187.3803806517983
 20
231.5695243320381
 30
0.0
 42
0.1056769941633883
 70
     2
 50
208.30075576600669
  0
VERTEX
  5
1662
  8
0
 10
187.80722794293459
 20
231.93235905007441
 30
0.0
 42
0.1654118402241002
  0
VERTEX
  5
1663
  8
0
 10
187.92432520102321
 20
232.27663111322471
 30
0.0
 42
0.165411840223883
  0
VERTEX
  5
1664
  8
0
 10
187.80722794293479
 20
232.6209031763749
 30
0.0
 42
0.0573677152753158
  0
VERTEX
  5
1665
  8
0
 10
187.59378608373359
 20
232.84088075155401
 30
0.0
  0
VERTEX
  5
1666
  8
0
 10
185.2590603082412
 20
233.87257009540349
 30
0.0
 42
-0.1042029417670304
 70
     2
 50
333.43494882292202
  0
VERTEX
  5
1667
  8
0
 10
184.99409160299331
 20
234.08305565670159
 30
0.0
 42
-0.1747045211890624
  0
VERTEX
  5
1668
  8
0
 10
184.92432520102301
 20
234.27663111322451
 30
0.0
 42
-0.1747045211887488
  0
VERTEX
  5
1669
  8
0
 10
184.99409160299319
 20
234.47020656974721
 30
0.0
 42
-0.1042029417662831
 50
206.565051177078
  0
VERTEX
  5
166A
  8
0
 10
185.25906030823839
 20
234.68069213104539
 30
0.0
 42
-0.0649481016502818
 70
     2
 50
206.565051177078
  0
VERTEX
  5
166B
  8
0
 10
185.60497572086459
 20
234.80069915092349
 30
0.0
 42
-0.0510992989620986
  0
VERTEX
  5
166C
  8
0
 10
186.06718234388029
 20
234.84805968465309
 30
0.0
 42
-0.0510992989620986
  0
VERTEX
  5
166D
  8
0
 10
186.52938896689591
 20
234.80069915092349
 30
0.0
 42
-0.0649481016502815
 50
153.434948822922
  0
VERTEX
  5
166E
  8
0
 10
186.87530437952199
 20
234.68069213104539
 30
0.0
 42
-0.1042029417661885
 70
     2
 50
153.434948822922
  0
VERTEX
  5
166F
  8
0
 10
187.14027308476739
 20
234.47020656974729
 30
0.0
 42
-0.1747045211886798
  0
VERTEX
  5
1670
  8
0
 10
187.21003948673749
 20
234.27663111322451
 30
0.0
 42
-0.1424086766312409
  0
VERTEX
  5
1671
  8
0
 10
187.1627476423437
 20
234.11395579051009
 30
0.0
 50
26.565051177078029
  0
SEQEND
  5
1672
  8
0
  6
CONTINUOUS
 62
     0
  0
POLYLINE
  5
1673
  8
3
 66
     1
 10
0.0
 20
0.0
 30
0.0
 70
   129
1001
ACAD
1000
ASC_BOUNDS
1002
{
1070
    19
1005
1674
1002
}
  0
VERTEX
  5
19CC
  8
3
 10
189.72783766760031
 20
235.2766311132246
 30
0.0
  0
VERTEX
  5
19CD
  8
3
 10
189.7278376676
 20
233.63377397036729
 30
0.0
  0
VERTEX
  5
19CE
  8
3
 10
192.2992662390285
 20
233.63377397036729
 30
0.0
  0
VERTEX
  5
19CF
  8
3
 10
192.2992662390287
 20
235.2766311132246
 30
0.0
  0
VERTEX
  5
19D0
  8
3
 10
193.01355195331431
 20
235.2766311132246
 30
0.0
  0
VERTEX
  5
19D1
  8
3
 10
193.01355195331399
 20
231.27663111322451
 30
0.0
  0
VERTEX
  5
19D2
  8
3
 10
192.29926623902821
 20
231.27663111322451
 30
0.0
  0
VERTEX
  5
19D3
  8
3
 10
192.2992662390285
 20
233.1337739703674
 30
0.0
  0
VERTEX
  5
19D4
  8
3
 10
189.7278376675998
 20
233.1337739703674
 30
0.0
  0
VERTEX
  5
19D5
  8
3
 10
189.7278376675998
 20
231.27663111322451
 30
0.0
  0
VERTEX
  5
19D6
  8
3
 10
189.01355195331419
 20
231.27663111322451
 30
0.0
  0
VERTEX
  5
19D7
  8
3
 10
189.01355195331419
 20
235.2766311132246
 30
0.0
  0
SEQEND
  5
19D8
  8
3
  0
INSERT
  5
1674
  8
3
  6
CONTINUOUS
  2
*X0
 10
0.0
 20
0.0
 30
0.0
1001
ACAD
1000
HATCH
1002
{
1070
    19
1000
DOTS
1040
2.8571428571428572
1040
0.0
1000
ASC_BOUNDS
1070
     5
1070
     2
1070
     1
1005
163F
1070
     2
1070
     1
1005
1622
1070
     2
1070
     1
1005
1631
1070
     2
1070
     1
1005
163E
1070
     2
1070
     1
1005
1673
1000
ASC_SEEDPOINT
1011
-691.93441340510253
1021
0.0
1031
0.0
1021
-42.232029853305789
1031
0.0
1000
R14_HATCH_DATA
1000
1674
1011
1.0
1021
0.0
1031
0.0
1021
0.0
1031
0.0
1011
0.0
1021
0.0
1031
0.0
1021
1.0
1031
0.0
1011
0.0
1021
0.0
1031
0.0
1021
0.0
1031
1.0
1040
0.0
1010
0.0
1020
0.0
1030
1.0
1000
DOTS
1070
     0
1070
     1
1071
        5
1071
        1
1071
       12
1070
     1
1040
189.72783766760031
1040
235.2766311132246
1040
189.7278376676
1040
233.63377397036729
1070
     1
1040
189.7278376676
1040
233.63377397036729
1040
192.2992662390285
1040
233.63377397036729
1070
     1
1040
192.2992662390285
1040
233.63377397036729
1040
192.2992662390287
1040
235.2766311132246
1070
     1
1040
192.2992662390287
1040
235.2766311132246
1040
193.01355195331431
1040
235.2766311132246
1070
     1
1040
193.01355195331431
1040
235.2766311132246
1040
193.01355195331399
1040
231.27663111322451
1070
     1
1040
193.01355195331399
1040
231.27663111322451
1040
192.29926623902821
1040
231.27663111322451
1070
     1
1040
192.29926623902821
1040
231.27663111322451
1040
192.2992662390285
1040
233.1337739703674
1070
     1
1040
192.2992662390285
1040
233.1337739703674
1040
189.7278376675998
1040
233.1337739703674
1070
     1
1040
189.7278376675998
1040
233.1337739703674
1040
189.7278376675998
1040
231.27663111322451
1070
     1
1040
189.7278376675998
1040
231.27663111322451
1040
189.01355195331419
1040
231.27663111322451
1070
     1
1040
189.01355195331419
1040
231.27663111322451
1040
189.01355195331419
1040
235.2766311132246
1070
     1
1040
189.01355195331419
1040
235.2766311132246
1040
189.72783766760031
1040
235.2766311132246
1071
        1
1005
1673
1071
        1
1071
        8
1070
     2
1040
181.05211671756101
1040
233.3059289340477
1040
2.0292978208229902
1040
0.1701310799365601
1040
2.9714615736525509
1070
     0
1070
     1
1040
179.0521167175612
1040
232.96234539893879
1040
179.05211671756101
1040
235.2766311132246
1070
     1
1040
179.05211671756101
1040
235.2766311132246
1040
179.76640243184701
1040
235.2766311132246
1070
     1
1040
179.76640243184701
1040
235.2766311132246
1040
179.76640243184701
1040
232.96234539893879
1070
     2
1040
181.05211671756129
1040
233.06656226640879
1040
1.289931153184112
1040
3.2224733888050521
1040
6.2023045719643699
1070
     1
1070
     1
1040
182.33783100327551
1040
232.96234539893879
1040
182.3378310032752
1040
235.2766311132246
1070
     1
1040
182.3378310032752
1040
235.2766311132246
1040
183.05211671756101
1040
235.2766311132246
1070
     1
1040
183.05211671756101
1040
235.2766311132246
1040
183.05211671756101
1040
232.96234539894019
1071
        1
1005
163E
1071
       16
1071
       11
1070
     1
1040
174.96636823930851
1040
233.34805968465301
1040
176.2520825250229
1040
233.34805968465309
1070
     2
1040
176.25208252502279
1040
235.40546822983819
1040
2.057408545185154
1040
4.7123889803847581
1040
4.9513870559216038
1070
     1
1070
     2
1040
176.4136891495499
1040
234.74220829184509
1040
1.3747443184692529
1040
4.9513870559213577
1040
5.2441130476433537
1070
     1
1070
     2
1040
176.6596757153915
1040
234.32403112991369
1040
0.8895829748570459
1040
5.2441130476436628
1040
5.6696708065084662
1070
     1
1070
     2
1040
177.03130232762581
1040
234.0623453989387
1040
0.4350659116826454
1040
5.6696708065097061
1040
6.2831853071797816
1070
     1
1070
     2
1040
177.0313023276255
1040
234.0623453989389
1040
0.4350659116829548
1040
6.2831853071793251
1040
6.8966998078492132
1070
     1
1070
     2
1040
176.6596757153913
1040
233.8006596679634
1040
0.8895829748574992
1040
0.6135145006715062
1040
1.039072259536
1070
     1
1070
     2
1040
176.41368914955029
1040
233.38248250603351
1040
1.3747443184681181
1040
1.0390722595361279
1040
1.331798251258197
1070
     1
1070
     2
1040
176.2520825250229
1040
232.71922256804049
1040
2.057408545183991
1040
1.3317982512577871
1040
1.5707963267948819
1070
     1
1070
     1
1040
176.2520825250229
1040
234.77663111322451
1040
174.96636823930851
1040
234.7766311132244
1070
     1
1040
174.96636823930851
1040
234.7766311132244
1040
174.96636823930851
1040
233.34805968465301
1071
        1
1005
1631
1071
        1
1071
       13
1070
     1
1040
176.2520825250229
1040
235.27663111322451
1040
174.2520825250227
1040
235.27663111322451
1070
     1
1040
174.2520825250227
1040
235.27663111322451
1040
174.25208252502279
1040
231.2766311132244
1070
     1
1040
174.25208252502279
1040
231.2766311132244
1040
174.96636823930851
1040
231.2766311132244
1070
     1
1040
174.96636823930851
1040
231.2766311132244
1040
174.96636823930871
1040
232.84805968465349
1070
     1
1040
174.96636823930871
1040
232.84805968465349
1040
176.2520825250229
1040
232.84805968465349
1070
     2
1040
176.2520825250229
1040
235.90055585836569
1040
3.0524961737121989
1040
4.7123889803847083
1040
4.9675072969370104
1070
     1
1070
     2
1040
176.4884715125996
1040
234.99416029985579
1040
2.1157824170425772
1040
4.9675072969368737
1040
5.274310542641417
1070
     1
1070
     2
1040
176.84878929036839
1040
234.421890888105
1040
1.4395271541411909
1040
5.274310542641488
1040
5.7012984313820168
1070
     1
1070
     2
1040
177.39532014725731
1040
234.06234539893899
1040
0.7853338063369476
1040
5.7012984313818409
1040
6.2831853071795489
1070
     1
1070
     2
1040
177.3953201472585
1040
234.0623453989389
1040
0.7853338063357854
1040
0.0000000000001086
1040
0.5818868757989805
1070
     1
1070
     2
1040
176.8487892903695
1040
233.70279990977471
1040
1.4395271541391279
1040
0.5818868757971875
1040
1.00887476453808
1070
     1
1070
     2
1040
176.48847151259989
1040
233.13053049802289
1040
2.1157824170417712
1040
1.008874764538118
1040
1.315678010242779
1070
     1
1070
     2
1040
176.25208252502279
1040
232.2241349395135
1040
3.0524961737110021
1040
1.3156780102424539
1040
1.570796326794859
1070
     1
1071
        1
1005
1622
1071
       33
1071
       49
1070
     1
1040
187.16472393351901
1040
234.11405936354191
1040
187.90041492963491
1040
234.11405936354191
1070
     2
1040
187.35968763616361
1040
234.27663111307319
1040
0.5646375648595108
1040
5.9911287465332537
1040
6.2831853074474751
1070
     1
1070
     2
1040
187.3596876361643
1040
234.2766311132246
1040
0.5646375648588276
1040
6.283185307179334
1040
6.9388953764549788
1070
     1
1070
     2
1040
186.74503224899291
1040
233.8038051463441
1040
1.340115249860371
1040
0.6557100692738996
1040
1.0768549578752851
1070
     1
1070
     2
1040
186.33619696408641
1040
233.04453961723149
1040
2.2024553416358059
1040
1.0768549578754181
1040
1.35135005848251
1070
     1
1070
     2
1040
186.06718234388009
1040
231.8384019487313
1040
3.4382291644932921
1040
1.35135005848222
1040
1.570796326794855
1070
     1
1070
     2
1040
186.06718234388009
1040
231.8384019487294
1040
3.4382291644951399
1040
1.570796326794863
1040
1.790242595107512
1070
     1
1070
     2
1040
185.7981677236746
1040
233.04453961723121
1040
2.2024553416362238
1040
1.790242595107663
1040
2.0647376957145069
1070
     1
1070
     2
1040
185.38933243876971
1040
233.80380514634021
1040
1.34011524986474
1040
2.0647376957145318
1040
2.4858825843147869
1070
     1
1070
     2
1040
184.77467705159799
1040
234.2766311132244
1040
0.5646375648607626
1040
2.4858825843165349
1040
3.1415926535896421
1070
     1
1070
     2
1040
184.77467705159839
1040
234.27663111322451
1040
0.5646375648611013
1040
3.1415926535897931
1040
3.7973027228631642
1070
     1
1070
     2
1040
185.38933243878699
1040
234.7494570800871
1040
1.3401152498653419
1040
3.797302722844409
1040
4.0265223461331434
1070
     1
1070
     1
1040
184.5405786040169
1040
233.7123814748949
1040
186.70624378727311
1040
232.75192891567511
1070
     2
1040
186.2423609441376
1040
231.4148052602776
1040
1.4153045474310439
1040
5.046322570350382
1040
5.1760365893857641
1070
     0
1070
     2
1040
186.50828254672331
1040
231.94664846544811
1040
0.8206857673645476
1040
5.1760365893854949
1040
5.5913494935359509
1070
     0
1070
     2
1040
186.90660683852681
1040
232.27663111322471
1040
0.3034326482107266
1040
5.5913494935383774
1040
6.2831853071795862
1070
     0
1070
     2
1040
186.9066068385267
1040
232.2766311132246
1040
0.3034326482107588
1040
6.2831853071794921
1040
6.9750211208213351
1070
     0
1070
     2
1040
186.50828254672311
1040
232.60661376100171
1040
0.8206857673650304
1040
0.6918358136442305
1040
1.1071487177941519
1070
     0
1070
     2
1040
186.24236094413791
1040
233.13845696617179
1040
1.415304547430891
1040
1.107148717794036
1040
1.366576755866695
1070
     0
1070
     2
1040
186.06718234388009
1040
233.98429407133071
1040
2.2790915295346128
1040
1.3665767558666451
1040
1.5707963267948459
1070
     0
1070
     2
1040
186.0671823438804
1040
233.98429407133071
1040
2.279091529534611
1040
1.5707963267949461
1040
1.7750158977231469
1070
     0
1070
     2
1040
185.8920037436225
1040
233.13845696617221
1040
1.4153045474313251
1040
1.7750158977229931
1040
2.0344439357956481
1070
     0
1070
     2
1040
185.62608214103699
1040
232.60661376100089
1040
0.8206857673641662
1040
2.0344439357957791
1040
2.4497568399460801
1070
     0
1070
     2
1040
185.2277578492336
1040
232.2766311132246
1040
0.3034326482105621
1040
2.4497568399477689
1040
3.1415926535898859
1070
     0
1070
     2
1040
185.22775784923331
1040
232.27663111322471
1040
0.3034326482102756
1040
3.1415926535896048
1040
3.7070184662771091
1070
     0
1070
     1
1040
184.97155129544291
1040
232.439202862907
1040
184.23394975817081
1040
232.439202862907
1070
     2
1040
184.77467705159839
1040
232.27663111322451
1040
0.5646375648611596
1040
2.849536092664867
1040
3.1415926535895409
1070
     1
1070
     2
1040
184.77467705159799
1040
232.27663111322479
1040
0.5646375648607603
1040
3.1415926535899441
1040
3.79730272286305
1070
     1
1070
     2
1040
185.3893324387696
1040
232.7494570801089
1040
1.340115249864642
1040
3.7973027228648788
1040
4.2184476114651366
1070
     1
1070
     2
1040
185.7981677236746
1040
233.50872260921801
1040
2.202455341636222
1040
4.218447611465078
1040
4.4929427120719216
1070
     1
1070
     2
1040
186.0671823438804
1040
234.71486027771979
1040
3.438229164495167
1040
4.492942712071998
1040
4.7123889803846479
1070
     1
1070
     2
1040
186.06718234388009
1040
234.71486027771789
1040
3.438229164493293
1040
4.7123889803847296
1040
4.9318352486973662
1070
     1
1070
     2
1040
186.33619696408621
1040
233.5087226092177
1040
2.2024553416358761
1040
4.9318352486971611
1040
5.2063303493042534
1070
     1
1070
     2
1040
186.74503224899311
1040
232.74945708010509
1040
1.340115249860272
1040
5.206330349304217
1040
5.6274752379056041
1070
     1
1070
     2
1040
187.3596876361643
1040
232.27663111322451
1040
0.5646375648588216
1040
5.6274752379041919
1040
6.2831853071798367
1070
     1
1070
     2
1040
187.35968763616361
1040
232.27663111322479
1040
0.5646375648595381
1040
6.2831853071794352
1040
6.9388953764542487
1070
     1
1070
     2
1040
186.7450322489924
1040
231.8038051463428
1040
1.340115249861807
1040
0.6557100692744931
1040
0.8849296925689792
1070
     1
1070
     1
1040
187.59378608373359
1040
232.84088075155401
1040
185.2590603082412
1040
233.87257009540349
1070
     2
1040
185.6260821410348
1040
234.60661376100251
1040
0.8206857673635688
1040
2.0344439357892901
1040
2.4497568399425571
1070
     0
1070
     2
1040
185.22775784923331
1040
234.2766311132244
1040
0.3034326482102519
1040
2.4497568399468008
1040
3.141592653590167
1070
     0
1070
     2
1040
185.2277578492336
1040
234.27663111322451
1040
0.3034326482105598
1040
3.141592653589699
1040
3.833428467231816
1070
     0
1070
     2
1040
185.62608214103699
1040
233.94664846544831
1040
0.8206857673641621
1040
3.8334284672335048
1040
4.2487413713838063
1070
     0
1070
     2
1040
185.8920037436225
1040
233.41480526027689
1040
1.4153045474313239
1040
4.2487413713839368
1040
4.5081694094565918
1070
     0
1070
     2
1040
186.0671823438804
1040
232.56896815511851
1040
2.2790915295346128
1040
4.5081694094564391
1040
4.712388980384639
1070
     0
1070
     2
1040
186.06718234388009
1040
232.56896815511851
1040
2.279091529534611
1040
4.7123889803847394
1040
4.9166085513129403
1070
     0
1070
     2
1040
186.24236094413791
1040
233.4148052602774
1040
1.415304547430891
1040
4.9166085513128897
1040
5.17603658938555
1070
     0
1070
     2
1040
186.50828254672331
1040
233.94664846544751
1040
0.8206857673649416
1040
5.1760365893852942
1040
5.591349493535219
1070
     0
1070
     2
1040
186.9066068385267
1040
234.27663111322451
1040
0.3034326482108134
1040
5.5913494935378836
1040
6.2831853071797727
1070
     0
1070
     2
1040
186.90660683852681
1040
234.27663111322451
1040
0.3034326482106735
1040
6.2831853071795862
1040
6.8490154277212669
1070
     0
1071
        1
1005
163F
1070
     0
1070
     1
1040
0.0
1040
2.8571428571428572
1070
     0
1070
     1
1040
0.0
1040
-691.93441340510253
1040
-42.232029853305789
1040
0.0892857142857143
1040
0.1785714285714286
1070
     2
1040
0.0
1040
-0.1785714285714286
1071
        1
1040
-691.93441340510253
1040
-42.232029853305789
1040
0.0
1002
}
  0
CIRCLE
  5
1675
  8
0
 10
163.01355195331411
 20
233.27663111322519
 30
0.0
 40
1.0
  0
CIRCLE
  5
1676
  8
0
 10
166.01355195331419
 20
233.27663111322519
 30
0.0
 40
1.0
  0
CIRCLE
  5
1677
  8
0
 10
160.01355195331411
 20
233.27663111322519
 30
0.0
 40
1.0
  0
CIRCLE
  5
1678
  8
0
 10
157.01355195331411
 20
233.27663111322519
 30
0.0
 40
1.0
  0
CIRCLE
  5
1679
  8
0
 10
154.01355195331411
 20
233.27663111322519
 30
0.0
 40
1.0
  0
ARC
  5
167A
  8
3
 10
129.7436762579942
 20
233.27663111322519
 30
0.0
 40
20.0
 50
342.98028237212071
 51
17.019717627879281
  0
LINE
  5
167B
  8
0
 10
142.01355195331411
 20
235.0086819193838
 30
0.0
 11
143.51355195331411
 21
234.14265651559961
 31
0.0
  0
LINE
  5
167C
  8
0
 10
140.5135519545351
 20
234.1426565163051
 30
0.0
 11
142.0135519545351
 21
235.0086819200898
 31
0.0
  0
LINE
  5
167D
  8
0
 10
140.5135519545351
 20
232.41060571014631
 30
0.0
 11
140.5135519545351
 21
234.1426565177151
 31
0.0
  0
LINE
  5
167E
  8
0
 10
142.01355195331411
 20
231.54458030706681
 30
0.0
 11
140.51355195331411
 21
232.41060571085089
 31
0.0
  0
LINE
  5
167F
  8
0
 10
143.5135519520918
 20
232.4106057101454
 30
0.0
 11
142.0135519520932
 21
231.54458030636081
 31
0.0
  0
LINE
  5
1680
  8
0
 10
143.51355195209311
 20
234.14265651630529
 30
0.0
 11
143.51355195209311
 21
232.41060570873651
 31
0.0
  0
CIRCLE
  5
1681
  8
0
 10
142.01355195331411
 20
233.27663111322519
 30
0.0
 40
4.0
  0
ARC
  5
1682
  8
3
 10
153.29129552195411
 20
211.52663111322519
 30
0.0
 40
16.5
 50
90.0
 51
117.40750441603539
  0
ARC
  5
1683
  8
3
 10
153.29129552195411
 20
255.02663111322519
 30
0.0
 40
16.5
 50
242.59249558396459
 51
270.0
  0
ARC
  5
1684
  8
3
 10
142.01355195331411
 20
233.27663111322519
 30
0.0
 40
8.0
 50
62.592495583964578
 51
297.40750441603541
  0
ARC
  5
1685
  8
3
 10
198.26355195331431
 20
233.27663111322519
 30
0.0
 40
5.25
 50
270.0
 51
90.0
  0
LINE
  5
1686
  8
3
 10
153.29129552195411
 20
238.52663111322519
 30
0.0
 11
198.26355195331431
 21
238.52663111322519
 31
0.0
  0
LINE
  5
1687
  8
3
 10
153.29129552195411
 20
228.02663111322519
 30
0.0
 11
198.26355195331431
 21
228.02663111322519
 31
0.0
  0
ARC
  5
1688
  8
0
 10
153.29129552195411
 20
211.52663111322519
 30
0.0
 40
15.0
 50
90.0
 51
117.40750441603539
  0
ARC
  5
1689
  8
0
 10
153.29129552195411
 20
255.02663111322519
 30
0.0
 40
15.0
 50
242.59249558396459
 51
270.0
  0
ARC
  5
168A
  8
0
 10
198.26355195331431
 20
233.27663111322519
 30
0.0
 40
6.75
 50
270.0
 51
90.0
  0
LINE
  5
168B
  8
0
 10
153.29129552195411
 20
226.52663111322519
 30
0.0
 11
198.26355195331431
 21
226.52663111322519
 31
0.0
  0
LINE
  5
168C
  8
0
 10
153.29129552195411
 20
240.02663111322519
 30
0.0
 11
198.26355195331431
 21
240.02663111322519
 31
0.0
  0
ARC
  5
168F
  8
0
 10
142.01355195331411
 20
233.27663111322519
 30
0.0
 40
9.5
 50
62.592495583964578
 51
297.40750441603541
  0
LINE
  5
1690
  8
0
 10
145.21355195331441
 20
168.77663111322511
 30
0.0
 11
138.81355195331429
 21
168.77663111322511
 31
0.0
  0
ARC
  5
1691
  8
0
 10
138.81355195331429
 20
167.9766311132251
 30
0.0
 40
0.8
 50
90.0
 51
157.97568716295061
  0
ARC
  5
1692
  8
0
 10
134.51355195331439
 20
166.27663111322519
 30
0.0
 40
2.0
 50
90.0
 51
180.0
  0
ARC
  5
1693
  8
0
 10
145.21355195331421
 20
167.9766311132251
 30
0.0
 40
0.8
 50
22.02431283704933
 51
90.0
  0
ARC
  5
1694
  8
0
 10
151.01355195331439
 20
143.77663111322519
 30
0.0
 40
0.5
 50
270.0
 51
0.0
  0
ARC
  5
1695
  8
0
 10
133.01355195331411
 20
143.77663111322519
 30
0.0
 40
0.5
 50
180.0
 51
270.0
  0
LINE
  5
1696
  8
3
 10
137.42168342824641
 20
131.47663111322521
 30
0.0
 11
137.42168342824641
 21
137.27663111322531
 31
0.0
  0
LINE
  5
1697
  8
3
 10
135.97505288731691
 20
131.47663111322521
 30
0.0
 11
135.97505288731691
 21
137.27663111322531
 31
0.0
  0
LINE
  5
1698
  8
3
 10
135.11951270766431
 20
131.47663111322521
 30
0.0
 11
135.11951270766431
 21
137.27663111322531
 31
0.0
  0
LINE
  5
1699
  8
3
 10
146.605420478382
 20
131.47663111322521
 30
0.0
 11
146.605420478382
 21
137.27663111322519
 31
0.0
  0
LINE
  5
169A
  8
3
 10
148.05205101931139
 20
131.47663111322521
 30
0.0
 11
148.05205101931139
 21
137.27663111322519
 31
0.0
  0
LINE
  5
169B
  8
3
 10
148.9075911989641
 20
131.47663111322521
 30
0.0
 11
148.9075911989641
 21
137.27663111322519
 31
0.0
  0
LINE
  5
169C
  8
3
 10
134.73882416621899
 20
131.6563589003205
 30
0.0
 11
134.7388241662189
 21
137.27663111322531
 31
0.0
  0
LINE
  5
169D
  8
3
 10
149.28827974040939
 20
131.65635890032041
 30
0.0
 11
149.28827974040951
 21
137.27663111322519
 31
0.0
  0
LINE
  5
169E
  8
3
 10
139.3156337551404
 20
131.4766311132251
 30
0.0
 11
139.3156337551404
 21
137.27663111322519
 31
0.0
  0
LINE
  5
169F
  8
3
 10
144.7114701514881
 20
131.47663111322521
 30
0.0
 11
144.7114701514881
 21
137.27663111322519
 31
0.0
  0
ARC
  5
16A0
  8
0
 10
72.013551953313993
 20
151.97663111322521
 30
0.0
 40
20.0
 50
70.275366441299695
 51
109.7246335587036
  0
LINE
  5
16A1
  8
0
 10
79.513551953313993
 20
131.88163111322521
 30
0.0
 11
79.513551953313993
 21
143.27663111322519
 31
0.0
  0
LINE
  5
16A2
  8
0
 10
64.513551953313993
 20
143.27663111322519
 30
0.0
 11
64.513551953313993
 21
131.88163111322521
 31
0.0
  0
LINE
  5
16A3
  8
0
 10
78.013551953313993
 20
131.27663111322519
 30
0.0
 11
78.013551953313993
 21
131.47663111322521
 31
0.0
  0
LINE
  5
16A4
  8
0
 10
66.013551953313993
 20
131.47663111322521
 30
0.0
 11
66.013551953313993
 21
131.27663111322519
 31
0.0
  0
LINE
  5
16A5
  8
0
 10
79.108551953313906
 20
131.47663111322521
 30
0.0
 11
79.513551953313993
 21
131.88163111322521
 31
0.0
  0
LINE
  5
16A6
  8
0
 10
64.513551953313993
 20
131.88163111322521
 30
0.0
 11
64.918551953313965
 21
131.47663111322521
 31
0.0
  0
LINE
  5
16A7
  8
0
 10
66.013551953313993
 20
131.27663111322519
 30
0.0
 11
78.013551953313993
 21
131.27663111322519
 31
0.0
  0
LINE
  5
16A8
  8
0
 10
64.513551953313865
 20
137.27663111322511
 30
0.0
 11
79.513551953313993
 21
137.27663111322519
 31
0.0
  0
LINE
  5
16A9
  8
3
 10
65.500201249109352
 20
131.4766311132251
 30
0.0
 11
65.500201249109352
 21
137.27663111322519
 31
0.0
  0
LINE
  5
16AA
  8
3
 10
66.652689895833703
 20
131.4766311132251
 30
0.0
 11
66.652689895833703
 21
137.27663111322519
 31
0.0
  0
LINE
  5
16AB
  8
3
 10
68.329937072066457
 20
131.4766311132251
 30
0.0
 11
68.329937072066457
 21
137.27663111322519
 31
0.0
  0
LINE
  5
16AC
  8
3
 10
70.367762138129763
 20
131.47663111322521
 30
0.0
 11
70.367762138129763
 21
137.27663111322519
 31
0.0
  0
LINE
  5
16AD
  8
3
 10
71.460415328432589
 20
131.47663111322521
 30
0.0
 11
71.460415328432589
 21
137.27663111322519
 31
0.0
  0
LINE
  5
16AE
  8
3
 10
72.566688578195283
 20
131.47663111322521
 30
0.0
 11
72.566688578195283
 21
137.27663111322519
 31
0.0
  0
LINE
  5
16AF
  8
3
 10
73.659341768498109
 20
131.47663111322521
 30
0.0
 11
73.659341768498109
 21
137.27663111322519
 31
0.0
  0
LINE
  5
16B0
  8
0
 10
79.108551953313906
 20
131.47663111322521
 30
0.0
 11
64.918551953313965
 21
131.47663111322521
 31
0.0
  0
LINE
  5
16B1
  8
3
 10
75.697166834561415
 20
131.47663111322521
 30
0.0
 11
75.697166834561415
 21
137.27663111322519
 31
0.0
  0
LINE
  5
16B2
  8
3
 10
77.374414010794055
 20
131.47663111322521
 30
0.0
 11
77.374414010794055
 21
137.27663111322519
 31
0.0
  0
LINE
  5
16B3
  8
3
 10
78.526902657518406
 20
131.47663111322521
 30
0.0
 11
78.526902657518406
 21
137.27663111322519
 31
0.0
  0
LINE
  5
16B4
  8
3
 10
67.421683428246126
 20
131.47663111322521
 30
0.0
 11
67.421683428246126
 21
137.27663111322531
 31
0.0
  0
LINE
  5
16B5
  8
3
 10
65.975052887316735
 20
131.47663111322521
 30
0.0
 11
65.975052887316735
 21
137.27663111322531
 31
0.0
  0
LINE
  5
16B6
  8
3
 10
65.119512707664001
 20
131.47663111322521
 30
0.0
 11
65.119512707664001
 21
137.27663111322531
 31
0.0
  0
LINE
  5
16B7
  8
3
 10
76.605420478381745
 20
131.47663111322521
 30
0.0
 11
76.605420478381745
 21
137.27663111322519
 31
0.0
  0
LINE
  5
16B8
  8
3
 10
78.052051019311136
 20
131.47663111322521
 30
0.0
 11
78.052051019311136
 21
137.27663111322519
 31
0.0
  0
LINE
  5
16B9
  8
3
 10
78.907591198963758
 20
131.47663111322521
 30
0.0
 11
78.907591198963758
 21
137.27663111322519
 31
0.0
  0
LINE
  5
16BA
  8
3
 10
64.738824166218649
 20
131.6563589003205
 30
0.0
 11
64.738824166218649
 21
137.27663111322531
 31
0.0
  0
LINE
  5
16BB
  8
3
 10
79.288279740409109
 20
131.65635890032041
 30
0.0
 11
79.288279740409109
 21
137.27663111322519
 31
0.0
  0
LINE
  5
16BC
  8
3
 10
69.315633755140027
 20
131.4766311132251
 30
0.0
 11
69.315633755140027
 21
137.27663111322519
 31
0.0
  0
LINE
  5
16BD
  8
3
 10
74.711470151487958
 20
131.47663111322521
 30
0.0
 11
74.711470151487958
 21
137.27663111322519
 31
0.0
  0
LINE
  5
16BE
  8
0
 10
75.213551953314152
 20
168.77663111322511
 30
0.0
 11
68.813551953314061
 21
168.77663111322511
 31
0.0
  0
ARC
  5
16BF
  8
0
 10
68.813551953314061
 20
167.9766311132251
 30
0.0
 40
0.8
 50
90.0
 51
157.97568716295061
  0
ARC
  5
16C0
  8
0
 10
75.213551953313925
 20
167.9766311132251
 30
0.0
 40
0.8
 50
22.02431283704933
 51
90.0
  0
ARC
  5
16C1
  8
0
 10
76.263551953313765
 20
176.72697335517211
 30
0.0
 40
2.5
 50
0.0000000000016284
 51
75.944767179774232
  0
ARC
  5
16C2
  8
0
 10
67.763551953313652
 20
176.72697335517199
 30
0.0
 40
2.5
 50
104.0552328202257
 51
180.00000000000321
  0
ARC
  5
16C3
  8
0
 10
72.013551953313993
 20
159.75088723380711
 30
0.0
 40
20.0
 50
75.944767179774232
 51
104.0552328202257
  0
ARC
  5
16C6
  8
0
 10
153.51355195331419
 20
44.776631113225221
 30
0.0
 40
2.0
 50
180.0
 51
270.0
  0
ARC
  5
16C7
  8
0
 10
153.51355195331431
 20
47.776631113225157
 30
0.0
 40
2.0
 50
90.0
 51
180.0
  0
LINE
  5
16C8
  8
0
 10
151.51355195331431
 20
47.776631113225157
 30
0.0
 11
151.51355195331411
 21
44.776631113225221
 31
0.0
  0
ARC
  5
16C9
  8
0
 10
196.770436939429
 20
44.776631113225157
 30
0.0
 40
2.0
 50
270.0
 51
359.99999999999841
  0
ARC
  5
16CA
  8
0
 10
196.770436939429
 20
47.776631113225157
 30
0.0
 40
2.0
 50
0.0
 51
90.0
  0
LINE
  5
16CB
  8
0
 10
198.770436939429
 20
47.776631113225157
 30
0.0
 11
198.770436939429
 21
44.7766311132251
 31
0.0
  0
LINE
  5
16CC
  8
0
 10
153.51355195331419
 20
42.776631113225221
 30
0.0
 11
196.770436939429
 21
42.776631113225157
 31
0.0
  0
LINE
  5
16CD
  8
0
 10
153.51355195331431
 20
49.776631113225172
 30
0.0
 11
196.770436939429
 21
49.776631113225172
 31
0.0
  0
CIRCLE
  5
16CE
  8
0
 10
142.01355195331411
 20
46.276631113225207
 30
0.0
 40
7.5
  0
CIRCLE
  5
16CF
  8
0
 10
142.01355195331411
 20
46.276631113225207
 30
0.0
 40
9.5
  0
LINE
  5
16D2
  8
0
 10
153.29129552195411
 20
53.026631113225221
 30
0.0
 11
198.26355195331431
 21
53.026631113225221
 31
0.0
  0
LINE
  5
16D3
  8
0
 10
153.29129552195411
 20
39.526631113225221
 30
0.0
 11
198.26355195331431
 21
39.526631113225221
 31
0.0
  0
ARC
  5
16D4
  8
0
 10
198.26355195331431
 20
46.276631113225207
 30
0.0
 40
6.75
 50
270.0
 51
90.0
  0
ARC
  5
16D5
  8
0
 10
153.29129552195411
 20
68.026631113225221
 30
0.0
 40
15.0
 50
242.59249558396459
 51
270.0
  0
ARC
  5
16D6
  8
0
 10
153.29129552195411
 20
24.526631113225221
 30
0.0
 40
15.0
 50
90.0
 51
117.40750441603539
  0
CIRCLE
  5
16D7
  8
0
 10
142.01355195331411
 20
46.276631113225207
 30
0.0
 40
5.9999999999999432
  0
LINE
  5
16D8
  8
0
 10
259.51355195331422
 20
131.88163111322521
 30
0.0
 11
259.51355195331422
 21
143.27663111322519
 31
0.0
  0
LINE
  5
16D9
  8
0
 10
244.51355195331419
 20
143.27663111322519
 30
0.0
 11
244.51355195331419
 21
131.88163111322521
 31
0.0
  0
LINE
  5
16DA
  8
0
 10
258.01355195331422
 20
131.27663111322519
 30
0.0
 11
258.01355195331422
 21
131.47663111322521
 31
0.0
  0
LINE
  5
16DB
  8
0
 10
246.01355195331419
 20
131.47663111322521
 30
0.0
 11
246.01355195331419
 21
131.27663111322519
 31
0.0
  0
LINE
  5
16DC
  8
0
 10
259.10855195331408
 20
131.47663111322521
 30
0.0
 11
259.51355195331422
 21
131.88163111322521
 31
0.0
  0
LINE
  5
16DD
  8
0
 10
244.51355195331419
 20
131.88163111322521
 30
0.0
 11
244.91855195331411
 21
131.47663111322521
 31
0.0
  0
LINE
  5
16DE
  8
0
 10
246.01355195331419
 20
131.27663111322519
 30
0.0
 11
258.01355195331422
 21
131.27663111322519
 31
0.0
  0
LINE
  5
16DF
  8
0
 10
244.51355195331411
 20
137.27663111322511
 30
0.0
 11
259.51355195331422
 21
137.27663111322519
 31
0.0
  0
LINE
  5
16E0
  8
3
 10
245.50020124910949
 20
131.4766311132251
 30
0.0
 11
245.50020124910949
 21
137.27663111322519
 31
0.0
  0
LINE
  5
16E1
  8
3
 10
246.6526898958339
 20
131.4766311132251
 30
0.0
 11
246.6526898958339
 21
137.27663111322519
 31
0.0
  0
LINE
  5
16E2
  8
3
 10
248.3299370720666
 20
131.4766311132251
 30
0.0
 11
248.3299370720666
 21
137.27663111322519
 31
0.0
  0
LINE
  5
16E3
  8
3
 10
250.3677621381299
 20
131.47663111322521
 30
0.0
 11
250.3677621381299
 21
137.27663111322519
 31
0.0
  0
LINE
  5
16E4
  8
3
 10
251.46041532843279
 20
131.47663111322521
 30
0.0
 11
251.46041532843279
 21
137.27663111322519
 31
0.0
  0
LINE
  5
16E5
  8
3
 10
252.56668857819551
 20
131.47663111322521
 30
0.0
 11
252.56668857819551
 21
137.27663111322519
 31
0.0
  0
LINE
  5
16E6
  8
3
 10
253.65934176849831
 20
131.47663111322521
 30
0.0
 11
253.65934176849831
 21
137.27663111322519
 31
0.0
  0
LINE
  5
16E7
  8
0
 10
259.10855195331408
 20
131.47663111322521
 30
0.0
 11
244.91855195331411
 21
131.47663111322521
 31
0.0
  0
LINE
  5
16E8
  8
3
 10
255.69716683456161
 20
131.47663111322521
 30
0.0
 11
255.69716683456161
 21
137.27663111322519
 31
0.0
  0
LINE
  5
16E9
  8
3
 10
257.37441401079423
 20
131.47663111322521
 30
0.0
 11
257.37441401079423
 21
137.27663111322519
 31
0.0
  0
LINE
  5
16EA
  8
3
 10
258.52690265751858
 20
131.47663111322521
 30
0.0
 11
258.52690265751858
 21
137.27663111322519
 31
0.0
  0
LINE
  5
16EB
  8
3
 10
247.4216834282463
 20
131.47663111322521
 30
0.0
 11
247.4216834282463
 21
137.27663111322531
 31
0.0
  0
LINE
  5
16EC
  8
3
 10
245.97505288731691
 20
131.47663111322521
 30
0.0
 11
245.97505288731691
 21
137.27663111322531
 31
0.0
  0
LINE
  5
16ED
  8
3
 10
245.1195127076642
 20
131.47663111322521
 30
0.0
 11
245.1195127076642
 21
137.27663111322531
 31
0.0
  0
LINE
  5
16EE
  8
3
 10
256.60542047838192
 20
131.47663111322521
 30
0.0
 11
256.60542047838192
 21
137.27663111322519
 31
0.0
  0
LINE
  5
16EF
  8
3
 10
258.05205101931131
 20
131.47663111322521
 30
0.0
 11
258.05205101931131
 21
137.27663111322519
 31
0.0
  0
LINE
  5
16F0
  8
3
 10
258.90759119896393
 20
131.47663111322521
 30
0.0
 11
258.90759119896393
 21
137.27663111322519
 31
0.0
  0
LINE
  5
16F1
  8
3
 10
244.73882416621879
 20
131.6563589003205
 30
0.0
 11
244.73882416621879
 21
137.27663111322531
 31
0.0
  0
LINE
  5
16F2
  8
3
 10
259.28827974040928
 20
131.65635890032041
 30
0.0
 11
259.28827974040928
 21
137.27663111322519
 31
0.0
  0
LINE
  5
16F3
  8
3
 10
249.3156337551402
 20
131.4766311132251
 30
0.0
 11
249.3156337551402
 21
137.27663111322519
 31
0.0
  0
LINE
  5
16F4
  8
3
 10
254.7114701514881
 20
131.47663111322521
 30
0.0
 11
254.7114701514881
 21
137.27663111322519
 31
0.0
  0
ARC
  5
16F5
  8
0
 10
79.513551953313865
 20
166.27663111322511
 30
0.0
 40
2.0
 50
0.0
 51
90.0
  0
ARC
  5
16F6
  8
0
 10
64.513551953314106
 20
166.27663111322511
 30
0.0
 40
2.0
 50
90.0
 51
180.0
  0
ARC
  5
16F7
  8
0
 10
63.013551953313879
 20
143.77663111322511
 30
0.0
 40
0.5
 50
180.0
 51
270.0
  0
ARC
  5
16F8
  8
0
 10
81.013551953314106
 20
143.77663111322511
 30
0.0
 40
0.5
 50
270.0
 51
0.0
  0
ARC
  5
16F9
  8
0
 10
244.51355195331431
 20
166.27663111322511
 30
0.0
 40
2.0
 50
90.0
 51
180.0
  0
ARC
  5
16FA
  8
0
 10
259.51355195331399
 20
166.27663111322511
 30
0.0
 40
2.0
 50
0.0
 51
90.0
  0
ARC
  5
16FB
  8
0
 10
261.01355195331428
 20
143.77663111322511
 30
0.0
 40
0.5
 50
270.0
 51
0.0
  0
ARC
  5
16FC
  8
0
 10
243.01355195331399
 20
143.77663111322511
 30
0.0
 40
0.5
 50
180.0
 51
270.0
  0
ARC
  5
16FD
  8
0
 10
256.26355195331388
 20
177.32573207361219
 30
0.0
 40
2.5
 50
0.0000000000016284
 51
75.944767179774232
  0
ARC
  5
16FE
  8
0
 10
247.76355195331379
 20
177.3257320736121
 30
0.0
 40
2.5
 50
104.0552328202257
 51
180.00000000000321
  0
ARC
  5
16FF
  8
0
 10
256.26355195331388
 20
170.70178627342011
 30
0.0
 40
2.5
 50
284.0552328202258
 51
0.0
  0
ARC
  5
1700
  8
0
 10
247.76355195331379
 20
170.7017862734202
 30
0.0
 40
2.5
 50
179.9999999999967
 51
255.9447671797742
  0
TEXT
  5
17EC
  8
0
 62
     3
 10
0.0
 20
0.0
 30
0.0
 40
10.0
  1
ESAL63BX30
  7
STANDARD1
  0
ENDSEC
  0
EOF
