  0
SECTION
  2
HEADER
  9
$ACADVER
  1
AC1009
  9
$INSBASE
 10
0.0
 20
0.0
 30
0.0
  9
$EXTMIN
 10
0.0
 20
-2.960436562073669
 30
-7.0
  9
$EXTMAX
 10
141.88698291084441
 20
206.7782153095103
 30
14.00000000000011
  9
$LIMMIN
 10
0.0
 20
0.0
  9
$LIMMAX
 10
375.0
 20
270.0
  9
$ORTHOMODE
 70
     1
  9
$REGENMODE
 70
     1
  9
$FILLMODE
 70
     1
  9
$QTEXTMODE
 70
     0
  9
$MIRRTEXT
 70
     0
  9
$DRAGMODE
 70
     2
  9
$LTSCALE
 40
5.0
  9
$OSMODE
 70
  3071
  9
$ATTMODE
 70
     1
  9
$TEXTSIZE
 40
0.2
  9
$TRACEWID
 40
0.05
  9
$TEXTSTYLE
  7
STANDARD
  9
$CLAYER
  8
0
  9
$CELTYPE
  6
BYLAYER
  9
$CECOLOR
 62
   256
  9
$DIMSCALE
 40
1.0
  9
$DIMASZ
 40
3.0
  9
$DIMEXO
 40
2.0
  9
$DIMDLI
 40
0.38
  9
$DIMRND
 40
0.0
  9
$DIMDLE
 40
0.0
  9
$DIMEXE
 40
2.0
  9
$DIMTP
 40
0.0
  9
$DIMTM
 40
0.0
  9
$DIMTXT
 40
3.2000000000000002
  9
$DIMCEN
 40
0.09
  9
$DIMTSZ
 40
0.0
  9
$DIMTOL
 70
     0
  9
$DIMLIM
 70
     0
  9
$DIMTIH
 70
     0
  9
$DIMTOH
 70
     0
  9
$DIMSE1
 70
     0
  9
$DIMSE2
 70
     0
  9
$DIMTAD
 70
     1
  9
$DIMZIN
 70
     0
  9
$DIMBLK
  1

  9
$DIMASO
 70
     1
  9
$DIMSHO
 70
     0
  9
$DIMPOST
  1

  9
$DIMAPOST
  1

  9
$DIMALT
 70
     0
  9
$DIMALTD
 70
     2
  9
$DIMALTF
 40
25.399999999999999
  9
$DIMLFAC
 40
1.0
  9
$DIMTOFL
 70
     0
  9
$DIMTVP
 40
1.6000000000000001
  9
$DIMTIX
 70
     1
  9
$DIMSOXD
 70
     0
  9
$DIMSAH
 70
     0
  9
$DIMBLK1
  1

  9
$DIMBLK2
  1

  9
$DIMSTYLE
  2
STANDARD
  9
$DIMCLRD
 70
     0
  9
$DIMCLRE
 70
     0
  9
$DIMCLRT
 70
     0
  9
$DIMTFAC
 40
1.0
  9
$DIMGAP
 40
0.09
  9
$LUNITS
 70
     2
  9
$LUPREC
 70
     4
  9
$SKETCHINC
 40
0.1
  9
$FILLETRAD
 40
2.0
  9
$AUNITS
 70
     0
  9
$AUPREC
 70
     0
  9
$MENU
  1
E:\r13\win\SUPPORT\ACAD
  9
$ELEVATION
 40
0.0
  9
$PELEVATION
 40
0.0
  9
$THICKNESS
 40
0.0
  9
$LIMCHECK
 70
     0
  9
$BLIPMODE
 70
     0
  9
$CHAMFERA
 40
0.0
  9
$CHAMFERB
 40
0.0
  9
$SKPOLY
 70
     0
  9
$TDCREATE
 40
2447977.5416277782
  9
$TDUPDATE
 40
2456598.6874092598
  9
$TDINDWG
 40
0.0096323032
  9
$TDUSRTIMER
 40
0.0096323032
  9
$USRTIMER
 70
     1
  9
$ANGBASE
 50
0.0
  9
$ANGDIR
 70
     0
  9
$PDMODE
 70
     0
  9
$PDSIZE
 40
0.0
  9
$PLINEWID
 40
0.0
  9
$COORDS
 70
     1
  9
$SPLFRAME
 70
     0
  9
$SPLINETYPE
 70
     6
  9
$SPLINESEGS
 70
     8
  9
$ATTDIA
 70
     0
  9
$ATTREQ
 70
     1
  9
$HANDLING
 70
     1
  9
$HANDSEED
  5
490
  9
$SURFTAB1
 70
     6
  9
$SURFTAB2
 70
     6
  9
$SURFTYPE
 70
     6
  9
$SURFU
 70
     6
  9
$SURFV
 70
     6
  9
$UCSNAME
  2

  9
$UCSORG
 10
0.0
 20
0.0
 30
0.0
  9
$UCSXDIR
 10
1.0
 20
0.0
 30
0.0
  9
$UCSYDIR
 10
0.0
 20
1.0
 30
0.0
  9
$PUCSNAME
  2

  9
$PUCSORG
 10
0.0
 20
0.0
 30
0.0
  9
$PUCSXDIR
 10
1.0
 20
0.0
 30
0.0
  9
$PUCSYDIR
 10
0.0
 20
1.0
 30
0.0
  9
$USERI1
 70
     0
  9
$USERI2
 70
     1
  9
$USERI3
 70
     1
  9
$USERI4
 70
     0
  9
$USERI5
 70
     0
  9
$USERR1
 40
0.0
  9
$USERR2
 40
0.0
  9
$USERR3
 40
0.0
  9
$USERR4
 40
0.0
  9
$USERR5
 40
0.0
  9
$WORLDVIEW
 70
     1
  9
$SHADEDGE
 70
     3
  9
$SHADEDIF
 70
    70
  9
$TILEMODE
 70
     1
  9
$MAXACTVP
 70
    16
  9
$PLIMCHECK
 70
     0
  9
$PEXTMIN
 10
1.0000000000000000E+020
 20
1.0000000000000000E+020
 30
1.0000000000000000E+020
  9
$PEXTMAX
 10
-1.0000000000000000E+020
 20
-1.0000000000000000E+020
 30
-1.0000000000000000E+020
  9
$PLIMMIN
 10
0.0
 20
0.0
  9
$PLIMMAX
 10
12.0
 20
9.0
  9
$UNITMODE
 70
     0
  9
$VISRETAIN
 70
     0
  9
$PLINEGEN
 70
     1
  9
$PSLTSCALE
 70
     0
  0
ENDSEC
  0
SECTION
  2
TABLES
  0
TABLE
  2
VPORT
 70
     1
  0
VPORT
  2
*ACTIVE
 70
     0
 10
0.0
 20
0.0
 11
1.0
 21
1.0
 12
187.49427839065231
 22
169.9063198933564
 13
0.0
 23
0.0
 14
10.0
 24
10.0
 15
10.0
 25
10.0
 16
0.0
 26
0.0
 36
1.0
 17
0.0
 27
0.0
 37
0.0
 40
348.89937369551939
 41
1.831871345029239
 42
50.0
 43
0.0
 44
0.0
 50
0.0
 51
0.0
 71
     0
 72
   500
 73
     1
 74
     0
 75
     0
 76
     0
 77
     0
 78
     2
  0
ENDTAB
  0
TABLE
  2
LTYPE
 70
     4
  0
LTYPE
  2
CONTINUOUS
 70
     0
  3
Solid Line
 72
    65
 73
     0
 40
0.0
  0
LTYPE
  2
CENTER
 70
     0
  3
____ _ ____ _ ____ _ ____ _ ____ _ ____ _ ____
 72
    65
 73
     4
 40
2.0
 49
1.25
 49
-0.25
 49
0.25
 49
-0.25
  0
LTYPE
  2
HIDDEN
 70
     0
  3
_ _ _ _ _ _ _ _ _ _ _ _ _ _ _ _ _ _ _ _ _ _ _
 72
    65
 73
     2
 40
0.375
 49
0.25
 49
-0.125
  0
LTYPE
  2
PHANTOM2
 70
     0
  3
___ _ _ ___ _ _ ___ _ _ ___ _ _
 72
    65
 73
     6
 40
1.25
 49
0.625
 49
-0.125
 49
0.125
 49
-0.125
 49
0.125
 49
-0.125
  0
ENDTAB
  0
TABLE
  2
LAYER
 70
     4
  0
LAYER
  2
0
 70
     0
 62
     7
  6
CONTINUOUS
  0
LAYER
  2
1
 70
     0
 62
     1
  6
CENTER
  0
LAYER
  2
2
 70
     0
 62
     2
  6
HIDDEN
  0
LAYER
  2
3
 70
     0
 62
     3
  6
CONTINUOUS
  0
ENDTAB
  0
TABLE
  2
STYLE
 70
     2
  0
STYLE
  2
STANDARD
 70
     0
 40
0.0
 41
1.0
 50
0.0
 71
     0
 42
0.2
  3
TXT
  4
BIGFONT
  0
STYLE
  2
STANDARD1
 70
     0
 40
0.0
 41
1.0
 50
0.0
 71
     0
 42
3.0
  3
txt
  4

  0
ENDTAB
  0
TABLE
  2
VIEW
 70
     1
  0
VIEW
  2
ALL
 70
     0
 40
270.0
 10
220.99159663865549
 20
135.0
 41
0.0
 11
0.0
 21
0.0
 31
1.0
 12
0.0
 22
0.0
 32
0.0
 42
0.0
 43
0.0
 44
0.0
 50
0.0
 71
     0
  0
ENDTAB
  0
TABLE
  2
UCS
 70
     0
  0
ENDTAB
  0
TABLE
  2
APPID
 70
     3
  0
APPID
  2
ACAD
 70
     0
  0
APPID
  2
ACAD_MLEADERVER
 70
     0
  0
APPID
  2
ACAD_NAV_VCDISPLAY
 70
     0
  0
ENDTAB
  0
TABLE
  2
DIMSTYLE
 70
     1
  0
DIMSTYLE
  2
STANDARD
 70
     0
  3

  4

  5

  6

  7

 40
1.0
 41
0.18
 42
0.0625
 43
0.38
 44
0.18
 45
0.0
 46
0.0
 47
0.0
 48
0.0
140
0.18
141
0.09
142
0.0
143
25.399999999999999
144
1.0
145
0.0
146
1.0
147
0.09
 71
     0
 72
     0
 73
     1
 74
     1
 75
     0
 76
     0
 77
     0
 78
     0
170
     0
171
     2
172
     0
173
     0
174
     0
175
     0
176
     0
177
     0
178
     0
  0
ENDTAB
  0
ENDSEC
  0
SECTION
  2
BLOCKS
  0
BLOCK
  8
0
  2
$MODEL_SPACE
 70
     0
 10
0.0
 20
0.0
 30
0.0
  3
$MODEL_SPACE
  1

  0
ENDBLK
  5
19F
  8
0
  0
BLOCK
 67
     1
  8
0
  2
$PAPER_SPACE
 70
     0
 10
0.0
 20
0.0
 30
0.0
  3
$PAPER_SPACE
  1

  0
ENDBLK
  5
19D
 67
     1
  8
0
  0
ENDSEC
  0
SECTION
  2
ENTITIES
  0
CIRCLE
  5
267
  8
2
 10
75.386982910844253
 20
187.78285995692741
 30
0.0
 40
4.0
  0
LINE
  5
268
  8
1
 10
87.391626659744588
 20
187.77821530951019
 30
0.0
 11
63.382339161943939
 21
187.7782153095103
 31
0.0
  0
LINE
  5
269
  8
2
 10
78.786983006844366
 20
196.77821493951021
 30
0.0
 11
78.786983006844366
 21
195.27821493951029
 31
0.0
  0
LINE
  5
26A
  8
2
 10
79.386982910844381
 20
196.77821493951021
 30
0.0
 11
78.786983006844366
 21
196.77821493951021
 31
0.0
  0
LINE
  5
26B
  8
2
 10
79.386982910844381
 20
195.27821493951029
 30
0.0
 11
79.386982910844381
 21
193.77821493951021
 31
0.0
  0
LINE
  5
26C
  8
2
 10
79.386982910844381
 20
195.27821493951029
 30
0.0
 11
78.786983006844366
 21
195.27821493951029
 31
0.0
  0
LINE
  5
26D
  8
2
 10
78.786983006844366
 20
200.27821493951029
 30
0.0
 11
78.786983006844366
 21
198.77821493951021
 31
0.0
  0
LINE
  5
26E
  8
2
 10
79.386982910844381
 20
200.27821493951029
 30
0.0
 11
78.786983006844366
 21
200.27821493951029
 31
0.0
  0
LINE
  5
26F
  8
2
 10
79.386982910844381
 20
201.77821493951021
 30
0.0
 11
79.386982910844381
 21
200.27821493951029
 31
0.0
  0
LINE
  5
270
  8
2
 10
77.536983006844366
 20
201.27821493951029
 30
0.0
 11
78.036983006844366
 21
201.77821493951021
 31
0.0
  0
LINE
  5
271
  8
2
 10
73.236982814844396
 20
201.27821493951029
 30
0.0
 11
72.736982814844396
 21
201.77821493951021
 31
0.0
  0
LINE
  5
272
  8
2
 10
73.236982814844396
 20
201.27821493951029
 30
0.0
 11
77.536983006844252
 21
201.27821493951029
 31
0.0
  0
LINE
  5
273
  8
2
 10
79.386982910844381
 20
198.77821493951021
 30
0.0
 11
78.786983006844366
 21
198.77821493951021
 31
0.0
  0
LINE
  5
274
  8
2
 10
77.536983006844366
 20
201.27821493951029
 30
0.0
 11
77.536983006844366
 21
193.77821493951021
 31
0.0
  0
LINE
  5
275
  8
2
 10
77.886982910844381
 20
201.62821484351031
 30
0.0
 11
77.886982910844381
 21
193.77821493951021
 31
0.0
  0
LINE
  5
276
  8
2
 10
72.886982910844381
 20
201.62821484351031
 30
0.0
 11
72.886982910844381
 21
193.77821493951021
 31
0.0
  0
LINE
  5
277
  8
2
 10
73.236982814844396
 20
201.27821493951029
 30
0.0
 11
73.236982814844396
 21
193.77821493951021
 31
0.0
  0
LINE
  5
278
  8
2
 10
79.386982910844381
 20
198.77821493951021
 30
0.0
 11
79.386982910844381
 21
196.77821493951021
 31
0.0
  0
LINE
  5
279
  8
2
 10
71.986982814844396
 20
196.77821493951021
 30
0.0
 11
71.986982814844396
 21
195.27821493951029
 31
0.0
  0
LINE
  5
27A
  8
2
 10
71.386982910844381
 20
196.77821493951021
 30
0.0
 11
71.986982814844396
 21
196.77821493951021
 31
0.0
  0
LINE
  5
27B
  8
2
 10
71.386982910844381
 20
195.27821493951029
 30
0.0
 11
71.986982814844396
 21
195.27821493951029
 31
0.0
  0
LINE
  5
27C
  8
2
 10
71.386982910844381
 20
195.27821493951029
 30
0.0
 11
71.386982910844381
 21
193.77821493951021
 31
0.0
  0
LINE
  5
27D
  8
2
 10
71.986982814844396
 20
200.27821493951029
 30
0.0
 11
71.986982814844396
 21
198.77821493951021
 31
0.0
  0
LINE
  5
27E
  8
2
 10
71.386982910844381
 20
201.77821493951021
 30
0.0
 11
71.386982910844381
 21
200.27821493951029
 31
0.0
  0
LINE
  5
27F
  8
2
 10
71.386982910844381
 20
200.27821493951029
 30
0.0
 11
71.986982814844396
 21
200.27821493951029
 31
0.0
  0
LINE
  5
280
  8
2
 10
71.386982910844381
 20
198.77821493951021
 30
0.0
 11
71.986982814844396
 21
198.77821493951021
 31
0.0
  0
LINE
  5
281
  8
2
 10
71.386982910844381
 20
198.77821493951021
 30
0.0
 11
71.386982910844381
 21
196.77821493951021
 31
0.0
  0
LINE
  5
282
  8
2
 10
71.386982910844381
 20
193.77821493951021
 30
0.0
 11
79.386982910844495
 21
193.77821493951021
 31
0.0
  0
LINE
  5
283
  8
0
 10
68.136982910844381
 20
201.7782153095103
 30
0.0
 11
68.383486249844509
 21
187.65604846451021
 31
0.0
  0
LINE
  5
284
  8
0
 10
82.636982910844381
 20
201.7782153095103
 30
0.0
 11
82.390479571844253
 21
187.65604846451021
 31
0.0
  0
LINE
  5
285
  8
0
 10
82.636982910844381
 20
201.7782153095103
 30
0.0
 11
68.136982910844381
 21
201.7782153095103
 31
0.0
  0
LINE
  5
286
  8
1
 10
75.386982910844381
 20
206.7782153095103
 30
0.0
 11
75.386982910844381
 21
175.7782153095103
 31
0.0
  0
ARC
  5
287
  8
0
 10
75.386982910844253
 20
187.78285995692741
 30
0.0
 40
7.0046446474170976
 50
181.03733460175221
 51
358.96266539824779
  0
CIRCLE
  5
288
  8
2
 10
75.886982910844608
 20
49.772697929196063
 30
0.0
 40
4.0
  0
LINE
  5
289
  8
1
 10
63.882339161944287
 20
49.777342576613187
 30
0.0
 11
87.891626659744915
 21
49.777342576613187
 31
0.0
  0
ARC
  5
28A
  8
2
 10
-135.3869774333694
 20
98.973958384896932
 30
0.0
 40
13.99999269803325
210
0.0
220
0.0
230
-1.0
 50
338.21321070200162
 51
0.0
  0
LINE
  5
28B
  8
2
 10
128.38698108435261
 20
93.777808672049304
 30
0.0
 11
122.38698421376699
 21
93.777808672049304
 31
0.0
  0
ARC
  5
28C
  8
2
 10
-115.38698786475049
 20
98.973958384896932
 30
0.0
 40
13.99999269803325
210
0.0
220
0.0
230
-1.0
 50
180.0
 51
201.78678929799841
  0
LINE
  5
28D
  8
2
 10
129.3869805627838
 20
115.27779745831469
 30
0.0
 11
129.3869805627838
 21
98.973958384896932
 31
0.0
  0
LINE
  5
28E
  8
2
 10
130.1369801176071
 20
117.77779615439189
 30
0.0
 11
130.1369801176071
 21
115.27779745831469
 31
0.0
  0
LINE
  5
28F
  8
2
 10
127.3544960928655
 20
117.77779615439189
 30
0.0
 11
127.3544960928655
 21
115.27779745831469
 31
0.0
  0
LINE
  5
290
  8
2
 10
123.4194690872546
 20
117.77779615439189
 30
0.0
 11
123.4194690872546
 21
115.27779745831469
 31
0.0
  0
LINE
  5
291
  8
2
 10
120.6369850725131
 20
117.77779615439189
 30
0.0
 11
120.6369850725131
 21
115.27779745831469
 31
0.0
  0
LINE
  5
292
  8
2
 10
121.3869847353362
 20
115.27779745831469
 30
0.0
 11
121.3869847353361
 21
98.973958384896932
 31
0.0
  0
LINE
  5
293
  8
2
 10
130.1369801176071
 20
115.27779745831469
 30
0.0
 11
120.6369850725131
 21
115.27779745831469
 31
0.0
  0
LINE
  5
294
  8
2
 10
121.3869849961207
 20
119.77779511125389
 30
0.0
 11
121.3869849961207
 21
138.5816328807488
 31
0.0
  0
ARC
  5
295
  8
2
 10
-135.38697769415381
 20
138.5816328807488
 30
0.0
 40
13.99999269803325
210
0.0
220
0.0
230
-1.0
 50
0.0
 51
21.786789297998389
  0
LINE
  5
296
  8
2
 10
128.38698134513729
 20
143.77778259359661
 30
0.0
 11
122.3869844745514
 21
143.77778259359661
 31
0.0
  0
ARC
  5
297
  8
2
 10
-115.3869881255349
 20
138.5816328807488
 30
0.0
 40
13.99999269803325
210
0.0
220
0.0
230
-1.0
 50
158.21321070200159
 51
180.0
  0
LINE
  5
298
  8
2
 10
129.38698082356819
 20
119.77779511125389
 30
0.0
 11
129.38698082356819
 21
138.5816328807488
 31
0.0
  0
LINE
  5
299
  8
2
 10
138.88698291084421
 20
90.627807456613311
 30
0.0
 11
138.88698291084441
 21
94.927807648613253
 31
0.0
  0
LINE
  5
29A
  8
2
 10
131.38698291084421
 20
88.777807552613297
 30
0.0
 11
131.3869829108441
 21
96.777807552613311
 31
0.0
  0
LINE
  5
29B
  8
2
 10
138.88698291084421
 20
90.627807456613311
 30
0.0
 11
131.38698291084421
 21
90.627807456613311
 31
0.0
  0
LINE
  5
29C
  8
2
 10
139.23698281484431
 20
90.277807552613297
 30
0.0
 11
131.38698291084421
 21
90.277807552613297
 31
0.0
  0
LINE
  5
29D
  8
2
 10
137.88698291084421
 20
89.377807456613311
 30
0.0
 11
136.3869829108443
 21
89.377807456613311
 31
0.0
  0
LINE
  5
29E
  8
2
 10
137.88698291084421
 20
88.777807552613297
 30
0.0
 11
137.88698291084421
 21
89.377807456613311
 31
0.0
  0
LINE
  5
29F
  8
2
 10
138.88698291084421
 20
90.627807456613311
 30
0.0
 11
139.38698291084421
 21
90.127807456613311
 31
0.0
  0
LINE
  5
2A0
  8
2
 10
139.38698291084421
 20
88.777807552613297
 30
0.0
 11
137.88698291084421
 21
88.777807552613297
 31
0.0
  0
LINE
  5
2A1
  8
2
 10
134.38698291084421
 20
89.377807456613311
 30
0.0
 11
132.88698291084421
 21
89.377807456613311
 31
0.0
  0
LINE
  5
2A2
  8
2
 10
136.3869829108443
 20
88.777807552613297
 30
0.0
 11
136.3869829108443
 21
89.377807456613311
 31
0.0
  0
LINE
  5
2A3
  8
2
 10
136.3869829108443
 20
88.777807552613297
 30
0.0
 11
134.38698291084421
 21
88.777807552613297
 31
0.0
  0
LINE
  5
2A4
  8
2
 10
134.38698291084421
 20
88.777807552613297
 30
0.0
 11
134.38698291084421
 21
89.377807456613311
 31
0.0
  0
LINE
  5
2A5
  8
2
 10
132.88698291084421
 20
88.777807552613297
 30
0.0
 11
131.38698291084421
 21
88.777807552613297
 31
0.0
  0
LINE
  5
2A6
  8
2
 10
132.88698291084421
 20
88.777807552613297
 30
0.0
 11
132.88698291084421
 21
89.377807456613311
 31
0.0
  0
LINE
  5
2A7
  8
2
 10
139.23698281484431
 20
95.277807552613297
 30
0.0
 11
131.38698291084421
 21
95.277807552613297
 31
0.0
  0
LINE
  5
2A8
  8
2
 10
138.88698291084421
 20
94.927807648613268
 30
0.0
 11
131.38698291084421
 21
94.927807648613268
 31
0.0
  0
LINE
  5
2A9
  8
2
 10
137.88698291084421
 20
96.177807648613296
 30
0.0
 11
136.3869829108443
 21
96.177807648613296
 31
0.0
  0
LINE
  5
2AA
  8
2
 10
138.88698291084421
 20
94.927807648613268
 30
0.0
 11
139.38698291084421
 21
95.427807648613282
 31
0.0
  0
LINE
  5
2AB
  8
2
 10
139.38698291084421
 20
96.777807552613311
 30
0.0
 11
137.88698291084421
 21
96.777807552613311
 31
0.0
  0
LINE
  5
2AC
  8
2
 10
137.88698291084421
 20
96.777807552613311
 30
0.0
 11
137.88698291084421
 21
96.177807648613296
 31
0.0
  0
LINE
  5
2AD
  8
2
 10
134.38698291084421
 20
96.177807648613296
 30
0.0
 11
132.88698291084421
 21
96.177807648613296
 31
0.0
  0
LINE
  5
2AE
  8
2
 10
136.3869829108443
 20
96.777807552613311
 30
0.0
 11
136.3869829108443
 21
96.177807648613296
 31
0.0
  0
LINE
  5
2AF
  8
2
 10
134.38698291084421
 20
96.777807552613311
 30
0.0
 11
134.38698291084421
 21
96.177807648613296
 31
0.0
  0
LINE
  5
2B0
  8
2
 10
136.3869829108443
 20
96.777807552613311
 30
0.0
 11
134.38698291084421
 21
96.777807552613311
 31
0.0
  0
LINE
  5
2B1
  8
2
 10
132.88698291084421
 20
96.777807552613311
 30
0.0
 11
132.88698291084421
 21
96.177807648613296
 31
0.0
  0
LINE
  5
2B2
  8
2
 10
132.88698291084421
 20
96.777807552613311
 30
0.0
 11
131.38698291084421
 21
96.777807552613311
 31
0.0
  0
LINE
  5
2B3
  8
2
 10
132.8869829108443
 20
115.7778075526133
 30
0.0
 11
131.38698291084441
 21
115.7778075526133
 31
0.0
  0
LINE
  5
2B4
  8
2
 10
132.8869829108443
 20
115.7778075526133
 30
0.0
 11
132.8869829108443
 21
115.1778076486133
 31
0.0
  0
LINE
  5
2B5
  8
2
 10
136.38698291084441
 20
115.7778075526133
 30
0.0
 11
134.38698291084441
 21
115.7778075526133
 31
0.0
  0
LINE
  5
2B6
  8
2
 10
134.38698291084441
 20
115.7778075526133
 30
0.0
 11
134.38698291084441
 21
115.1778076486133
 31
0.0
  0
LINE
  5
2B7
  8
2
 10
136.38698291084441
 20
115.7778075526133
 30
0.0
 11
136.38698291084441
 21
115.1778076486133
 31
0.0
  0
LINE
  5
2B8
  8
2
 10
134.38698291084441
 20
115.1778076486133
 30
0.0
 11
132.8869829108443
 21
115.1778076486133
 31
0.0
  0
LINE
  5
2B9
  8
2
 10
137.88698291084441
 20
115.7778075526133
 30
0.0
 11
137.88698291084441
 21
115.1778076486133
 31
0.0
  0
LINE
  5
2BA
  8
2
 10
139.38698291084441
 20
115.7778075526133
 30
0.0
 11
137.88698291084441
 21
115.7778075526133
 31
0.0
  0
LINE
  5
2BB
  8
2
 10
138.88698291084441
 20
113.9278076486132
 30
0.0
 11
139.38698291084441
 21
114.4278076486133
 31
0.0
  0
LINE
  5
2BC
  8
2
 10
137.88698291084441
 20
115.1778076486133
 30
0.0
 11
136.38698291084441
 21
115.1778076486133
 31
0.0
  0
LINE
  5
2BD
  8
2
 10
138.88698291084441
 20
113.9278076486132
 30
0.0
 11
131.38698291084441
 21
113.9278076486132
 31
0.0
  0
LINE
  5
2BE
  8
2
 10
139.2369828148444
 20
114.2778075526133
 30
0.0
 11
131.38698291084441
 21
114.2778075526133
 31
0.0
  0
LINE
  5
2BF
  8
2
 10
132.8869829108443
 20
107.7778075526133
 30
0.0
 11
132.8869829108443
 21
108.3778074566133
 31
0.0
  0
LINE
  5
2C0
  8
2
 10
132.8869829108443
 20
107.7778075526133
 30
0.0
 11
131.38698291084441
 21
107.7778075526133
 31
0.0
  0
LINE
  5
2C1
  8
2
 10
134.38698291084441
 20
107.7778075526133
 30
0.0
 11
134.38698291084441
 21
108.3778074566133
 31
0.0
  0
LINE
  5
2C2
  8
2
 10
136.38698291084441
 20
107.7778075526133
 30
0.0
 11
134.38698291084441
 21
107.7778075526133
 31
0.0
  0
LINE
  5
2C3
  8
2
 10
136.38698291084441
 20
107.7778075526133
 30
0.0
 11
136.38698291084441
 21
108.3778074566133
 31
0.0
  0
LINE
  5
2C4
  8
2
 10
134.38698291084441
 20
108.3778074566133
 30
0.0
 11
132.8869829108443
 21
108.3778074566133
 31
0.0
  0
LINE
  5
2C5
  8
2
 10
139.38698291084441
 20
107.7778075526133
 30
0.0
 11
137.88698291084441
 21
107.7778075526133
 31
0.0
  0
LINE
  5
2C6
  8
2
 10
138.88698291084441
 20
109.6278074566133
 30
0.0
 11
139.38698291084441
 21
109.1278074566133
 31
0.0
  0
LINE
  5
2C7
  8
2
 10
137.88698291084441
 20
107.7778075526133
 30
0.0
 11
137.88698291084441
 21
108.3778074566133
 31
0.0
  0
LINE
  5
2C8
  8
2
 10
137.88698291084441
 20
108.3778074566133
 30
0.0
 11
136.38698291084441
 21
108.3778074566133
 31
0.0
  0
LINE
  5
2C9
  8
2
 10
139.2369828148444
 20
109.2778075526133
 30
0.0
 11
131.38698291084441
 21
109.2778075526133
 31
0.0
  0
LINE
  5
2CA
  8
2
 10
138.88698291084441
 20
109.6278074566133
 30
0.0
 11
131.38698291084441
 21
109.6278074566133
 31
0.0
  0
LINE
  5
2CB
  8
2
 10
131.38698291084441
 20
107.7778075526133
 30
0.0
 11
131.38698291084421
 21
115.7778075526133
 31
0.0
  0
LINE
  5
2CC
  8
2
 10
138.88698291084441
 20
109.6278074566133
 30
0.0
 11
138.88698291084449
 21
113.9278076486132
 31
0.0
  0
LINE
  5
2CD
  8
2
 10
138.88698291084441
 20
123.6277788466133
 30
0.0
 11
138.88698291084449
 21
127.92777903861329
 31
0.0
  0
LINE
  5
2CE
  8
2
 10
131.38698291084441
 20
121.7777789426133
 30
0.0
 11
131.38698291084421
 21
129.77777894261331
 31
0.0
  0
LINE
  5
2CF
  8
2
 10
138.88698291084441
 20
123.6277788466133
 30
0.0
 11
131.38698291084441
 21
123.6277788466133
 31
0.0
  0
LINE
  5
2D0
  8
2
 10
139.2369828148444
 20
123.2777789426133
 30
0.0
 11
131.38698291084441
 21
123.2777789426133
 31
0.0
  0
LINE
  5
2D1
  8
2
 10
137.88698291084441
 20
122.3777788466133
 30
0.0
 11
136.38698291084441
 21
122.3777788466133
 31
0.0
  0
LINE
  5
2D2
  8
2
 10
137.88698291084441
 20
121.7777789426133
 30
0.0
 11
137.88698291084441
 21
122.3777788466133
 31
0.0
  0
LINE
  5
2D3
  8
2
 10
138.88698291084441
 20
123.6277788466133
 30
0.0
 11
139.38698291084441
 21
123.1277788466133
 31
0.0
  0
LINE
  5
2D4
  8
2
 10
139.38698291084441
 20
121.7777789426133
 30
0.0
 11
137.88698291084441
 21
121.7777789426133
 31
0.0
  0
LINE
  5
2D5
  8
2
 10
134.38698291084441
 20
122.3777788466133
 30
0.0
 11
132.8869829108443
 21
122.3777788466133
 31
0.0
  0
LINE
  5
2D6
  8
2
 10
136.38698291084441
 20
121.7777789426133
 30
0.0
 11
136.38698291084441
 21
122.3777788466133
 31
0.0
  0
LINE
  5
2D7
  8
2
 10
136.38698291084441
 20
121.7777789426133
 30
0.0
 11
134.38698291084441
 21
121.7777789426133
 31
0.0
  0
LINE
  5
2D8
  8
2
 10
134.38698291084441
 20
121.7777789426133
 30
0.0
 11
134.38698291084441
 21
122.3777788466133
 31
0.0
  0
LINE
  5
2D9
  8
2
 10
132.8869829108443
 20
121.7777789426133
 30
0.0
 11
131.38698291084441
 21
121.7777789426133
 31
0.0
  0
LINE
  5
2DA
  8
2
 10
132.8869829108443
 20
121.7777789426133
 30
0.0
 11
132.8869829108443
 21
122.3777788466133
 31
0.0
  0
LINE
  5
2DB
  8
2
 10
139.2369828148444
 20
128.27777894261331
 30
0.0
 11
131.38698291084441
 21
128.27777894261331
 31
0.0
  0
LINE
  5
2DC
  8
2
 10
138.88698291084441
 20
127.92777903861329
 30
0.0
 11
131.38698291084441
 21
127.92777903861329
 31
0.0
  0
LINE
  5
2DD
  8
2
 10
137.88698291084441
 20
129.17777903861329
 30
0.0
 11
136.38698291084441
 21
129.17777903861329
 31
0.0
  0
LINE
  5
2DE
  8
2
 10
138.88698291084441
 20
127.92777903861329
 30
0.0
 11
139.38698291084441
 21
128.42777903861329
 31
0.0
  0
LINE
  5
2DF
  8
2
 10
139.38698291084441
 20
129.77777894261331
 30
0.0
 11
137.88698291084441
 21
129.77777894261331
 31
0.0
  0
LINE
  5
2E0
  8
2
 10
137.88698291084441
 20
129.77777894261331
 30
0.0
 11
137.88698291084441
 21
129.17777903861329
 31
0.0
  0
LINE
  5
2E1
  8
2
 10
134.38698291084441
 20
129.17777903861329
 30
0.0
 11
132.8869829108443
 21
129.17777903861329
 31
0.0
  0
LINE
  5
2E2
  8
2
 10
136.38698291084441
 20
129.77777894261331
 30
0.0
 11
136.38698291084441
 21
129.17777903861329
 31
0.0
  0
LINE
  5
2E3
  8
2
 10
134.38698291084441
 20
129.77777894261331
 30
0.0
 11
134.38698291084441
 21
129.17777903861329
 31
0.0
  0
LINE
  5
2E4
  8
2
 10
136.38698291084441
 20
129.77777894261331
 30
0.0
 11
134.38698291084441
 21
129.77777894261331
 31
0.0
  0
LINE
  5
2E5
  8
2
 10
132.8869829108443
 20
129.77777894261331
 30
0.0
 11
132.8869829108443
 21
129.17777903861329
 31
0.0
  0
LINE
  5
2E6
  8
2
 10
132.8869829108443
 20
129.77777894261331
 30
0.0
 11
131.38698291084441
 21
129.77777894261331
 31
0.0
  0
LINE
  5
2E7
  8
0
 10
69.48698298214606
 20
119.7777789430617
 30
-6.9999999999999707
 11
69.48698298214606
 21
117.7777789430617
 31
-6.9999999999999707
  0
LINE
  5
2E8
  8
0
 10
75.136983077146056
 20
119.7777789430617
 30
-6.9999999999999707
 11
75.136983077146056
 21
117.7777789430617
 31
-6.9999999999999707
  0
LINE
  5
2E9
  8
0
 10
76.636983077146056
 20
119.7777789430617
 30
-6.9999999999999707
 11
76.636983077146056
 21
117.7777789430617
 31
-6.9999999999999707
  0
LINE
  5
2EA
  8
0
 10
82.286983172146066
 20
119.7777789430617
 30
-6.9999999999999707
 11
82.286983172146066
 21
117.7777789430617
 31
-6.9999999999999707
  0
LINE
  5
2EB
  8
0
 10
75.886982902898467
 20
117.7777789426646
 30
-6.9999999999999414
 11
75.386982910844381
 21
117.7777789426646
 31
-0.0000000000000213
  0
LINE
  5
2EC
  8
0
 10
82.63690675743635
 20
117.77777894216401
 30
-6.9999999999998836
 11
69.13705904836047
 21
117.7777789431652
 31
-6.9999999999999982
  0
LINE
  5
2ED
  8
0
 10
68.637059222607945
 20
119.7777789430623
 30
-6.9999999999999432
 11
82.286983172146066
 21
119.77777894306099
 31
-7.0
  0
LINE
  5
2EE
  8
2
 10
72.486982814844495
 20
40.777342946613203
 30
0.0
 11
72.486982814844495
 21
42.277342946613203
 31
0.0
  0
LINE
  5
2EF
  8
2
 10
71.886982910844495
 20
40.777342946613203
 30
0.0
 11
72.486982814844495
 21
40.777342946613203
 31
0.0
  0
LINE
  5
2F0
  8
2
 10
71.886982910844495
 20
42.277342946613203
 30
0.0
 11
71.886982910844495
 21
43.777342946613203
 31
0.0
  0
LINE
  5
2F1
  8
2
 10
71.886982910844495
 20
42.277342946613203
 30
0.0
 11
72.486982814844495
 21
42.277342946613203
 31
0.0
  0
LINE
  5
2F2
  8
2
 10
72.486982814844495
 20
37.27734294661321
 30
0.0
 11
72.486982814844495
 21
38.77734294661321
 31
0.0
  0
LINE
  5
2F3
  8
2
 10
71.886982910844495
 20
37.27734294661321
 30
0.0
 11
72.486982814844495
 21
37.27734294661321
 31
0.0
  0
LINE
  5
2F4
  8
2
 10
71.886982910844495
 20
35.77734294661321
 30
0.0
 11
71.886982910844495
 21
37.27734294661321
 31
0.0
  0
LINE
  5
2F5
  8
2
 10
73.736982814844495
 20
36.277342946613203
 30
0.0
 11
73.236982814844509
 21
35.77734294661321
 31
0.0
  0
LINE
  5
2F6
  8
2
 10
78.03698300684448
 20
36.277342946613203
 30
0.0
 11
78.53698300684448
 21
35.77734294661321
 31
0.0
  0
LINE
  5
2F7
  8
2
 10
78.03698300684448
 20
36.277342946613203
 30
0.0
 11
73.736982814844623
 21
36.277342946613203
 31
0.0
  0
LINE
  5
2F8
  8
2
 10
71.886982910844495
 20
38.77734294661321
 30
0.0
 11
72.486982814844495
 21
38.77734294661321
 31
0.0
  0
LINE
  5
2F9
  8
2
 10
73.736982814844495
 20
36.277342946613203
 30
0.0
 11
73.736982814844495
 21
43.777342946613203
 31
0.0
  0
LINE
  5
2FA
  8
2
 10
73.386982910844495
 20
35.927343042613188
 30
0.0
 11
73.386982910844495
 21
43.777342946613203
 31
0.0
  0
LINE
  5
2FB
  8
2
 10
78.386982910844495
 20
35.927343042613188
 30
0.0
 11
78.386982910844495
 21
43.777342946613203
 31
0.0
  0
LINE
  5
2FC
  8
2
 10
78.03698300684448
 20
36.277342946613203
 30
0.0
 11
78.03698300684448
 21
43.777342946613203
 31
0.0
  0
LINE
  5
2FD
  8
2
 10
71.886982910844495
 20
38.77734294661321
 30
0.0
 11
71.886982910844495
 21
40.777342946613203
 31
0.0
  0
LINE
  5
2FE
  8
2
 10
79.28698300684448
 20
40.777342946613203
 30
0.0
 11
79.28698300684448
 21
42.277342946613203
 31
0.0
  0
LINE
  5
2FF
  8
2
 10
79.886982910844495
 20
40.777342946613203
 30
0.0
 11
79.28698300684448
 21
40.777342946613203
 31
0.0
  0
LINE
  5
300
  8
2
 10
79.886982910844495
 20
42.277342946613203
 30
0.0
 11
79.28698300684448
 21
42.277342946613203
 31
0.0
  0
LINE
  5
301
  8
2
 10
79.886982910844495
 20
42.277342946613203
 30
0.0
 11
79.886982910844495
 21
43.777342946613203
 31
0.0
  0
LINE
  5
302
  8
2
 10
79.28698300684448
 20
37.27734294661321
 30
0.0
 11
79.28698300684448
 21
38.77734294661321
 31
0.0
  0
LINE
  5
303
  8
2
 10
79.886982910844495
 20
35.77734294661321
 30
0.0
 11
79.886982910844495
 21
37.27734294661321
 31
0.0
  0
LINE
  5
304
  8
2
 10
79.886982910844495
 20
37.27734294661321
 30
0.0
 11
79.28698300684448
 21
37.27734294661321
 31
0.0
  0
LINE
  5
305
  8
2
 10
79.886982910844495
 20
38.77734294661321
 30
0.0
 11
79.28698300684448
 21
38.77734294661321
 31
0.0
  0
LINE
  5
306
  8
2
 10
79.886982910844495
 20
38.77734294661321
 30
0.0
 11
79.886982910844495
 21
40.777342946613203
 31
0.0
  0
LINE
  5
307
  8
2
 10
79.886982910844495
 20
43.777342946613203
 30
0.0
 11
71.886982910844381
 21
43.777342946613203
 31
0.0
  0
LINE
  5
308
  8
2
 10
132.8869829108443
 20
148.77777894261331
 30
0.0
 11
131.38698291084441
 21
148.77777894261331
 31
0.0
  0
LINE
  5
309
  8
2
 10
132.8869829108443
 20
148.77777894261331
 30
0.0
 11
132.8869829108443
 21
148.17777903861329
 31
0.0
  0
LINE
  5
30A
  8
2
 10
136.38698291084441
 20
148.77777894261331
 30
0.0
 11
134.38698291084441
 21
148.77777894261331
 31
0.0
  0
LINE
  5
30B
  8
2
 10
134.38698291084441
 20
148.77777894261331
 30
0.0
 11
134.38698291084441
 21
148.17777903861329
 31
0.0
  0
LINE
  5
30C
  8
2
 10
136.38698291084441
 20
148.77777894261331
 30
0.0
 11
136.38698291084441
 21
148.17777903861329
 31
0.0
  0
LINE
  5
30D
  8
2
 10
134.38698291084441
 20
148.17777903861329
 30
0.0
 11
132.8869829108443
 21
148.17777903861329
 31
0.0
  0
LINE
  5
30E
  8
2
 10
137.88698291084441
 20
148.77777894261331
 30
0.0
 11
137.88698291084441
 21
148.17777903861329
 31
0.0
  0
LINE
  5
30F
  8
2
 10
139.38698291084441
 20
148.77777894261331
 30
0.0
 11
137.88698291084441
 21
148.77777894261331
 31
0.0
  0
LINE
  5
310
  8
2
 10
138.88698291084441
 20
146.92777903861329
 30
0.0
 11
139.38698291084441
 21
147.42777903861329
 31
0.0
  0
LINE
  5
311
  8
1
 10
128.88698291084449
 20
144.77777894261331
 30
0.0
 11
141.88698291084441
 21
144.77777894261331
 31
0.0
  0
LINE
  5
312
  8
2
 10
137.88698291084441
 20
148.17777903861329
 30
0.0
 11
136.38698291084441
 21
148.17777903861329
 31
0.0
  0
LINE
  5
313
  8
2
 10
138.88698291084441
 20
146.92777903861329
 30
0.0
 11
131.38698291084441
 21
146.92777903861329
 31
0.0
  0
LINE
  5
314
  8
2
 10
139.2369828148444
 20
147.27777894261331
 30
0.0
 11
131.38698291084441
 21
147.27777894261331
 31
0.0
  0
LINE
  5
315
  8
2
 10
132.8869829108443
 20
140.77777894261331
 30
0.0
 11
132.8869829108443
 21
141.3777788466133
 31
0.0
  0
LINE
  5
316
  8
2
 10
132.8869829108443
 20
140.77777894261331
 30
0.0
 11
131.38698291084441
 21
140.77777894261331
 31
0.0
  0
LINE
  5
317
  8
2
 10
134.38698291084441
 20
140.77777894261331
 30
0.0
 11
134.38698291084441
 21
141.3777788466133
 31
0.0
  0
LINE
  5
318
  8
2
 10
136.38698291084441
 20
140.77777894261331
 30
0.0
 11
134.38698291084441
 21
140.77777894261331
 31
0.0
  0
LINE
  5
319
  8
2
 10
136.38698291084441
 20
140.77777894261331
 30
0.0
 11
136.38698291084441
 21
141.3777788466133
 31
0.0
  0
LINE
  5
31A
  8
2
 10
134.38698291084441
 20
141.3777788466133
 30
0.0
 11
132.8869829108443
 21
141.3777788466133
 31
0.0
  0
LINE
  5
31B
  8
2
 10
139.38698291084441
 20
140.77777894261331
 30
0.0
 11
137.88698291084441
 21
140.77777894261331
 31
0.0
  0
LINE
  5
31C
  8
2
 10
138.88698291084441
 20
142.6277788466133
 30
0.0
 11
139.38698291084441
 21
142.1277788466133
 31
0.0
  0
LINE
  5
31D
  8
2
 10
137.88698291084441
 20
140.77777894261331
 30
0.0
 11
137.88698291084441
 21
141.3777788466133
 31
0.0
  0
LINE
  5
31E
  8
2
 10
137.88698291084441
 20
141.3777788466133
 30
0.0
 11
136.38698291084441
 21
141.3777788466133
 31
0.0
  0
LINE
  5
31F
  8
2
 10
139.2369828148444
 20
142.27777894261331
 30
0.0
 11
131.38698291084441
 21
142.27777894261331
 31
0.0
  0
LINE
  5
320
  8
2
 10
138.88698291084441
 20
142.6277788466133
 30
0.0
 11
131.38698291084441
 21
142.6277788466133
 31
0.0
  0
LINE
  5
321
  8
1
 10
128.88698291084449
 20
125.7777789426133
 30
0.0
 11
141.88698291084441
 21
125.7777789426133
 31
0.0
  0
LINE
  5
322
  8
2
 10
131.38698291084441
 20
140.77777894261331
 30
0.0
 11
131.38698291084421
 21
148.77777894261331
 31
0.0
  0
LINE
  5
323
  8
2
 10
138.88698291084441
 20
142.6277788466133
 30
0.0
 11
138.88698291084449
 21
146.92777903861329
 31
0.0
  0
LINE
  5
324
  8
1
 10
128.88698291084449
 20
92.777807552613268
 30
0.0
 11
141.88698291084441
 21
92.777807552613297
 31
0.0
  0
LINE
  5
325
  8
0
 10
83.136982910844495
 20
35.777342576613187
 30
0.0
 11
82.890479571844367
 21
49.899509421613232
 31
0.0
  0
LINE
  5
326
  8
0
 10
68.636982910844495
 20
35.777342576613187
 30
0.0
 11
68.883486249844623
 21
49.899509421613232
 31
0.0
  0
LINE
  5
327
  8
0
 10
68.636982910844495
 20
35.777342576613187
 30
0.0
 11
83.136982910844495
 21
35.777342576613187
 31
0.0
  0
LINE
  5
328
  8
1
 10
75.886982910844495
 20
30.77734257661319
 30
0.0
 11
75.886982910844495
 21
61.777342576613172
 31
0.0
  0
ARC
  5
329
  8
0
 10
75.886982910844608
 20
49.772697929196063
 30
0.0
 40
7.0046446474170976
 50
1.0373346017522269
 51
178.96266539824771
  0
LINE
  5
32A
  8
3
 10
77.136982968844563
 20
111.7777789426133
 30
0.0
 11
74.636982730844579
 21
111.7777789426133
 31
0.0
  0
LINE
  5
32B
  8
3
 10
77.136983903844452
 20
111.77777497361321
 30
0.0
 11
75.886981822844632
 21
116.7777832956131
 31
0.0
  0
LINE
  5
32C
  8
3
 10
75.886983668844664
 20
116.7777819726133
 30
0.0
 11
74.636984016844622
 21
111.7777833656131
 31
0.0
  0
LINE
  5
32D
  8
1
 10
75.886982910844608
 20
124.77777894306161
 30
0.0
 11
75.886982910844495
 21
81.777342576613165
 31
0.0
  0
LINE
  5
32E
  8
1
 10
75.386982910844608
 20
112.7777789427017
 30
0.0
 11
75.386982910844495
 21
155.77821530861311
 31
0.0
  0
ARC
  5
32F
  8
0
 10
-75.386982751789901
 20
143.52777750660891
 30
-14.00000000000005
 40
7.2500014360044531
210
0.0
220
0.0
230
-1.0
 50
0.0360705018968307
 51
179.96393450394589
  0
ARC
  5
330
  8
0
 10
82.136944984199886
 20
120.2778170276132
 30
-7.0
 40
0.500038086
 50
269.99563983499951
 51
359.99563614600061
  0
ARC
  5
331
  8
0
 10
82.63694482584458
 20
117.2777408576131
 30
-6.9999999999998836
 40
0.500038086
 50
0.004366311998841
 51
90.004361985998258
  0
ARC
  5
332
  8
0
 10
68.637021154199715
 20
120.2778170276132
 30
-6.9999999999999432
 40
0.500038086
 50
180.00436631199881
 51
270.00436198599829
  0
ARC
  5
333
  8
0
 10
69.137020995844637
 20
117.2777408586131
 30
-6.9999999999999982
 40
0.500038086
 50
89.995639834999466
 51
179.99563614600049
  0
ARC
  5
334
  8
0
 10
-75.886982910544134
 20
94.027780378617535
 30
-14.00000000000011
 40
7.2500014360041121
210
0.0
220
0.0
230
-1.0
 50
180.03607050189521
 51
359.96393450395573
  0
LINE
  5
335
  8
0
 10
68.636982910844722
 20
117.2777789426133
 30
-6.9999999999999982
 11
68.636982910844722
 21
94.023216147613326
 31
6.9999999999999982
  0
LINE
  5
336
  8
0
 10
83.136982910844722
 20
117.2777789426133
 30
-6.9999999999998836
 11
83.136982910844722
 21
94.023216147613326
 31
7.000000000000111
  0
LINE
  5
337
  8
0
 10
82.636983069200028
 20
120.2777789426133
 30
-7.0
 11
82.636982752489416
 21
143.53234173761331
 31
7.0
  0
LINE
  5
338
  8
0
 10
68.1369830691998
 20
120.2777789426133
 30
-6.9999999999999432
 11
68.136982752489189
 21
143.53234173761331
 31
7.000000000000056
  0
ARC
  5
339
  8
0
 10
125.3869829108444
 20
143.53234173661329
 30
0.0
 40
7.0
 50
91.000000000001776
 51
180.0
  0
LINE
  5
33A
  8
0
 10
139.38698291084441
 20
150.77777894261331
 30
0.0
 11
125.2648160658441
 21
150.53127560261331
 31
0.0
  0
ARC
  5
33B
  8
0
 10
118.8869829108444
 20
120.2777789426133
 30
0.0
 40
0.5
 50
180.0
 51
270.0
  0
ARC
  5
33C
  8
0
 10
118.8869829108444
 20
117.2777789426133
 30
0.0
 40
0.5
 50
90.0
 51
180.0
  0
LINE
  5
33D
  8
0
 10
118.9869828148444
 20
119.7777789426133
 30
0.0
 11
118.9869828148444
 21
117.7777789426133
 31
0.0
  0
LINE
  5
33E
  8
0
 10
131.78698300584429
 20
119.7777789426133
 30
0.0
 11
131.78698300584429
 21
117.7777789426133
 31
0.0
  0
LINE
  5
33F
  8
0
 10
118.9869828148444
 20
119.7777789426133
 30
0.0
 11
139.38698291084449
 21
119.7777789426133
 31
0.0
  0
ARC
  5
340
  8
0
 10
125.3869829108444
 20
94.023216147613326
 30
0.0
 40
7.0
 50
180.0
 51
268.99999999999829
  0
LINE
  5
341
  8
0
 10
118.3869829108443
 20
117.2777789426133
 30
0.0
 11
118.3869829108443
 21
94.023216147613326
 31
0.0
  0
LINE
  5
342
  8
0
 10
139.38698291084441
 20
117.7777789426133
 30
0.0
 11
139.38698291084441
 21
86.777778942613295
 31
0.0
  0
LINE
  5
343
  8
0
 10
139.38698291084441
 20
86.777778942613295
 30
0.0
 11
125.2648160658441
 21
87.024282281613324
 31
0.0
  0
LINE
  5
344
  8
0
 10
139.38698291084441
 20
117.7777789426133
 30
0.0
 11
118.8869829108444
 21
117.7777789426133
 31
0.0
  0
LINE
  5
345
  8
1
 10
128.88698291084449
 20
111.7778075526132
 30
0.0
 11
141.88698291084441
 21
111.7778075526133
 31
0.0
  0
LINE
  5
346
  8
0
 10
118.3869829108443
 20
120.2777789426133
 30
0.0
 11
118.3869829108443
 21
143.53234173661329
 31
0.0
  0
LINE
  5
347
  8
0
 10
139.38698291084441
 20
119.7777789426133
 30
0.0
 11
139.38698291084441
 21
150.77777894261331
 31
0.0
  0
LINE
  5
348
  8
1
 10
125.3869829108444
 20
82.02321614761334
 30
0.0
 11
125.3869829108444
 21
155.53234173661329
 31
0.0
  0
TEXT
  5
3F9
  8
0
 62
     3
 10
0.0
 20
0.0
 30
0.0
 40
10.0
  1
ESJB2864HH
  7
STANDARD1
  0
ENDSEC
  0
EOF
