  0
SECTION
  2
HEADER
  9
$ACADVER
  1
AC1009
  9
$INSBASE
 10
0.0
 20
0.0
 30
0.0
  9
$EXTMIN
 10
0.0
 20
-2.960436562073669
 30
-7.0
  9
$EXTMAX
 10
153.8869829108441
 20
216.27821530951019
 30
14.00000000000011
  9
$LIMMIN
 10
0.0
 20
0.0
  9
$LIMMAX
 10
375.0
 20
270.0
  9
$ORTHOMODE
 70
     1
  9
$REGENMODE
 70
     1
  9
$FILLMODE
 70
     1
  9
$QTEXTMODE
 70
     0
  9
$MIRRTEXT
 70
     0
  9
$DRAGMODE
 70
     2
  9
$LTSCALE
 40
5.0
  9
$OSMODE
 70
  3071
  9
$ATTMODE
 70
     1
  9
$TEXTSIZE
 40
0.2
  9
$TRACEWID
 40
0.05
  9
$TEXTSTYLE
  7
STANDARD
  9
$CLAYER
  8
0
  9
$CELTYPE
  6
BYLAYER
  9
$CECOLOR
 62
   256
  9
$DIMSCALE
 40
1.0
  9
$DIMASZ
 40
3.0
  9
$DIMEXO
 40
2.0
  9
$DIMDLI
 40
0.38
  9
$DIMRND
 40
0.0
  9
$DIMDLE
 40
0.0
  9
$DIMEXE
 40
2.0
  9
$DIMTP
 40
0.0
  9
$DIMTM
 40
0.0
  9
$DIMTXT
 40
3.2000000000000002
  9
$DIMCEN
 40
0.09
  9
$DIMTSZ
 40
0.0
  9
$DIMTOL
 70
     0
  9
$DIMLIM
 70
     0
  9
$DIMTIH
 70
     0
  9
$DIMTOH
 70
     0
  9
$DIMSE1
 70
     0
  9
$DIMSE2
 70
     0
  9
$DIMTAD
 70
     1
  9
$DIMZIN
 70
     0
  9
$DIMBLK
  1

  9
$DIMASO
 70
     1
  9
$DIMSHO
 70
     0
  9
$DIMPOST
  1

  9
$DIMAPOST
  1

  9
$DIMALT
 70
     0
  9
$DIMALTD
 70
     2
  9
$DIMALTF
 40
25.399999999999999
  9
$DIMLFAC
 40
1.0
  9
$DIMTOFL
 70
     0
  9
$DIMTVP
 40
1.6000000000000001
  9
$DIMTIX
 70
     1
  9
$DIMSOXD
 70
     0
  9
$DIMSAH
 70
     0
  9
$DIMBLK1
  1

  9
$DIMBLK2
  1

  9
$DIMSTYLE
  2
STANDARD
  9
$DIMCLRD
 70
     0
  9
$DIMCLRE
 70
     0
  9
$DIMCLRT
 70
     0
  9
$DIMTFAC
 40
1.0
  9
$DIMGAP
 40
0.09
  9
$LUNITS
 70
     2
  9
$LUPREC
 70
     4
  9
$SKETCHINC
 40
0.1
  9
$FILLETRAD
 40
2.0
  9
$AUNITS
 70
     0
  9
$AUPREC
 70
     0
  9
$MENU
  1
E:\r13\win\SUPPORT\ACAD
  9
$ELEVATION
 40
0.0
  9
$PELEVATION
 40
0.0
  9
$THICKNESS
 40
0.0
  9
$LIMCHECK
 70
     0
  9
$BLIPMODE
 70
     0
  9
$CHAMFERA
 40
0.0
  9
$CHAMFERB
 40
0.0
  9
$SKPOLY
 70
     0
  9
$TDCREATE
 40
2447977.5416277782
  9
$TDUPDATE
 40
2456598.6874551042
  9
$TDINDWG
 40
0.0108752546
  9
$TDUSRTIMER
 40
0.0108752546
  9
$USRTIMER
 70
     1
  9
$ANGBASE
 50
0.0
  9
$ANGDIR
 70
     0
  9
$PDMODE
 70
     0
  9
$PDSIZE
 40
0.0
  9
$PLINEWID
 40
0.0
  9
$COORDS
 70
     1
  9
$SPLFRAME
 70
     0
  9
$SPLINETYPE
 70
     6
  9
$SPLINESEGS
 70
     8
  9
$ATTDIA
 70
     0
  9
$ATTREQ
 70
     1
  9
$HANDLING
 70
     1
  9
$HANDSEED
  5
5B3
  9
$SURFTAB1
 70
     6
  9
$SURFTAB2
 70
     6
  9
$SURFTYPE
 70
     6
  9
$SURFU
 70
     6
  9
$SURFV
 70
     6
  9
$UCSNAME
  2

  9
$UCSORG
 10
0.0
 20
0.0
 30
0.0
  9
$UCSXDIR
 10
1.0
 20
0.0
 30
0.0
  9
$UCSYDIR
 10
0.0
 20
1.0
 30
0.0
  9
$PUCSNAME
  2

  9
$PUCSORG
 10
0.0
 20
0.0
 30
0.0
  9
$PUCSXDIR
 10
1.0
 20
0.0
 30
0.0
  9
$PUCSYDIR
 10
0.0
 20
1.0
 30
0.0
  9
$USERI1
 70
     0
  9
$USERI2
 70
     1
  9
$USERI3
 70
     1
  9
$USERI4
 70
     0
  9
$USERI5
 70
     0
  9
$USERR1
 40
0.0
  9
$USERR2
 40
0.0
  9
$USERR3
 40
0.0
  9
$USERR4
 40
0.0
  9
$USERR5
 40
0.0
  9
$WORLDVIEW
 70
     1
  9
$SHADEDGE
 70
     3
  9
$SHADEDIF
 70
    70
  9
$TILEMODE
 70
     1
  9
$MAXACTVP
 70
    16
  9
$PLIMCHECK
 70
     0
  9
$PEXTMIN
 10
1.0000000000000000E+020
 20
1.0000000000000000E+020
 30
1.0000000000000000E+020
  9
$PEXTMAX
 10
-1.0000000000000000E+020
 20
-1.0000000000000000E+020
 30
-1.0000000000000000E+020
  9
$PLIMMIN
 10
0.0
 20
0.0
  9
$PLIMMAX
 10
12.0
 20
9.0
  9
$UNITMODE
 70
     0
  9
$VISRETAIN
 70
     0
  9
$PLINEGEN
 70
     1
  9
$PSLTSCALE
 70
     0
  0
ENDSEC
  0
SECTION
  2
TABLES
  0
TABLE
  2
VPORT
 70
     1
  0
VPORT
  2
*ACTIVE
 70
     0
 10
0.0
 20
0.0
 11
1.0
 21
1.0
 12
187.49427839065231
 22
169.9063198933564
 13
0.0
 23
0.0
 14
10.0
 24
10.0
 15
10.0
 25
10.0
 16
0.0
 26
0.0
 36
1.0
 17
0.0
 27
0.0
 37
0.0
 40
348.89937369551939
 41
1.831871345029239
 42
50.0
 43
0.0
 44
0.0
 50
0.0
 51
0.0
 71
     0
 72
   500
 73
     1
 74
     0
 75
     0
 76
     0
 77
     0
 78
     2
  0
ENDTAB
  0
TABLE
  2
LTYPE
 70
     4
  0
LTYPE
  2
CONTINUOUS
 70
     0
  3
Solid Line
 72
    65
 73
     0
 40
0.0
  0
LTYPE
  2
CENTER
 70
     0
  3
____ _ ____ _ ____ _ ____ _ ____ _ ____ _ ____
 72
    65
 73
     4
 40
2.0
 49
1.25
 49
-0.25
 49
0.25
 49
-0.25
  0
LTYPE
  2
HIDDEN
 70
     0
  3
_ _ _ _ _ _ _ _ _ _ _ _ _ _ _ _ _ _ _ _ _ _ _
 72
    65
 73
     2
 40
0.375
 49
0.25
 49
-0.125
  0
LTYPE
  2
PHANTOM2
 70
     0
  3
___ _ _ ___ _ _ ___ _ _ ___ _ _
 72
    65
 73
     6
 40
1.25
 49
0.625
 49
-0.125
 49
0.125
 49
-0.125
 49
0.125
 49
-0.125
  0
ENDTAB
  0
TABLE
  2
LAYER
 70
     4
  0
LAYER
  2
0
 70
     0
 62
     7
  6
CONTINUOUS
  0
LAYER
  2
1
 70
     0
 62
     1
  6
CENTER
  0
LAYER
  2
2
 70
     0
 62
     2
  6
HIDDEN
  0
LAYER
  2
3
 70
     0
 62
     3
  6
CONTINUOUS
  0
ENDTAB
  0
TABLE
  2
STYLE
 70
     2
  0
STYLE
  2
STANDARD
 70
     0
 40
0.0
 41
1.0
 50
0.0
 71
     0
 42
0.2
  3
TXT
  4
BIGFONT
  0
STYLE
  2
STANDARD1
 70
     0
 40
0.0
 41
1.0
 50
0.0
 71
     0
 42
3.0
  3
txt
  4

  0
ENDTAB
  0
TABLE
  2
VIEW
 70
     1
  0
VIEW
  2
ALL
 70
     0
 40
270.0
 10
220.99159663865549
 20
135.0
 41
0.0
 11
0.0
 21
0.0
 31
1.0
 12
0.0
 22
0.0
 32
0.0
 42
0.0
 43
0.0
 44
0.0
 50
0.0
 71
     0
  0
ENDTAB
  0
TABLE
  2
UCS
 70
     0
  0
ENDTAB
  0
TABLE
  2
APPID
 70
     3
  0
APPID
  2
ACAD
 70
     0
  0
APPID
  2
ACAD_MLEADERVER
 70
     0
  0
APPID
  2
ACAD_NAV_VCDISPLAY
 70
     0
  0
ENDTAB
  0
TABLE
  2
DIMSTYLE
 70
     1
  0
DIMSTYLE
  2
STANDARD
 70
     0
  3

  4

  5

  6

  7

 40
1.0
 41
0.18
 42
0.0625
 43
0.38
 44
0.18
 45
0.0
 46
0.0
 47
0.0
 48
0.0
140
0.18
141
0.09
142
0.0
143
25.399999999999999
144
1.0
145
0.0
146
1.0
147
0.09
 71
     0
 72
     0
 73
     1
 74
     1
 75
     0
 76
     0
 77
     0
 78
     0
170
     0
171
     2
172
     0
173
     0
174
     0
175
     0
176
     0
177
     0
178
     0
  0
ENDTAB
  0
ENDSEC
  0
SECTION
  2
BLOCKS
  0
BLOCK
  8
0
  2
$MODEL_SPACE
 70
     0
 10
0.0
 20
0.0
 30
0.0
  3
$MODEL_SPACE
  1

  0
ENDBLK
  5
19F
  8
0
  0
BLOCK
 67
     1
  8
0
  2
$PAPER_SPACE
 70
     0
 10
0.0
 20
0.0
 30
0.0
  3
$PAPER_SPACE
  1

  0
ENDBLK
  5
19D
 67
     1
  8
0
  0
ENDSEC
  0
SECTION
  2
ENTITIES
  0
LINE
  5
3C7
  8
0
 10
76.986982910844503
 20
213.77821530951019
 30
0.0
 11
77.886982910844608
 21
212.87821530951021
 31
0.0
  0
LINE
  5
3C8
  8
3
 10
77.453982910844616
 20
201.77821530951019
 30
0.0
 11
77.453982910844616
 21
213.31121530951
 31
0.0
  0
LINE
  5
3C9
  8
0
 10
77.886982910844608
 20
201.77821530951019
 30
0.0
 11
77.886982910844608
 21
212.87821530951021
 31
0.0
  0
LINE
  5
3CA
  8
0
 10
72.886982910844608
 20
212.87821530951021
 30
0.0
 11
77.886982910844608
 21
212.87821530951021
 31
0.0
  0
LINE
  5
3CB
  8
0
 10
72.886982910844608
 20
212.87821530951021
 30
0.0
 11
73.786982910844699
 21
213.77821530951019
 31
0.0
  0
LINE
  5
3CC
  8
0
 10
73.786982910844699
 20
213.77821530951019
 30
0.0
 11
76.986982910844503
 21
213.77821530951019
 31
0.0
  0
LINE
  5
3CD
  8
0
 10
72.886982910844608
 20
201.77821530951019
 30
0.0
 11
72.886982910844608
 21
212.87821530951021
 31
0.0
  0
LINE
  5
3CE
  8
3
 10
73.319982910844601
 20
201.77821530951019
 30
0.0
 11
73.319982910844374
 21
213.31121530950989
 31
0.0
  0
ARC
  5
3CF
  8
0
 10
75.386982910844495
 20
187.78285995692741
 30
0.0
 40
7.0046446474170976
 50
181.03733460175221
 51
358.96266539824779
  0
LINE
  5
3D0
  8
1
 10
75.386982910844608
 20
216.27821530951019
 30
0.0
 11
75.386982910844608
 21
175.7782153095103
 31
0.0
  0
LINE
  5
3D1
  8
0
 10
82.636982910844608
 20
201.77821530951019
 30
0.0
 11
68.136982910844608
 21
201.77821530951019
 31
0.0
  0
LINE
  5
3D2
  8
0
 10
82.636982910844608
 20
201.77821530951019
 30
0.0
 11
82.39047957184448
 21
187.65604846451021
 31
0.0
  0
LINE
  5
3D3
  8
0
 10
68.136982910844608
 20
201.77821530951019
 30
0.0
 11
68.383486249844736
 21
187.65604846451021
 31
0.0
  0
LINE
  5
3D4
  8
1
 10
87.391626659744816
 20
187.77821530951019
 30
0.0
 11
63.382339161944167
 21
187.77821530951019
 31
0.0
  0
CIRCLE
  5
3D5
  8
2
 10
75.386982910844495
 20
187.78285995692741
 30
0.0
 40
4.0
  0
LINE
  5
3D6
  8
1
 10
136.88698291084441
 20
125.7777789426133
 30
0.0
 11
153.8869829108441
 21
125.7777789426133
 31
0.0
  0
LINE
  5
3D7
  8
0
 10
150.48698291084429
 20
128.27777894261331
 30
0.0
 11
150.48698291084429
 21
123.2777789426133
 31
0.0
  0
LINE
  5
3D8
  8
0
 10
151.3869829108443
 20
124.1777789426133
 30
0.0
 11
150.48698291084429
 21
123.2777789426133
 31
0.0
  0
LINE
  5
3D9
  8
0
 10
150.48698291084429
 20
128.27777894261331
 30
0.0
 11
151.3869829108443
 21
127.3777789426133
 31
0.0
  0
LINE
  5
3DA
  8
0
 10
151.3869829108443
 20
127.3777789426133
 30
0.0
 11
151.3869829108443
 21
124.1777789426133
 31
0.0
  0
LINE
  5
3DB
  8
0
 10
139.3869829108441
 20
128.27777894261331
 30
0.0
 11
150.48698291084429
 21
128.27777894261331
 31
0.0
  0
LINE
  5
3DC
  8
3
 10
139.38698291084441
 20
127.8447789426135
 30
0.0
 11
150.9199829108438
 21
127.8447789426135
 31
0.0
  0
LINE
  5
3DD
  8
3
 10
139.3869829108441
 20
123.7107789426131
 30
0.0
 11
150.919982910844
 21
123.7107789426131
 31
0.0
  0
LINE
  5
3DE
  8
0
 10
139.3869829108441
 20
123.2777789426133
 30
0.0
 11
150.48698291084429
 21
123.2777789426133
 31
0.0
  0
LINE
  5
3DF
  8
0
 10
139.3869829108441
 20
142.27777894261331
 30
0.0
 11
150.48698291084429
 21
142.27777894261331
 31
0.0
  0
LINE
  5
3E0
  8
3
 10
139.3869829108441
 20
142.7107789426131
 30
0.0
 11
150.919982910844
 21
142.7107789426131
 31
0.0
  0
LINE
  5
3E1
  8
3
 10
139.38698291084441
 20
146.84477894261349
 30
0.0
 11
150.9199829108438
 21
146.84477894261349
 31
0.0
  0
LINE
  5
3E2
  8
0
 10
139.3869829108441
 20
147.27777894261331
 30
0.0
 11
150.48698291084429
 21
147.27777894261331
 31
0.0
  0
LINE
  5
3E3
  8
0
 10
151.3869829108443
 20
146.3777789426133
 30
0.0
 11
151.3869829108443
 21
143.17777894261329
 31
0.0
  0
LINE
  5
3E4
  8
0
 10
150.48698291084429
 20
147.27777894261331
 30
0.0
 11
151.3869829108443
 21
146.3777789426133
 31
0.0
  0
LINE
  5
3E5
  8
0
 10
151.3869829108443
 20
143.17777894261329
 30
0.0
 11
150.48698291084429
 21
142.27777894261331
 31
0.0
  0
LINE
  5
3E6
  8
0
 10
150.48698291084429
 20
147.27777894261331
 30
0.0
 11
150.48698291084429
 21
142.27777894261331
 31
0.0
  0
LINE
  5
3E7
  8
1
 10
136.88698291084441
 20
144.77777894261331
 30
0.0
 11
153.8869829108441
 21
144.77777894261331
 31
0.0
  0
LINE
  5
3E8
  8
1
 10
125.38698291084449
 20
82.02321614761334
 30
0.0
 11
125.38698291084449
 21
155.53234173661329
 31
0.0
  0
LINE
  5
3E9
  8
0
 10
139.38698291084449
 20
119.7777789426133
 30
0.0
 11
139.38698291084449
 21
150.77777894261331
 31
0.0
  0
LINE
  5
3EA
  8
0
 10
118.38698291084449
 20
120.2777789426133
 30
0.0
 11
118.38698291084449
 21
143.53234173661329
 31
0.0
  0
LINE
  5
3EB
  8
1
 10
128.88698291084461
 20
111.7778075526132
 30
0.0
 11
141.88698291084449
 21
111.7778075526133
 31
0.0
  0
LINE
  5
3EC
  8
0
 10
139.38698291084449
 20
117.7777789426133
 30
0.0
 11
118.88698291084449
 21
117.7777789426133
 31
0.0
  0
LINE
  5
3ED
  8
0
 10
139.38698291084449
 20
86.777778942613295
 30
0.0
 11
125.2648160658442
 21
87.024282281613324
 31
0.0
  0
LINE
  5
3EE
  8
0
 10
139.38698291084449
 20
117.7777789426133
 30
0.0
 11
139.38698291084449
 21
86.777778942613295
 31
0.0
  0
LINE
  5
3EF
  8
0
 10
118.38698291084449
 20
117.2777789426133
 30
0.0
 11
118.38698291084449
 21
94.023216147613326
 31
0.0
  0
ARC
  5
3F0
  8
0
 10
125.38698291084449
 20
94.023216147613326
 30
0.0
 40
7.0
 50
180.0
 51
268.99999999999829
  0
LINE
  5
3F1
  8
0
 10
118.9869828148445
 20
119.7777789426133
 30
0.0
 11
139.38698291084461
 21
119.7777789426133
 31
0.0
  0
LINE
  5
3F2
  8
0
 10
131.78698300584449
 20
119.7777789426133
 30
0.0
 11
131.78698300584449
 21
117.7777789426133
 31
0.0
  0
LINE
  5
3F3
  8
0
 10
118.9869828148445
 20
119.7777789426133
 30
0.0
 11
118.9869828148445
 21
117.7777789426133
 31
0.0
  0
ARC
  5
3F4
  8
0
 10
118.88698291084449
 20
117.2777789426133
 30
0.0
 40
0.5
 50
90.0
 51
180.0
  0
ARC
  5
3F5
  8
0
 10
118.88698291084449
 20
120.2777789426133
 30
0.0
 40
0.5
 50
180.0
 51
270.0
  0
LINE
  5
3F6
  8
0
 10
139.38698291084449
 20
150.77777894261331
 30
0.0
 11
125.2648160658442
 21
150.53127560261331
 31
0.0
  0
ARC
  5
3F7
  8
0
 10
125.38698291084449
 20
143.53234173661329
 30
0.0
 40
7.0
 50
91.000000000001776
 51
180.0
  0
LINE
  5
3F8
  8
0
 10
68.136983069199914
 20
120.2777789426133
 30
-6.9999999999999432
 11
68.136982752489303
 21
143.53234173761331
 31
7.000000000000056
  0
LINE
  5
3F9
  8
0
 10
82.636983069200141
 20
120.2777789426133
 30
-7.0
 11
82.636982752489544
 21
143.53234173761331
 31
7.0
  0
LINE
  5
3FA
  8
0
 10
83.136982910844836
 20
117.2777789426133
 30
-6.9999999999998836
 11
83.136982910844836
 21
94.023216147613326
 31
7.000000000000111
  0
LINE
  5
3FB
  8
0
 10
68.636982910844836
 20
117.2777789426133
 30
-6.9999999999999982
 11
68.636982910844836
 21
94.023216147613326
 31
6.9999999999999982
  0
ARC
  5
3FC
  8
0
 10
-75.886982910544234
 20
94.027780378617535
 30
-14.00000000000011
 40
7.2500014360041121
210
0.0
220
0.0
230
-1.0
 50
180.03607050189521
 51
359.96393450395573
  0
ARC
  5
3FD
  8
0
 10
69.13702099584475
 20
117.2777408586131
 30
-6.9999999999999982
 40
0.500038086
 50
89.995639834999466
 51
179.99563614600049
  0
ARC
  5
3FE
  8
0
 10
68.637021154199815
 20
120.2778170276132
 30
-6.9999999999999432
 40
0.500038086
 50
180.00436631199881
 51
270.00436198599829
  0
ARC
  5
3FF
  8
0
 10
82.636944825844694
 20
117.2777408576131
 30
-6.9999999999998836
 40
0.500038086
 50
0.004366311998841
 51
90.004361985998258
  0
ARC
  5
400
  8
0
 10
82.136944984199999
 20
120.2778170276132
 30
-7.0
 40
0.500038086
 50
269.99563983499951
 51
359.99563614600061
  0
ARC
  5
401
  8
0
 10
-75.386982751790015
 20
143.52777750660891
 30
-14.00000000000005
 40
7.2500014360044531
210
0.0
220
0.0
230
-1.0
 50
0.0360705018968307
 51
179.96393450394589
  0
LINE
  5
402
  8
1
 10
75.386982910844722
 20
112.7777789427017
 30
0.0
 11
75.386982910844608
 21
155.77821530861311
 31
0.0
  0
LINE
  5
403
  8
1
 10
75.886982910844722
 20
124.77777894306161
 30
0.0
 11
75.886982910844608
 21
81.777342576613165
 31
0.0
  0
LINE
  5
404
  8
3
 10
75.886983668844778
 20
116.7777819726133
 30
0.0
 11
74.636984016844735
 21
111.7777833656131
 31
0.0
  0
LINE
  5
405
  8
3
 10
77.136983903844566
 20
111.77777497361321
 30
0.0
 11
75.886981822844746
 21
116.7777832956131
 31
0.0
  0
LINE
  5
406
  8
3
 10
77.136982968844677
 20
111.7777789426133
 30
0.0
 11
74.636982730844693
 21
111.7777789426133
 31
0.0
  0
ARC
  5
407
  8
0
 10
75.886982910844722
 20
49.772697929196063
 30
0.0
 40
7.0046446474170976
 50
1.0373346017522269
 51
178.96266539824771
  0
LINE
  5
408
  8
1
 10
75.886982910844608
 20
30.77734257661319
 30
0.0
 11
75.886982910844608
 21
61.777342576613172
 31
0.0
  0
LINE
  5
409
  8
0
 10
68.636982910844594
 20
35.777342576613187
 30
0.0
 11
83.136982910844608
 21
35.777342576613187
 31
0.0
  0
LINE
  5
40A
  8
0
 10
68.636982910844594
 20
35.777342576613187
 30
0.0
 11
68.883486249844736
 21
49.899509421613232
 31
0.0
  0
LINE
  5
40B
  8
0
 10
83.136982910844608
 20
35.777342576613187
 30
0.0
 11
82.890479571844494
 21
49.899509421613232
 31
0.0
  0
LINE
  5
40C
  8
1
 10
128.88698291084461
 20
92.777807552613268
 30
0.0
 11
141.88698291084449
 21
92.777807552613297
 31
0.0
  0
LINE
  5
40D
  8
2
 10
79.886982910844594
 20
43.777342946613203
 30
0.0
 11
71.886982910844495
 21
43.777342946613203
 31
0.0
  0
LINE
  5
40E
  8
2
 10
79.886982910844594
 20
38.77734294661321
 30
0.0
 11
79.886982910844594
 21
40.777342946613203
 31
0.0
  0
LINE
  5
40F
  8
2
 10
79.886982910844594
 20
38.77734294661321
 30
0.0
 11
79.286983006844594
 21
38.77734294661321
 31
0.0
  0
LINE
  5
410
  8
2
 10
79.886982910844594
 20
37.27734294661321
 30
0.0
 11
79.286983006844594
 21
37.27734294661321
 31
0.0
  0
LINE
  5
411
  8
2
 10
79.886982910844594
 20
35.77734294661321
 30
0.0
 11
79.886982910844594
 21
37.27734294661321
 31
0.0
  0
LINE
  5
412
  8
2
 10
79.286983006844594
 20
37.27734294661321
 30
0.0
 11
79.286983006844594
 21
38.77734294661321
 31
0.0
  0
LINE
  5
413
  8
2
 10
79.886982910844594
 20
42.277342946613203
 30
0.0
 11
79.886982910844594
 21
43.777342946613203
 31
0.0
  0
LINE
  5
414
  8
2
 10
79.886982910844594
 20
42.277342946613203
 30
0.0
 11
79.286983006844594
 21
42.277342946613203
 31
0.0
  0
LINE
  5
415
  8
2
 10
79.886982910844594
 20
40.777342946613203
 30
0.0
 11
79.286983006844594
 21
40.777342946613203
 31
0.0
  0
LINE
  5
416
  8
2
 10
79.286983006844594
 20
40.777342946613203
 30
0.0
 11
79.286983006844594
 21
42.277342946613203
 31
0.0
  0
LINE
  5
417
  8
2
 10
71.886982910844608
 20
38.77734294661321
 30
0.0
 11
71.886982910844608
 21
40.777342946613203
 31
0.0
  0
LINE
  5
418
  8
2
 10
78.036983006844594
 20
36.277342946613203
 30
0.0
 11
78.036983006844594
 21
43.777342946613203
 31
0.0
  0
LINE
  5
419
  8
2
 10
78.386982910844608
 20
35.927343042613188
 30
0.0
 11
78.386982910844608
 21
43.777342946613203
 31
0.0
  0
LINE
  5
41A
  8
2
 10
73.386982910844608
 20
35.927343042613188
 30
0.0
 11
73.386982910844608
 21
43.777342946613203
 31
0.0
  0
LINE
  5
41B
  8
2
 10
73.736982814844623
 20
36.277342946613203
 30
0.0
 11
73.736982814844623
 21
43.777342946613203
 31
0.0
  0
LINE
  5
41C
  8
2
 10
71.886982910844608
 20
38.77734294661321
 30
0.0
 11
72.486982814844623
 21
38.77734294661321
 31
0.0
  0
LINE
  5
41D
  8
2
 10
78.036983006844594
 20
36.277342946613203
 30
0.0
 11
73.736982814844737
 21
36.277342946613203
 31
0.0
  0
LINE
  5
41E
  8
2
 10
78.036983006844594
 20
36.277342946613203
 30
0.0
 11
78.536983006844594
 21
35.77734294661321
 31
0.0
  0
LINE
  5
41F
  8
2
 10
73.736982814844623
 20
36.277342946613203
 30
0.0
 11
73.236982814844623
 21
35.77734294661321
 31
0.0
  0
LINE
  5
420
  8
2
 10
71.886982910844608
 20
35.77734294661321
 30
0.0
 11
71.886982910844608
 21
37.27734294661321
 31
0.0
  0
LINE
  5
421
  8
2
 10
71.886982910844608
 20
37.27734294661321
 30
0.0
 11
72.486982814844623
 21
37.27734294661321
 31
0.0
  0
LINE
  5
422
  8
2
 10
72.486982814844623
 20
37.27734294661321
 30
0.0
 11
72.486982814844623
 21
38.77734294661321
 31
0.0
  0
LINE
  5
423
  8
2
 10
71.886982910844608
 20
42.277342946613203
 30
0.0
 11
72.486982814844623
 21
42.277342946613203
 31
0.0
  0
LINE
  5
424
  8
2
 10
71.886982910844608
 20
42.277342946613203
 30
0.0
 11
71.886982910844608
 21
43.777342946613203
 31
0.0
  0
LINE
  5
425
  8
2
 10
71.886982910844608
 20
40.777342946613203
 30
0.0
 11
72.486982814844623
 21
40.777342946613203
 31
0.0
  0
LINE
  5
426
  8
2
 10
72.486982814844623
 20
40.777342946613203
 30
0.0
 11
72.486982814844623
 21
42.277342946613203
 31
0.0
  0
LINE
  5
427
  8
0
 10
68.637059222608045
 20
119.7777789430623
 30
-6.9999999999999432
 11
82.286983172146165
 21
119.77777894306099
 31
-7.0
  0
LINE
  5
428
  8
0
 10
82.636906757436464
 20
117.77777894216401
 30
-6.9999999999998836
 11
69.137059048360584
 21
117.7777789431652
 31
-6.9999999999999982
  0
LINE
  5
429
  8
0
 10
75.886982902898581
 20
117.7777789426646
 30
-6.9999999999999414
 11
75.386982910844495
 21
117.7777789426646
 31
-0.0000000000000213
  0
LINE
  5
42A
  8
0
 10
82.286983172146165
 20
119.7777789430617
 30
-6.9999999999999707
 11
82.286983172146165
 21
117.7777789430617
 31
-6.9999999999999707
  0
LINE
  5
42B
  8
0
 10
76.636983077146169
 20
119.7777789430617
 30
-6.9999999999999707
 11
76.636983077146169
 21
117.7777789430617
 31
-6.9999999999999707
  0
LINE
  5
42C
  8
0
 10
75.136983077146169
 20
119.7777789430617
 30
-6.9999999999999707
 11
75.136983077146169
 21
117.7777789430617
 31
-6.9999999999999707
  0
LINE
  5
42D
  8
0
 10
69.486982982146174
 20
119.7777789430617
 30
-6.9999999999999707
 11
69.486982982146174
 21
117.7777789430617
 31
-6.9999999999999707
  0
LINE
  5
42E
  8
2
 10
138.88698291084449
 20
109.6278074566133
 30
0.0
 11
138.88698291084461
 21
113.9278076486132
 31
0.0
  0
LINE
  5
42F
  8
2
 10
131.38698291084449
 20
107.7778075526133
 30
0.0
 11
131.38698291084441
 21
115.7778075526133
 31
0.0
  0
LINE
  5
430
  8
2
 10
138.88698291084449
 20
109.6278074566133
 30
0.0
 11
131.38698291084449
 21
109.6278074566133
 31
0.0
  0
LINE
  5
431
  8
2
 10
139.23698281484451
 20
109.2778075526133
 30
0.0
 11
131.38698291084449
 21
109.2778075526133
 31
0.0
  0
LINE
  5
432
  8
2
 10
137.88698291084449
 20
108.3778074566133
 30
0.0
 11
136.38698291084449
 21
108.3778074566133
 31
0.0
  0
LINE
  5
433
  8
2
 10
137.88698291084449
 20
107.7778075526133
 30
0.0
 11
137.88698291084449
 21
108.3778074566133
 31
0.0
  0
LINE
  5
434
  8
2
 10
138.88698291084449
 20
109.6278074566133
 30
0.0
 11
139.38698291084449
 21
109.1278074566133
 31
0.0
  0
LINE
  5
435
  8
2
 10
139.38698291084449
 20
107.7778075526133
 30
0.0
 11
137.88698291084449
 21
107.7778075526133
 31
0.0
  0
LINE
  5
436
  8
2
 10
134.38698291084449
 20
108.3778074566133
 30
0.0
 11
132.88698291084449
 21
108.3778074566133
 31
0.0
  0
LINE
  5
437
  8
2
 10
136.38698291084449
 20
107.7778075526133
 30
0.0
 11
136.38698291084449
 21
108.3778074566133
 31
0.0
  0
LINE
  5
438
  8
2
 10
136.38698291084449
 20
107.7778075526133
 30
0.0
 11
134.38698291084449
 21
107.7778075526133
 31
0.0
  0
LINE
  5
439
  8
2
 10
134.38698291084449
 20
107.7778075526133
 30
0.0
 11
134.38698291084449
 21
108.3778074566133
 31
0.0
  0
LINE
  5
43A
  8
2
 10
132.88698291084449
 20
107.7778075526133
 30
0.0
 11
131.38698291084449
 21
107.7778075526133
 31
0.0
  0
LINE
  5
43B
  8
2
 10
132.88698291084449
 20
107.7778075526133
 30
0.0
 11
132.88698291084449
 21
108.3778074566133
 31
0.0
  0
LINE
  5
43C
  8
2
 10
139.23698281484451
 20
114.2778075526133
 30
0.0
 11
131.38698291084449
 21
114.2778075526133
 31
0.0
  0
LINE
  5
43D
  8
2
 10
138.88698291084449
 20
113.9278076486132
 30
0.0
 11
131.38698291084449
 21
113.9278076486132
 31
0.0
  0
LINE
  5
43E
  8
2
 10
137.88698291084449
 20
115.1778076486133
 30
0.0
 11
136.38698291084449
 21
115.1778076486133
 31
0.0
  0
LINE
  5
43F
  8
2
 10
138.88698291084449
 20
113.9278076486132
 30
0.0
 11
139.38698291084449
 21
114.4278076486133
 31
0.0
  0
LINE
  5
440
  8
2
 10
139.38698291084449
 20
115.7778075526133
 30
0.0
 11
137.88698291084449
 21
115.7778075526133
 31
0.0
  0
LINE
  5
441
  8
2
 10
137.88698291084449
 20
115.7778075526133
 30
0.0
 11
137.88698291084449
 21
115.1778076486133
 31
0.0
  0
LINE
  5
442
  8
2
 10
134.38698291084449
 20
115.1778076486133
 30
0.0
 11
132.88698291084449
 21
115.1778076486133
 31
0.0
  0
LINE
  5
443
  8
2
 10
136.38698291084449
 20
115.7778075526133
 30
0.0
 11
136.38698291084449
 21
115.1778076486133
 31
0.0
  0
LINE
  5
444
  8
2
 10
134.38698291084449
 20
115.7778075526133
 30
0.0
 11
134.38698291084449
 21
115.1778076486133
 31
0.0
  0
LINE
  5
445
  8
2
 10
136.38698291084449
 20
115.7778075526133
 30
0.0
 11
134.38698291084449
 21
115.7778075526133
 31
0.0
  0
LINE
  5
446
  8
2
 10
132.88698291084449
 20
115.7778075526133
 30
0.0
 11
132.88698291084449
 21
115.1778076486133
 31
0.0
  0
LINE
  5
447
  8
2
 10
132.88698291084449
 20
115.7778075526133
 30
0.0
 11
131.38698291084449
 21
115.7778075526133
 31
0.0
  0
LINE
  5
448
  8
2
 10
132.8869829108443
 20
96.777807552613311
 30
0.0
 11
131.38698291084441
 21
96.777807552613311
 31
0.0
  0
LINE
  5
449
  8
2
 10
132.8869829108443
 20
96.777807552613311
 30
0.0
 11
132.8869829108443
 21
96.177807648613296
 31
0.0
  0
LINE
  5
44A
  8
2
 10
136.38698291084441
 20
96.777807552613311
 30
0.0
 11
134.38698291084441
 21
96.777807552613311
 31
0.0
  0
LINE
  5
44B
  8
2
 10
134.38698291084441
 20
96.777807552613311
 30
0.0
 11
134.38698291084441
 21
96.177807648613296
 31
0.0
  0
LINE
  5
44C
  8
2
 10
136.38698291084441
 20
96.777807552613311
 30
0.0
 11
136.38698291084441
 21
96.177807648613296
 31
0.0
  0
LINE
  5
44D
  8
2
 10
134.38698291084441
 20
96.177807648613296
 30
0.0
 11
132.8869829108443
 21
96.177807648613296
 31
0.0
  0
LINE
  5
44E
  8
2
 10
137.88698291084441
 20
96.777807552613311
 30
0.0
 11
137.88698291084441
 21
96.177807648613296
 31
0.0
  0
LINE
  5
44F
  8
2
 10
139.38698291084441
 20
96.777807552613311
 30
0.0
 11
137.88698291084441
 21
96.777807552613311
 31
0.0
  0
LINE
  5
450
  8
2
 10
138.88698291084441
 20
94.927807648613268
 30
0.0
 11
139.38698291084441
 21
95.427807648613282
 31
0.0
  0
LINE
  5
451
  8
2
 10
137.88698291084441
 20
96.177807648613296
 30
0.0
 11
136.38698291084441
 21
96.177807648613296
 31
0.0
  0
LINE
  5
452
  8
2
 10
138.88698291084441
 20
94.927807648613268
 30
0.0
 11
131.38698291084441
 21
94.927807648613268
 31
0.0
  0
LINE
  5
453
  8
2
 10
139.2369828148444
 20
95.277807552613297
 30
0.0
 11
131.38698291084441
 21
95.277807552613297
 31
0.0
  0
LINE
  5
454
  8
2
 10
132.8869829108443
 20
88.777807552613297
 30
0.0
 11
132.8869829108443
 21
89.377807456613311
 31
0.0
  0
LINE
  5
455
  8
2
 10
132.8869829108443
 20
88.777807552613297
 30
0.0
 11
131.38698291084441
 21
88.777807552613297
 31
0.0
  0
LINE
  5
456
  8
2
 10
134.38698291084441
 20
88.777807552613297
 30
0.0
 11
134.38698291084441
 21
89.377807456613311
 31
0.0
  0
LINE
  5
457
  8
2
 10
136.38698291084441
 20
88.777807552613297
 30
0.0
 11
134.38698291084441
 21
88.777807552613297
 31
0.0
  0
LINE
  5
458
  8
2
 10
136.38698291084441
 20
88.777807552613297
 30
0.0
 11
136.38698291084441
 21
89.377807456613311
 31
0.0
  0
LINE
  5
459
  8
2
 10
134.38698291084441
 20
89.377807456613311
 30
0.0
 11
132.8869829108443
 21
89.377807456613311
 31
0.0
  0
LINE
  5
45A
  8
2
 10
139.38698291084441
 20
88.777807552613297
 30
0.0
 11
137.88698291084441
 21
88.777807552613297
 31
0.0
  0
LINE
  5
45B
  8
2
 10
138.88698291084441
 20
90.627807456613311
 30
0.0
 11
139.38698291084441
 21
90.127807456613311
 31
0.0
  0
LINE
  5
45C
  8
2
 10
137.88698291084441
 20
88.777807552613297
 30
0.0
 11
137.88698291084441
 21
89.377807456613311
 31
0.0
  0
LINE
  5
45D
  8
2
 10
137.88698291084441
 20
89.377807456613311
 30
0.0
 11
136.38698291084441
 21
89.377807456613311
 31
0.0
  0
LINE
  5
45E
  8
2
 10
139.2369828148444
 20
90.277807552613297
 30
0.0
 11
131.38698291084441
 21
90.277807552613297
 31
0.0
  0
LINE
  5
45F
  8
2
 10
138.88698291084441
 20
90.627807456613311
 30
0.0
 11
131.38698291084441
 21
90.627807456613311
 31
0.0
  0
LINE
  5
460
  8
2
 10
131.38698291084441
 20
88.777807552613297
 30
0.0
 11
131.38698291084421
 21
96.777807552613311
 31
0.0
  0
LINE
  5
461
  8
2
 10
138.88698291084441
 20
90.627807456613311
 30
0.0
 11
138.88698291084449
 21
94.927807648613253
 31
0.0
  0
LINE
  5
462
  8
2
 10
129.38698082356831
 20
119.77779511125389
 30
0.0
 11
129.38698082356831
 21
138.5816328807488
 31
0.0
  0
ARC
  5
463
  8
2
 10
-115.386988125535
 20
138.5816328807488
 30
0.0
 40
13.99999269803325
210
0.0
220
0.0
230
-1.0
 50
158.21321070200159
 51
180.0
  0
LINE
  5
464
  8
2
 10
128.3869813451374
 20
143.77778259359661
 30
0.0
 11
122.3869844745516
 21
143.77778259359661
 31
0.0
  0
ARC
  5
465
  8
2
 10
-135.3869776941539
 20
138.5816328807488
 30
0.0
 40
13.99999269803325
210
0.0
220
0.0
230
-1.0
 50
0.0
 51
21.786789297998389
  0
LINE
  5
466
  8
2
 10
121.3869849961209
 20
119.77779511125389
 30
0.0
 11
121.3869849961209
 21
138.5816328807488
 31
0.0
  0
LINE
  5
467
  8
2
 10
130.13698011760721
 20
115.27779745831469
 30
0.0
 11
120.6369850725132
 21
115.27779745831469
 31
0.0
  0
LINE
  5
468
  8
2
 10
121.3869847353363
 20
115.27779745831469
 30
0.0
 11
121.3869847353362
 21
98.973958384896932
 31
0.0
  0
LINE
  5
469
  8
2
 10
120.6369850725132
 20
117.77779615439189
 30
0.0
 11
120.6369850725132
 21
115.27779745831469
 31
0.0
  0
LINE
  5
46A
  8
2
 10
123.4194690872547
 20
117.77779615439189
 30
0.0
 11
123.4194690872547
 21
115.27779745831469
 31
0.0
  0
LINE
  5
46B
  8
2
 10
127.3544960928656
 20
117.77779615439189
 30
0.0
 11
127.3544960928656
 21
115.27779745831469
 31
0.0
  0
LINE
  5
46C
  8
2
 10
130.13698011760721
 20
117.77779615439189
 30
0.0
 11
130.13698011760721
 21
115.27779745831469
 31
0.0
  0
LINE
  5
46D
  8
2
 10
129.38698056278389
 20
115.27779745831469
 30
0.0
 11
129.38698056278389
 21
98.973958384896932
 31
0.0
  0
ARC
  5
46E
  8
2
 10
-115.38698786475059
 20
98.973958384896932
 30
0.0
 40
13.99999269803325
210
0.0
220
0.0
230
-1.0
 50
180.0
 51
201.78678929799841
  0
LINE
  5
46F
  8
2
 10
128.38698108435281
 20
93.777808672049304
 30
0.0
 11
122.38698421376709
 21
93.777808672049304
 31
0.0
  0
ARC
  5
470
  8
2
 10
-135.38697743336951
 20
98.973958384896932
 30
0.0
 40
13.99999269803325
210
0.0
220
0.0
230
-1.0
 50
338.21321070200162
 51
0.0
  0
LINE
  5
471
  8
1
 10
63.882339161944401
 20
49.777342576613187
 30
0.0
 11
87.891626659745043
 21
49.777342576613187
 31
0.0
  0
CIRCLE
  5
472
  8
2
 10
75.886982910844722
 20
49.772697929196063
 30
0.0
 40
4.0
  0
TEXT
  5
51C
  8
0
 62
     3
 10
0.0
 20
0.0
 30
0.0
 40
10.0
  1
ESJB2864TH
  7
STANDARD1
  0
ENDSEC
  0
EOF
