  0
SECTION
  2
HEADER
  9
$ACADVER
  1
AC1009
  9
$INSBASE
 10
0.0
 20
0.0
 30
0.0
  9
$EXTMIN
 10
0.0
 20
-2.960436562073669
 30
0.0
  9
$EXTMAX
 10
347.98535451536418
 20
258.90319424621168
 30
0.0
  9
$LIMMIN
 10
0.0
 20
0.0
  9
$LIMMAX
 10
375.0
 20
270.0
  9
$ORTHOMODE
 70
     1
  9
$REGENMODE
 70
     1
  9
$FILLMODE
 70
     1
  9
$QTEXTMODE
 70
     0
  9
$MIRRTEXT
 70
     0
  9
$DRAGMODE
 70
     2
  9
$LTSCALE
 40
10.0
  9
$OSMODE
 70
    55
  9
$ATTMODE
 70
     1
  9
$TEXTSIZE
 40
0.2
  9
$TRACEWID
 40
0.05
  9
$TEXTSTYLE
  7
STANDARD
  9
$CLAYER
  8
0
  9
$CELTYPE
  6
BYLAYER
  9
$CECOLOR
 62
   256
  9
$DIMSCALE
 40
1.0
  9
$DIMASZ
 40
3.0
  9
$DIMEXO
 40
2.0
  9
$DIMDLI
 40
0.38
  9
$DIMRND
 40
0.0
  9
$DIMDLE
 40
0.0
  9
$DIMEXE
 40
2.0
  9
$DIMTP
 40
0.0
  9
$DIMTM
 40
0.0
  9
$DIMTXT
 40
3.2000000000000002
  9
$DIMCEN
 40
0.0
  9
$DIMTSZ
 40
0.0
  9
$DIMTOL
 70
     0
  9
$DIMLIM
 70
     0
  9
$DIMTIH
 70
     0
  9
$DIMTOH
 70
     0
  9
$DIMSE1
 70
     0
  9
$DIMSE2
 70
     0
  9
$DIMTAD
 70
     1
  9
$DIMZIN
 70
     0
  9
$DIMBLK
  1

  9
$DIMASO
 70
     0
  9
$DIMSHO
 70
     0
  9
$DIMPOST
  1

  9
$DIMAPOST
  1

  9
$DIMALT
 70
     0
  9
$DIMALTD
 70
     2
  9
$DIMALTF
 40
25.399999999999999
  9
$DIMLFAC
 40
1.0
  9
$DIMTOFL
 70
     1
  9
$DIMTVP
 40
1.6000000000000001
  9
$DIMTIX
 70
     1
  9
$DIMSOXD
 70
     0
  9
$DIMSAH
 70
     0
  9
$DIMBLK1
  1

  9
$DIMBLK2
  1

  9
$DIMSTYLE
  2
STANDARD
  9
$DIMCLRD
 70
     0
  9
$DIMCLRE
 70
     0
  9
$DIMCLRT
 70
     0
  9
$DIMTFAC
 40
1.0
  9
$DIMGAP
 40
0.09
  9
$LUNITS
 70
     2
  9
$LUPREC
 70
     4
  9
$SKETCHINC
 40
0.1
  9
$FILLETRAD
 40
0.0
  9
$AUNITS
 70
     0
  9
$AUPREC
 70
     4
  9
$MENU
  1
E:\r13\win\SUPPORT\ACAD
  9
$ELEVATION
 40
0.0
  9
$PELEVATION
 40
0.0
  9
$THICKNESS
 40
0.0
  9
$LIMCHECK
 70
     0
  9
$BLIPMODE
 70
     0
  9
$CHAMFERA
 40
0.0
  9
$CHAMFERB
 40
0.0
  9
$SKPOLY
 70
     0
  9
$TDCREATE
 40
2449839.7760069449
  9
$TDUPDATE
 40
2456598.6672667372
  9
$TDINDWG
 40
0.0000918403
  9
$TDUSRTIMER
 40
0.0000918403
  9
$USRTIMER
 70
     1
  9
$ANGBASE
 50
0.0
  9
$ANGDIR
 70
     0
  9
$PDMODE
 70
     0
  9
$PDSIZE
 40
0.0
  9
$PLINEWID
 40
0.0
  9
$COORDS
 70
     1
  9
$SPLFRAME
 70
     0
  9
$SPLINETYPE
 70
     6
  9
$SPLINESEGS
 70
     8
  9
$ATTDIA
 70
     0
  9
$ATTREQ
 70
     1
  9
$HANDLING
 70
     1
  9
$HANDSEED
  5
256
  9
$SURFTAB1
 70
     6
  9
$SURFTAB2
 70
     6
  9
$SURFTYPE
 70
     6
  9
$SURFU
 70
     6
  9
$SURFV
 70
     6
  9
$UCSNAME
  2

  9
$UCSORG
 10
0.0
 20
0.0
 30
0.0
  9
$UCSXDIR
 10
1.0
 20
0.0
 30
0.0
  9
$UCSYDIR
 10
0.0
 20
1.0
 30
0.0
  9
$PUCSNAME
  2

  9
$PUCSORG
 10
0.0
 20
0.0
 30
0.0
  9
$PUCSXDIR
 10
1.0
 20
0.0
 30
0.0
  9
$PUCSYDIR
 10
0.0
 20
1.0
 30
0.0
  9
$USERI1
 70
     0
  9
$USERI2
 70
     1
  9
$USERI3
 70
     0
  9
$USERI4
 70
     0
  9
$USERI5
 70
     0
  9
$USERR1
 40
0.0
  9
$USERR2
 40
0.0
  9
$USERR3
 40
0.0
  9
$USERR4
 40
0.0
  9
$USERR5
 40
0.0
  9
$WORLDVIEW
 70
     1
  9
$SHADEDGE
 70
     3
  9
$SHADEDIF
 70
    70
  9
$TILEMODE
 70
     1
  9
$MAXACTVP
 70
    16
  9
$PLIMCHECK
 70
     0
  9
$PEXTMIN
 10
1.0000000000000000E+020
 20
1.0000000000000000E+020
 30
1.0000000000000000E+020
  9
$PEXTMAX
 10
-1.0000000000000000E+020
 20
-1.0000000000000000E+020
 30
-1.0000000000000000E+020
  9
$PLIMMIN
 10
0.0
 20
0.0
  9
$PLIMMAX
 10
12.0
 20
9.0
  9
$UNITMODE
 70
     0
  9
$VISRETAIN
 70
     0
  9
$PLINEGEN
 70
     0
  9
$PSLTSCALE
 70
     0
  0
ENDSEC
  0
SECTION
  2
TABLES
  0
TABLE
  2
VPORT
 70
     1
  0
VPORT
  2
*ACTIVE
 70
     0
 10
0.0
 20
0.0
 11
1.0
 21
1.0
 12
187.49427839065231
 22
174.91677254346851
 13
0.0
 23
0.0
 14
10.0
 24
10.0
 15
10.0
 25
10.0
 16
0.0
 26
0.0
 36
1.0
 17
0.0
 27
0.0
 37
0.0
 40
358.92027899574339
 41
1.7807262569832401
 42
50.0
 43
0.0
 44
0.0
 50
0.0
 51
0.0
 71
     0
 72
   500
 73
     1
 74
     0
 75
     0
 76
     0
 77
     0
 78
     2
  0
ENDTAB
  0
TABLE
  2
LTYPE
 70
     4
  0
LTYPE
  2
CONTINUOUS
 70
     0
  3
Solid Line
 72
    65
 73
     0
 40
0.0
  0
LTYPE
  2
CENTER
 70
     0
  3
____ _ ____ _ ____ _ ____ _ ____ _ ____ _ ____
 72
    65
 73
     4
 40
2.0
 49
1.25
 49
-0.25
 49
0.25
 49
-0.25
  0
LTYPE
  2
HIDDEN
 70
     0
  3
_ _ _ _ _ _ _ _ _ _ _ _ _ _ _ _ _ _ _ _ _ _ _
 72
    65
 73
     2
 40
0.375
 49
0.25
 49
-0.125
  0
LTYPE
  2
PHANTOM2
 70
     0
  3
___ _ _ ___ _ _ ___ _ _ ___ _ _
 72
    65
 73
     6
 40
1.25
 49
0.625
 49
-0.125
 49
0.125
 49
-0.125
 49
0.125
 49
-0.125
  0
ENDTAB
  0
TABLE
  2
LAYER
 70
     4
  0
LAYER
  2
0
 70
     0
 62
     7
  6
CONTINUOUS
  0
LAYER
  2
1
 70
     0
 62
     1
  6
CENTER
  0
LAYER
  2
2
 70
     0
 62
     2
  6
HIDDEN
  0
LAYER
  2
3
 70
     0
 62
     3
  6
CONTINUOUS
  0
ENDTAB
  0
TABLE
  2
STYLE
 70
     2
  0
STYLE
  2
STANDARD
 70
     0
 40
0.0
 41
1.0
 50
0.0
 71
     0
 42
0.2
  3
TXT
  4
BIGFONT
  0
STYLE
  2
STANDARD1
 70
     0
 40
0.0
 41
1.0
 50
0.0
 71
     0
 42
3.0
  3
txt
  4

  0
ENDTAB
  0
TABLE
  2
VIEW
 70
     1
  0
VIEW
  2
ALL
 70
     0
 40
270.0
 10
220.99159663865549
 20
135.0
 41
0.0
 11
0.0
 21
0.0
 31
1.0
 12
0.0
 22
0.0
 32
0.0
 42
0.0
 43
0.0
 44
0.0
 50
0.0
 71
     0
  0
ENDTAB
  0
TABLE
  2
UCS
 70
     0
  0
ENDTAB
  0
TABLE
  2
APPID
 70
     3
  0
APPID
  2
ACAD
 70
     0
  0
APPID
  2
ACAD_MLEADERVER
 70
     0
  0
APPID
  2
ACAD_NAV_VCDISPLAY
 70
     0
  0
ENDTAB
  0
TABLE
  2
DIMSTYLE
 70
     1
  0
DIMSTYLE
  2
STANDARD
 70
     0
  3

  4

  5

  6

  7

 40
1.0
 41
0.18
 42
0.0625
 43
0.38
 44
0.18
 45
0.0
 46
0.0
 47
0.0
 48
0.0
140
0.18
141
0.09
142
0.0
143
25.399999999999999
144
1.0
145
0.0
146
1.0
147
0.09
 71
     0
 72
     0
 73
     1
 74
     1
 75
     0
 76
     0
 77
     0
 78
     0
170
     0
171
     2
172
     0
173
     0
174
     0
175
     0
176
     0
177
     0
178
     0
  0
ENDTAB
  0
ENDSEC
  0
SECTION
  2
BLOCKS
  0
BLOCK
  8
0
  2
$MODEL_SPACE
 70
     0
 10
0.0
 20
0.0
 30
0.0
  3
$MODEL_SPACE
  1

  0
ENDBLK
  5
108
  8
0
  0
BLOCK
 67
     1
  8
0
  2
$PAPER_SPACE
 70
     0
 10
0.0
 20
0.0
 30
0.0
  3
$PAPER_SPACE
  1

  0
ENDBLK
  5
106
 67
     1
  8
0
  0
ENDSEC
  0
SECTION
  2
ENTITIES
  0
CIRCLE
  5
3E
  8
0
 10
58.630742976553357
 20
135.11032014468859
 30
0.0
 40
8.6470000000000002
  0
CIRCLE
  5
3F
  8
3
 10
58.630742976553357
 20
135.11032014468859
 30
0.0
 40
10.0
  0
CIRCLE
  5
40
  8
0
 10
58.630742976553357
 20
135.11032014468859
 30
0.0
 40
26.5
  0
LINE
  5
41
  8
1
 10
58.630742976553357
 20
202.61032014468859
 30
0.0
 11
58.630742976553357
 21
67.6103201446886
 31
0.0
  0
LINE
  5
42
  8
0
 10
84.557991620060108
 20
125.9436534780219
 30
0.0
 11
70.415855996329157
 21
85.943653478021915
 31
0.0
  0
LINE
  5
43
  8
0
 10
32.703494333046621
 20
125.9436534780219
 30
0.0
 11
46.845629956777572
 21
85.943653478021915
 31
0.0
  0
ARC
  5
44
  8
0
 10
58.630742976553357
 20
90.1103201446886
 30
0.0
 40
12.5
 50
199.47122063449069
 51
340.52877936550942
  0
CIRCLE
  5
45
  8
0
 10
58.630742976553357
 20
90.1103201446886
 30
0.0
 40
5.5
  0
LINE
  5
46
  8
1
 10
48.130742976553371
 20
90.1103201446886
 30
0.0
 11
69.130742976553364
 21
90.1103201446886
 31
0.0
  0
LINE
  5
47
  8
1
 10
21.130742976553361
 20
135.11032014468859
 30
0.0
 11
96.130742976553364
 21
135.11032014468859
 31
0.0
  0
LINE
  5
48
  8
1
 10
48.130742976553371
 20
180.11032014468859
 30
0.0
 11
69.130742976553364
 21
180.11032014468859
 31
0.0
  0
CIRCLE
  5
49
  8
0
 10
58.630742976553357
 20
180.11032014468859
 30
0.0
 40
5.5
  0
ARC
  5
4A
  8
0
 10
58.630742976553357
 20
180.11032014468859
 30
0.0
 40
12.5
 50
19.47122063449061
 51
160.52877936550939
  0
LINE
  5
4B
  8
0
 10
32.703494333046621
 20
144.27698681135519
 30
0.0
 11
46.845629956777572
 21
184.27698681135519
 31
0.0
  0
LINE
  5
4C
  8
0
 10
84.557991620060108
 20
144.27698681135519
 30
0.0
 11
70.415855996329157
 21
184.27698681135519
 31
0.0
  0
CIRCLE
  5
4D
  8
0
 10
58.630742976553357
 20
135.11032014468859
 30
0.0
 40
27.5
  0
LINE
  5
4E
  8
0
 10
187.20368418379991
 20
133.95561960630931
 30
0.0
 11
185.20368418379991
 21
132.8009190679301
 31
0.0
  0
LINE
  5
4F
  8
0
 10
185.20368418379991
 20
132.8009190679301
 30
0.0
 11
183.20368418379991
 21
133.95561960630931
 31
0.0
  0
LINE
  5
50
  8
0
 10
183.20368418379991
 20
133.95561960630931
 30
0.0
 11
183.20368418379991
 21
136.2650206830678
 31
0.0
  0
LINE
  5
51
  8
0
 10
183.20368418379991
 20
136.2650206830678
 30
0.0
 11
185.20368418379979
 21
137.41972122144699
 31
0.0
  0
LINE
  5
52
  8
0
 10
185.20368418379991
 20
137.41972122144711
 30
0.0
 11
187.20368418379979
 21
136.26502068306789
 31
0.0
  0
LINE
  5
53
  8
0
 10
187.20368418379991
 20
136.2650206830678
 30
0.0
 11
187.20368418379991
 21
133.9556196063094
 31
0.0
  0
LINE
  5
54
  8
1
 10
185.20368418379991
 20
144.11032014468859
 30
0.0
 11
185.20368418379991
 21
126.1103201446886
 31
0.0
  0
CIRCLE
  5
55
  8
3
 10
185.20368418379991
 20
135.11032014468859
 30
0.0
 40
3.3235000000000001
  0
CIRCLE
  5
56
  8
0
 10
185.20368418379991
 20
135.11032014468859
 30
0.0
 40
4.0
  0
ARC
  5
57
  8
0
 10
183.20368418379991
 20
123.9436534780219
 30
0.0
 40
2.0
 50
0.0
 51
90.000000000000014
  0
ARC
  5
58
  8
0
 10
183.20368418379991
 20
146.27698681135519
 30
0.0
 40
2.0
 50
270.0
 51
0.0
  0
LINE
  5
59
  8
0
 10
174.20368418380059
 20
162.61032014468859
 30
0.0
 11
174.20368418380059
 21
107.6103201446886
 31
0.0
  0
LINE
  5
5A
  8
0
 10
173.20368418379991
 20
161.61032014468779
 30
0.0
 11
173.20368418379991
 21
108.6103201446893
 31
0.0
  0
LINE
  5
5B
  8
0
 10
198.20368418379991
 20
78.1103201446886
 30
0.0
 11
198.20368418379991
 21
192.11032014468859
 31
0.0
  0
LINE
  5
5C
  8
0
 10
198.20368418379991
 20
78.1103201446886
 30
0.0
 11
197.70368418379991
 21
77.6103201446886
 31
0.0
  0
LINE
  5
5D
  8
0
 10
197.70368418379991
 20
77.6103201446886
 30
0.0
 11
187.20368418379991
 21
77.6103201446886
 31
0.0
  0
LINE
  5
5E
  8
0
 10
185.20368418379991
 20
79.6103201446886
 30
0.0
 11
185.20368418379991
 21
123.9436534780219
 31
0.0
  0
LINE
  5
5F
  8
0
 10
183.20368418379991
 20
107.6103201446886
 30
0.0
 11
174.20368418380059
 21
107.6103201446886
 31
0.0
  0
LINE
  5
60
  8
0
 10
174.20368418380059
 20
107.6103201446886
 30
0.0
 11
173.20368418379991
 21
108.6103201446893
 31
0.0
  0
ARC
  5
61
  8
0
 10
187.20368418379991
 20
79.6103201446886
 30
0.0
 40
2.0
 50
180.00000000000011
 51
270.0
  0
ARC
  5
62
  8
0
 10
183.20368418379991
 20
105.6103201446886
 30
0.0
 40
2.0
 50
0.0
 51
90.000000000000014
  0
LINE
  5
63
  8
1
 10
180.20368418379991
 20
90.1103201446886
 30
0.0
 11
203.20368418379991
 21
90.1103201446886
 31
0.0
  0
LINE
  5
64
  8
1
 10
180.20368418379991
 20
180.11032014468859
 30
0.0
 11
203.20368418379991
 21
180.11032014468859
 31
0.0
  0
ARC
  5
65
  8
0
 10
183.20368418379991
 20
164.61032014468859
 30
0.0
 40
2.0
 50
270.0
 51
0.0
  0
ARC
  5
66
  8
0
 10
187.20368418379991
 20
190.61032014468859
 30
0.0
 40
2.0
 50
90.0
 51
179.99999999999989
  0
LINE
  5
67
  8
0
 10
174.20368418380059
 20
162.61032014468859
 30
0.0
 11
173.20368418379991
 21
161.61032014468779
 31
0.0
  0
LINE
  5
68
  8
0
 10
183.20368418379991
 20
162.61032014468859
 30
0.0
 11
174.20368418380059
 21
162.61032014468859
 31
0.0
  0
LINE
  5
69
  8
0
 10
185.20368418379991
 20
190.61032014468859
 30
0.0
 11
185.20368418379991
 21
146.27698681135519
 31
0.0
  0
LINE
  5
6A
  8
0
 10
197.70368418379991
 20
192.61032014468859
 30
0.0
 11
187.20368418379991
 21
192.61032014468859
 31
0.0
  0
LINE
  5
6B
  8
0
 10
198.20368418379991
 20
192.11032014468859
 30
0.0
 11
197.70368418379991
 21
192.61032014468859
 31
0.0
  0
LINE
  5
6C
  8
1
 10
208.20368418379991
 20
135.11032014468859
 30
0.0
 11
163.20368418379991
 21
135.11032014468859
 31
0.0
  0
ARC
  5
6D
  8
0
 10
310.48535451536418
 20
135.11032014468859
 30
0.0
 40
27.5
 50
0.0
 51
19.47122063449071
  0
LINE
  5
6E
  8
0
 10
336.41260315887092
 20
144.27698681135519
 30
0.0
 11
322.27046753513991
 21
184.27698681135519
 31
0.0
  0
LINE
  5
6F
  8
0
 10
284.55810587185738
 20
144.27698681135519
 30
0.0
 11
298.70024149558827
 21
184.27698681135519
 31
0.0
  0
ARC
  5
70
  8
0
 10
310.48535451536418
 20
180.11032014468859
 30
0.0
 40
12.5
 50
19.47122063449061
 51
160.52877936550939
  0
CIRCLE
  5
71
  8
0
 10
310.48535451536418
 20
180.11032014468859
 30
0.0
 40
5.5
  0
LINE
  5
72
  8
1
 10
299.98535451536418
 20
180.11032014468859
 30
0.0
 11
320.98535451536418
 21
180.11032014468859
 31
0.0
  0
LINE
  5
73
  8
1
 10
272.98535451536418
 20
135.11032014468859
 30
0.0
 11
347.98535451536418
 21
135.11032014468859
 31
0.0
  0
LINE
  5
74
  8
1
 10
299.98535451536418
 20
90.1103201446886
 30
0.0
 11
320.98535451536418
 21
90.1103201446886
 31
0.0
  0
CIRCLE
  5
75
  8
0
 10
310.48535451536418
 20
90.1103201446886
 30
0.0
 40
5.5
  0
ARC
  5
76
  8
0
 10
310.48535451536418
 20
90.1103201446886
 30
0.0
 40
12.5
 50
199.47122063449069
 51
340.52877936550942
  0
LINE
  5
77
  8
0
 10
284.55810587185738
 20
125.9436534780219
 30
0.0
 11
298.70024149558827
 21
85.943653478021915
 31
0.0
  0
LINE
  5
78
  8
0
 10
336.41260315887092
 20
125.9436534780219
 30
0.0
 11
322.27046753513991
 21
85.943653478021915
 31
0.0
  0
LINE
  5
79
  8
1
 10
310.48535451536418
 20
202.61032014468859
 30
0.0
 11
310.48535451536418
 21
67.6103201446886
 31
0.0
  0
CIRCLE
  5
7A
  8
3
 10
310.48535451536418
 20
135.11032014468859
 30
0.0
 40
10.0
  0
CIRCLE
  5
7B
  8
0
 10
310.48535451536418
 20
135.11032014468859
 30
0.0
 40
8.6470000000000002
  0
ARC
  5
7C
  8
0
 10
310.48535451536418
 20
135.11032014468859
 30
0.0
 40
27.5
 50
340.52877936550931
 51
360.0
  0
ARC
  5
7D
  8
0
 10
310.48535451536418
 20
135.11032014468859
 30
0.0
 40
27.5
 50
180.0
 51
199.47122063449081
  0
ARC
  5
7E
  8
0
 10
310.48535451536418
 20
135.11032014468859
 30
0.0
 40
27.5
 50
160.52877936550931
 51
180.0
  0
LINE
  5
7F
  8
0
 10
185.20368418379979
 20
15.79069440356565
 30
0.0
 11
185.20368418379991
 21
67.64519049173542
 31
0.0
  0
LINE
  5
80
  8
0
 10
174.20368418379991
 20
14.217942447650531
 30
0.0
 11
173.20368418379991
 21
15.217942447650531
 31
0.0
  0
LINE
  5
81
  8
0
 10
173.20368418379991
 20
68.217942447650614
 30
0.0
 11
174.20368418379991
 21
69.217942447650614
 31
0.0
  0
LINE
  5
82
  8
0
 10
197.70368418379991
 20
14.217942447650531
 30
0.0
 11
198.20368418379991
 21
14.717942447650531
 31
0.0
  0
LINE
  5
83
  8
0
 10
198.20368418379991
 20
68.717942447650586
 30
0.0
 11
197.70368418379991
 21
69.217942447650586
 31
0.0
  0
LINE
  5
84
  8
1
 10
208.20368418379991
 20
41.717942447650593
 30
0.0
 11
163.20368418379991
 21
41.717942447650501
 31
0.0
  0
LINE
  5
85
  8
0
 10
174.20368418380059
 20
14.217942447650531
 30
0.0
 11
174.20368418380059
 21
69.217942447650557
 31
0.0
  0
LINE
  5
86
  8
0
 10
198.20368418379991
 20
14.717942447650531
 30
0.0
 11
198.20368418379991
 21
68.717942447650586
 31
0.0
  0
LINE
  5
87
  8
0
 10
173.20368418379991
 20
15.217942447650531
 30
0.0
 11
173.20368418379991
 21
68.217942447650614
 31
0.0
  0
LINE
  5
88
  8
0
 10
174.20368418379991
 20
14.217942447650531
 30
0.0
 11
197.70368418379991
 21
14.217942447650531
 31
0.0
  0
LINE
  5
89
  8
0
 10
174.20368418379991
 20
69.217942447650614
 30
0.0
 11
197.70368418379991
 21
69.217942447650586
 31
0.0
  0
LINE
  5
8A
  8
2
 10
185.20368418379991
 20
185.6103201446885
 30
0.0
 11
198.20368418379991
 21
185.61032014468859
 31
0.0
  0
LINE
  5
8B
  8
2
 10
185.20368418379991
 20
174.61032014468859
 30
0.0
 11
198.20368418379991
 21
174.61032014468859
 31
0.0
  0
LINE
  5
8C
  8
2
 10
185.20368418379991
 20
84.610320144688615
 30
0.0
 11
198.20368418379991
 21
84.610320144688615
 31
0.0
  0
LINE
  5
8D
  8
2
 10
185.20368418379991
 20
95.610320144688544
 30
0.0
 11
198.20368418379991
 21
95.610320144688572
 31
0.0
  0
LINE
  5
8E
  8
2
 10
185.20368418379991
 20
36.217942447650572
 30
0.0
 11
198.20368418379991
 21
36.217942447650572
 31
0.0
  0
LINE
  5
8F
  8
2
 10
185.20368418379991
 20
47.217942447650501
 30
0.0
 11
198.20368418379991
 21
47.217942447650529
 31
0.0
  0
LINE
  5
90
  8
2
 10
185.20368418379991
 20
236.9031942462116
 30
0.0
 11
198.20368418379991
 21
236.9031942462116
 31
0.0
  0
LINE
  5
91
  8
2
 10
185.20368418379991
 20
225.90319424621171
 30
0.0
 11
198.20368418379991
 21
225.90319424621171
 31
0.0
  0
LINE
  5
92
  8
0
 10
174.20368418379991
 20
258.90319424621168
 30
0.0
 11
197.70368418379991
 21
258.90319424621168
 31
0.0
  0
LINE
  5
93
  8
0
 10
174.20368418379991
 20
203.9031942462116
 30
0.0
 11
197.70368418379991
 21
203.9031942462116
 31
0.0
  0
LINE
  5
94
  8
0
 10
173.20368418379991
 20
204.90319424621171
 30
0.0
 11
173.20368418379991
 21
257.90319424621168
 31
0.0
  0
LINE
  5
95
  8
0
 10
198.20368418379991
 20
204.40319424621171
 30
0.0
 11
198.20368418379991
 21
258.40319424621168
 31
0.0
  0
LINE
  5
96
  8
0
 10
174.20368418380059
 20
203.9031942462116
 30
0.0
 11
174.20368418380059
 21
258.90319424621168
 31
0.0
  0
LINE
  5
97
  8
1
 10
208.20368418379991
 20
231.40319424621171
 30
0.0
 11
163.20368418379991
 21
231.4031942462116
 31
0.0
  0
LINE
  5
98
  8
0
 10
198.20368418379991
 20
258.40319424621168
 30
0.0
 11
197.70368418379991
 21
258.90319424621168
 31
0.0
  0
LINE
  5
99
  8
0
 10
197.70368418379991
 20
203.9031942462116
 30
0.0
 11
198.20368418379991
 21
204.40319424621171
 31
0.0
  0
LINE
  5
9A
  8
0
 10
173.20368418379991
 20
257.90319424621168
 30
0.0
 11
174.20368418379991
 21
258.90319424621168
 31
0.0
  0
LINE
  5
9B
  8
0
 10
174.20368418379991
 20
203.9031942462116
 30
0.0
 11
173.20368418379991
 21
204.90319424621171
 31
0.0
  0
LINE
  5
9C
  8
0
 10
185.20368418379979
 20
205.47594620212681
 30
0.0
 11
185.20368418379991
 21
257.33044229029662
 31
0.0
  0
TEXT
  5
1C5
  8
0
 62
     3
 10
0.0
 20
0.0
 30
0.0
 40
10.0
  1
FLT90S
  7
STANDARD1
  0
ENDSEC
  0
EOF
