  0
SECTION
  2
HEADER
  9
$ACADVER
  1
AC1009
  9
$INSBASE
 10
0.0
 20
0.0
 30
0.0
  9
$EXTMIN
 10
0.0
 20
-2.960436562073669
 30
0.0
  9
$EXTMAX
 10
130.3213287694939
 20
112.1344276219918
 30
0.0
  9
$LIMMIN
 10
0.0
 20
0.0
  9
$LIMMAX
 10
187.5
 20
135.0
  9
$ORTHOMODE
 70
     1
  9
$REGENMODE
 70
     1
  9
$FILLMODE
 70
     1
  9
$QTEXTMODE
 70
     0
  9
$MIRRTEXT
 70
     0
  9
$DRAGMODE
 70
     2
  9
$LTSCALE
 40
5.0
  9
$OSMODE
 70
    55
  9
$ATTMODE
 70
     1
  9
$TEXTSIZE
 40
4.000000000000048
  9
$TRACEWID
 40
0.05
  9
$TEXTSTYLE
  7
STANDARD
  9
$CLAYER
  8
0
  9
$CELTYPE
  6
BYLAYER
  9
$CECOLOR
 62
   256
  9
$DIMSCALE
 40
0.5
  9
$DIMASZ
 40
3.0
  9
$DIMEXO
 40
2.0
  9
$DIMDLI
 40
0.38
  9
$DIMRND
 40
0.0
  9
$DIMDLE
 40
0.0
  9
$DIMEXE
 40
2.0
  9
$DIMTP
 40
0.0
  9
$DIMTM
 40
0.0
  9
$DIMTXT
 40
3.2000000000000002
  9
$DIMCEN
 40
0.09
  9
$DIMTSZ
 40
0.0
  9
$DIMTOL
 70
     0
  9
$DIMLIM
 70
     0
  9
$DIMTIH
 70
     0
  9
$DIMTOH
 70
     0
  9
$DIMSE1
 70
     0
  9
$DIMSE2
 70
     0
  9
$DIMTAD
 70
     1
  9
$DIMZIN
 70
     0
  9
$DIMBLK
  1

  9
$DIMASO
 70
     1
  9
$DIMSHO
 70
     0
  9
$DIMPOST
  1

  9
$DIMAPOST
  1

  9
$DIMALT
 70
     0
  9
$DIMALTD
 70
     2
  9
$DIMALTF
 40
25.399999999999999
  9
$DIMLFAC
 40
1.0
  9
$DIMTOFL
 70
     0
  9
$DIMTVP
 40
1.6000000000000001
  9
$DIMTIX
 70
     1
  9
$DIMSOXD
 70
     0
  9
$DIMSAH
 70
     0
  9
$DIMBLK1
  1

  9
$DIMBLK2
  1

  9
$DIMSTYLE
  2
STANDARD
  9
$DIMCLRD
 70
     0
  9
$DIMCLRE
 70
     0
  9
$DIMCLRT
 70
     0
  9
$DIMTFAC
 40
1.0
  9
$DIMGAP
 40
0.09
  9
$LUNITS
 70
     2
  9
$LUPREC
 70
     4
  9
$SKETCHINC
 40
0.1
  9
$FILLETRAD
 40
1.8999999999999999
  9
$AUNITS
 70
     0
  9
$AUPREC
 70
     0
  9
$MENU
  1
E:\r13\win\SUPPORT\ACAD
  9
$ELEVATION
 40
0.0
  9
$PELEVATION
 40
0.0
  9
$THICKNESS
 40
0.0
  9
$LIMCHECK
 70
     0
  9
$BLIPMODE
 70
     0
  9
$CHAMFERA
 40
0.0
  9
$CHAMFERB
 40
0.0
  9
$SKPOLY
 70
     0
  9
$TDCREATE
 40
2449839.7834143522
  9
$TDUPDATE
 40
2456598.677043356
  9
$TDINDWG
 40
0.0081943403
  9
$TDUSRTIMER
 40
0.0081943403
  9
$USRTIMER
 70
     1
  9
$ANGBASE
 50
0.0
  9
$ANGDIR
 70
     0
  9
$PDMODE
 70
     0
  9
$PDSIZE
 40
0.0
  9
$PLINEWID
 40
0.0
  9
$COORDS
 70
     1
  9
$SPLFRAME
 70
     0
  9
$SPLINETYPE
 70
     6
  9
$SPLINESEGS
 70
     8
  9
$ATTDIA
 70
     0
  9
$ATTREQ
 70
     1
  9
$HANDLING
 70
     1
  9
$HANDSEED
  5
517
  9
$SURFTAB1
 70
     6
  9
$SURFTAB2
 70
     6
  9
$SURFTYPE
 70
     6
  9
$SURFU
 70
     6
  9
$SURFV
 70
     6
  9
$UCSNAME
  2

  9
$UCSORG
 10
0.0
 20
0.0
 30
0.0
  9
$UCSXDIR
 10
1.0
 20
0.0
 30
0.0
  9
$UCSYDIR
 10
0.0
 20
1.0
 30
0.0
  9
$PUCSNAME
  2

  9
$PUCSORG
 10
0.0
 20
0.0
 30
0.0
  9
$PUCSXDIR
 10
1.0
 20
0.0
 30
0.0
  9
$PUCSYDIR
 10
0.0
 20
1.0
 30
0.0
  9
$USERI1
 70
     0
  9
$USERI2
 70
     1
  9
$USERI3
 70
     1
  9
$USERI4
 70
     0
  9
$USERI5
 70
     0
  9
$USERR1
 40
0.0
  9
$USERR2
 40
0.0
  9
$USERR3
 40
0.0
  9
$USERR4
 40
0.0
  9
$USERR5
 40
0.0
  9
$WORLDVIEW
 70
     1
  9
$SHADEDGE
 70
     3
  9
$SHADEDIF
 70
    70
  9
$TILEMODE
 70
     1
  9
$MAXACTVP
 70
    16
  9
$PLIMCHECK
 70
     0
  9
$PEXTMIN
 10
1.0000000000000000E+020
 20
1.0000000000000000E+020
 30
1.0000000000000000E+020
  9
$PEXTMAX
 10
-1.0000000000000000E+020
 20
-1.0000000000000000E+020
 30
-1.0000000000000000E+020
  9
$PLIMMIN
 10
0.0
 20
0.0
  9
$PLIMMAX
 10
12.0
 20
9.0
  9
$UNITMODE
 70
     0
  9
$VISRETAIN
 70
     0
  9
$PLINEGEN
 70
     0
  9
$PSLTSCALE
 70
     0
  0
ENDSEC
  0
SECTION
  2
TABLES
  0
TABLE
  2
VPORT
 70
     1
  0
VPORT
  2
*ACTIVE
 70
     0
 10
0.0
 20
0.0
 11
1.0
 21
1.0
 12
93.74713919532617
 22
86.941769983850563
 13
0.0
 23
0.0
 14
5.0
 24
5.0
 15
5.0
 25
5.0
 16
0.0
 26
0.0
 36
1.0
 17
0.0
 27
0.0
 37
0.0
 40
181.41026326986619
 41
1.7807262569832401
 42
50.0
 43
0.0
 44
0.0
 50
0.0
 51
0.0
 71
     0
 72
   500
 73
     1
 74
     0
 75
     0
 76
     0
 77
     0
 78
     2
  0
ENDTAB
  0
TABLE
  2
LTYPE
 70
     4
  0
LTYPE
  2
CONTINUOUS
 70
     0
  3
Solid Line
 72
    65
 73
     0
 40
0.0
  0
LTYPE
  2
CENTER
 70
     0
  3
____ _ ____ _ ____ _ ____ _ ____ _ ____ _ ____
 72
    65
 73
     4
 40
2.0
 49
1.25
 49
-0.25
 49
0.25
 49
-0.25
  0
LTYPE
  2
HIDDEN
 70
     0
  3
_ _ _ _ _ _ _ _ _ _ _ _ _ _ _ _ _ _ _ _ _ _ _
 72
    65
 73
     2
 40
0.375
 49
0.25
 49
-0.125
  0
LTYPE
  2
PHANTOM2
 70
     0
  3
___ _ _ ___ _ _ ___ _ _ ___ _ _
 72
    65
 73
     6
 40
1.25
 49
0.625
 49
-0.125
 49
0.125
 49
-0.125
 49
0.125
 49
-0.125
  0
ENDTAB
  0
TABLE
  2
LAYER
 70
     4
  0
LAYER
  2
0
 70
     0
 62
     7
  6
CONTINUOUS
  0
LAYER
  2
1
 70
     0
 62
     1
  6
CENTER
  0
LAYER
  2
3
 70
     0
 62
     3
  6
CONTINUOUS
  0
LAYER
  2
2
 70
     0
 62
     2
  6
HIDDEN
  0
ENDTAB
  0
TABLE
  2
STYLE
 70
     2
  0
STYLE
  2
STANDARD
 70
     0
 40
0.0
 41
1.0
 50
0.0
 71
     0
 42
4.000000000000048
  3
TXT
  4
BIGFONT
  0
STYLE
  2
STANDARD1
 70
     0
 40
0.0
 41
1.0
 50
0.0
 71
     0
 42
3.0
  3
txt
  4

  0
ENDTAB
  0
TABLE
  2
VIEW
 70
     1
  0
VIEW
  2
ALL
 70
     0
 40
179.5384664489153
 10
135.0
 20
89.769233224457665
 41
0.0
 11
0.0
 21
0.0
 31
1.0
 12
0.0
 22
0.0
 32
0.0
 42
0.0
 43
0.0
 44
0.0
 50
0.0
 71
     0
  0
ENDTAB
  0
TABLE
  2
UCS
 70
     0
  0
ENDTAB
  0
TABLE
  2
APPID
 70
     3
  0
APPID
  2
ACAD
 70
     0
  0
APPID
  2
ACAD_MLEADERVER
 70
     0
  0
APPID
  2
ACAD_NAV_VCDISPLAY
 70
     0
  0
ENDTAB
  0
TABLE
  2
DIMSTYLE
 70
     1
  0
DIMSTYLE
  2
STANDARD
 70
     0
  3

  4

  5

  6

  7

 40
1.0
 41
0.18
 42
0.0625
 43
0.38
 44
0.18
 45
0.0
 46
0.0
 47
0.0
 48
0.0
140
0.18
141
0.09
142
0.0
143
25.399999999999999
144
1.0
145
0.0
146
1.0
147
0.09
 71
     0
 72
     0
 73
     1
 74
     1
 75
     0
 76
     0
 77
     0
 78
     0
170
     0
171
     2
172
     0
173
     0
174
     0
175
     0
176
     0
177
     0
178
     0
  0
ENDTAB
  0
ENDSEC
  0
SECTION
  2
BLOCKS
  0
BLOCK
  8
0
  2
$MODEL_SPACE
 70
     0
 10
0.0
 20
0.0
 30
0.0
  3
$MODEL_SPACE
  1

  0
ENDBLK
  5
36C
  8
0
  0
BLOCK
 67
     1
  8
0
  2
$PAPER_SPACE
 70
     0
 10
0.0
 20
0.0
 30
0.0
  3
$PAPER_SPACE
  1

  0
ENDBLK
  5
36A
 67
     1
  8
0
  0
ENDSEC
  0
SECTION
  2
ENTITIES
  0
LINE
  5
36
  8
1
 10
29.821328769493949
 20
58.634427621991819
 30
0.0
 11
29.821328769493949
 21
79.634427621991819
 31
0.0
  0
LINE
  5
37
  8
1
 10
19.321328769493789
 20
69.134427621991804
 30
0.0
 11
40.321328769493959
 21
69.134427621991804
 31
0.0
  0
LINE
  5
38
  8
1
 10
85.164102355764186
 20
69.134427621991861
 30
0.0
 11
67.164102355764143
 21
69.134427621991861
 31
0.0
  0
CIRCLE
  5
39
  8
0
 10
29.821328769493959
 20
69.134427621991804
 30
0.0
 40
8.0
  0
LINE
  5
3A
  8
0
 10
69.664102355764101
 20
61.884427621991847
 30
0.0
 11
69.664102355764143
 21
76.384427621991847
 31
0.0
  0
LINE
  5
3B
  8
0
 10
76.364102355764103
 20
77.134427621991833
 30
0.0
 11
76.914102355764157
 21
77.134427621991847
 31
0.0
  0
LINE
  5
3C
  8
0
 10
77.664102355764143
 20
76.384427621991847
 30
0.0
 11
77.664102355764143
 21
61.884427621991833
 31
0.0
  0
LINE
  5
3D
  8
0
 10
77.664102355764143
 20
74.634427621991847
 30
0.0
 11
81.614102355764132
 21
74.634427621991833
 31
0.0
  0
LINE
  5
3E
  8
0
 10
82.364102355764118
 20
73.884427621991833
 30
0.0
 11
82.364102355764189
 21
64.38442762199189
 31
0.0
  0
LINE
  5
3F
  8
0
 10
82.36410235576416
 20
72.634427621991847
 30
0.0
 11
82.664102355764172
 21
72.634427621991847
 31
0.0
  0
LINE
  5
40
  8
0
 10
82.664102355764172
 20
72.634427621991847
 30
0.0
 11
82.664102355764214
 21
65.634427621991847
 31
0.0
  0
LINE
  5
41
  8
0
 10
77.664102355764143
 20
63.634427621991847
 30
0.0
 11
81.614102355764174
 21
63.634427621991847
 31
0.0
  0
LINE
  5
42
  8
0
 10
69.664102355764143
 20
76.384427621991847
 30
0.0
 11
70.164102355771064
 21
76.884427621998739
 31
0.0
  0
LINE
  5
43
  8
0
 10
77.664102355764143
 20
76.384427621991847
 30
0.0
 11
76.914102355764157
 21
77.134427621991847
 31
0.0
  0
LINE
  5
44
  8
0
 10
82.364102355764118
 20
73.884427621991833
 30
0.0
 11
81.614102355764132
 21
74.634427621991833
 31
0.0
  0
LINE
  5
45
  8
0
 10
81.614102355764174
 20
63.634427621991847
 30
0.0
 11
82.36410235576416
 21
64.384427621991847
 31
0.0
  0
LINE
  5
46
  8
0
 10
76.914102355764186
 20
61.134427621991847
 30
0.0
 11
77.664102355764186
 21
61.884427621991847
 31
0.0
  0
LINE
  5
47
  8
0
 10
76.914102355764115
 20
77.134427621991847
 30
0.0
 11
76.914102355764115
 21
61.134427621991797
 31
0.0
  0
LINE
  5
48
  8
0
 10
81.614102355764132
 20
74.634427621991833
 30
0.0
 11
81.614102355764132
 21
63.634427621991847
 31
0.0
  0
LINE
  5
4D
  8
2
 10
73.664102355764172
 20
70.634427621991819
 30
0.0
 11
73.664102355764157
 21
67.634427621991804
 31
0.0
  0
LINE
  5
4E
  8
2
 10
75.664102355764115
 20
65.634427621991804
 30
0.0
 11
73.664102355764157
 21
67.634427621991804
 31
0.0
  0
LINE
  5
4F
  8
2
 10
82.36410235576416
 20
65.634427621991776
 30
0.0
 11
75.664102355764115
 21
65.634427621991804
 31
0.0
  0
CIRCLE
  5
51
  8
0
 10
29.821328769493959
 20
69.134427621991804
 30
0.0
 40
6.0
  0
ARC
  5
53
  8
0
 10
20.94632876949365
 20
69.134427621991804
 30
0.0
 40
1.149999999999999
 50
322.0130205273594
 51
37.986979472640613
  0
ARC
  5
54
  8
0
 10
22.135353310906801
 20
64.696927621991648
 30
0.0
 40
1.149999999999999
 50
352.0130205273594
 51
67.986979472640627
  0
ARC
  5
55
  8
0
 10
25.383828769493789
 20
61.44845216340466
 30
0.0
 40
1.149999999999999
 50
22.013020527359352
 51
97.986979472640584
  0
ARC
  5
56
  8
0
 10
29.821328769493949
 20
60.259427621991513
 30
0.0
 40
1.149999999999999
 50
52.013020527359359
 51
127.9869794726406
  0
ARC
  5
57
  8
0
 10
34.258828769494123
 20
61.44845216340466
 30
0.0
 40
1.149999999999999
 50
82.01302052735933
 51
157.9869794726406
  0
ARC
  5
58
  8
0
 10
37.507304228081111
 20
64.69692762199162
 30
0.0
 40
1.149999999999999
 50
112.0130205273593
 51
187.9869794726406
  0
ARC
  5
59
  8
0
 10
38.696328769494272
 20
69.134427621991804
 30
0.0
 40
1.149999999999999
 50
142.0130205273594
 51
217.9869794726406
  0
ARC
  5
5A
  8
0
 10
37.507304228081139
 20
73.571927621991961
 30
0.0
 40
1.149999999999999
 50
172.01302052735929
 51
247.9869794726406
  0
ARC
  5
5B
  8
0
 10
34.258828769494137
 20
76.820403080578984
 30
0.0
 40
1.149999999999999
 50
202.0130205273594
 51
277.98697947264071
  0
ARC
  5
5C
  8
0
 10
29.821328769493991
 20
78.009427621992131
 30
0.0
 40
1.149999999999999
 50
232.0130205273594
 51
307.9869794726406
  0
ARC
  5
5D
  8
0
 10
25.383828769493821
 20
76.820403080578984
 30
0.0
 40
1.149999999999999
 50
262.01302052735929
 51
337.9869794726406
  0
ARC
  5
5E
  8
0
 10
22.135353310906801
 20
73.571927621991961
 30
0.0
 40
1.149999999999999
 50
292.0130205273594
 51
7.9869794726406402
  0
CIRCLE
  5
5F
  8
0
 10
29.821328769493959
 20
69.134427621991804
 30
0.0
 40
7.25
  0
LINE
  5
60
  8
2
 10
76.664102355764157
 20
67.134427621991861
 30
0.0
 11
76.007655099695114
 21
67.513427621992108
 31
0.0
  0
LINE
  5
61
  8
2
 10
75.164102355764143
 20
67.513427621992165
 30
0.0
 11
74.190107292320704
 21
69.134427621991804
 31
0.0
  0
LINE
  5
62
  8
2
 10
75.164102355764143
 20
67.513427621992065
 30
0.0
 11
75.164102355764172
 21
70.755427621991529
 31
0.0
  0
LINE
  5
63
  8
2
 10
76.664102355764157
 20
67.134427621991804
 30
0.0
 11
76.664102355764143
 21
71.134427621991733
 31
0.0
  0
LINE
  5
64
  8
2
 10
81.864102355764174
 20
67.513427621992065
 30
0.0
 11
75.164102355764143
 21
67.513427621992065
 31
0.0
  0
LINE
  5
65
  8
2
 10
82.243102355764421
 20
67.134427621991804
 30
0.0
 11
76.664102355764157
 21
67.134427621991804
 31
0.0
  0
LINE
  5
66
  8
2
 10
81.864102355764174
 20
70.755427621991529
 30
0.0
 11
81.864102355764174
 21
67.513427621992122
 31
0.0
  0
LINE
  5
67
  8
2
 10
81.864102355764174
 20
67.513427621992122
 30
0.0
 11
82.664102355764186
 21
66.713427621992082
 31
0.0
  0
LINE
  5
71
  8
0
 10
82.36410235576416
 20
65.634427621991819
 30
0.0
 11
82.664102355764214
 21
65.634427621991847
 31
0.0
  0
LINE
  5
74
  8
2
 10
75.664102355764115
 20
72.634427621991804
 30
0.0
 11
73.664102355764157
 21
70.634427621991804
 31
0.0
  0
LINE
  5
75
  8
2
 10
82.36410235576416
 20
72.634427621991833
 30
0.0
 11
75.664102355764115
 21
72.634427621991804
 31
0.0
  0
LINE
  5
76
  8
2
 10
82.243102355764421
 20
71.134427621991804
 30
0.0
 11
76.664102355764157
 21
71.134427621991804
 31
0.0
  0
LINE
  5
77
  8
2
 10
81.864102355764174
 20
70.755427621991529
 30
0.0
 11
75.164102355764143
 21
70.755427621991529
 31
0.0
  0
LINE
  5
78
  8
2
 10
76.664102355764157
 20
71.134427621991733
 30
0.0
 11
76.007655099695114
 21
70.755427621991501
 31
0.0
  0
LINE
  5
79
  8
2
 10
75.164102355764143
 20
70.755427621991444
 30
0.0
 11
74.190107292320704
 21
69.134427621991804
 31
0.0
  0
LINE
  5
7A
  8
2
 10
81.864102355764174
 20
70.755427621991572
 30
0.0
 11
82.664102355764186
 21
71.555427621991612
 31
0.0
  0
LINE
  5
7B
  8
0
 10
70.414102355764157
 20
69.842232362603681
 30
0.0
 11
76.114103523771519
 21
69.842232362603696
 31
0.0
  0
LINE
  5
7C
  8
0
 10
70.414102355764157
 20
72.505764115984547
 30
0.0
 11
76.136962393263474
 21
72.505764115984547
 31
0.0
  0
LINE
  5
7D
  8
0
 10
70.414102355764157
 20
73.731717888562457
 30
0.0
 11
76.114102355763805
 21
73.731717888562443
 31
0.0
  0
LINE
  5
7E
  8
0
 10
70.414102355764157
 20
75.681558459610287
 30
0.0
 11
76.148947925734873
 21
75.681558459610272
 31
0.0
  0
LINE
  5
7F
  8
0
 10
70.414102355764157
 20
76.389363200222121
 30
0.0
 11
76.114102355763777
 21
76.389363200222121
 31
0.0
  0
LINE
  5
80
  8
0
 10
70.414102355764157
 20
77.103054382555243
 30
0.0
 11
76.114102355763563
 21
77.103054382555257
 31
0.0
  0
LINE
  5
81
  8
0
 10
70.414102355764157
 20
68.426622881379927
 30
0.0
 11
76.136718895403007
 21
68.426622881379942
 31
0.0
  0
POLYLINE
  5
82
  8
0
 66
     1
 10
0.0
 20
0.0
 30
0.0
  0
VERTEX
  5
83
  8
0
 10
70.164102355763831
 20
69.134427621991847
 30
0.0
 42
0.0363338685802231
 50
90.0
  0
VERTEX
  5
84
  8
0
 10
70.185172611901891
 20
68.84485702214198
 30
0.0
 42
0.0486020662739422
 50
90.0
  0
VERTEX
  5
85
  8
0
 10
70.23732566046732
 20
68.633934090149182
 30
0.0
 42
0.0918921657250572
 70
     2
 50
289.4534628247896
  0
VERTEX
  5
86
  8
0
 10
70.340748515484393
 20
68.454468140540214
 30
0.0
 42
0.2563706040809025
 50
289.4534628247896
  0
VERTEX
  5
87
  8
0
 10
70.414102355764186
 20
68.426622881379942
 30
0.0
 42
0.2196144455096618
 50
90.0
  0
SEQEND
  5
88
  8
0
  0
POLYLINE
  5
89
  8
0
 66
     1
 10
0.0
 20
0.0
 30
0.0
  0
VERTEX
  5
8A
  8
0
 10
70.414102355764101
 20
69.842232362603781
 30
0.0
 42
0.2196144455096195
 50
90.0
  0
VERTEX
  5
8B
  8
0
 10
70.336032968336596
 20
69.80620438457882
 30
0.0
 42
0.0918921657250284
 50
90.0
  0
VERTEX
  5
8C
  8
0
 10
70.237325660467263
 20
69.634921153834526
 30
0.0
 42
0.0486020662739239
 70
     2
 50
250.54653717521691
  0
VERTEX
  5
8D
  8
0
 10
70.185172611901834
 20
69.4239982218416
 30
0.0
 42
0.0363338685801739
 50
250.54653717521691
  0
VERTEX
  5
8E
  8
0
 10
70.164102355763831
 20
69.134427621991847
 30
0.0
 42
0.0363338685802231
 50
90.0
  0
SEQEND
  5
8F
  8
0
  0
POLYLINE
  5
90
  8
0
 66
     1
 10
0.0
 20
0.0
 30
0.0
  0
VERTEX
  5
91
  8
0
 10
76.114102355763805
 20
69.842232362603781
 30
0.0
 42
-0.2196144455096195
 50
90.0
  0
VERTEX
  5
92
  8
0
 10
76.192171743191309
 20
69.80620438457882
 30
0.0
 42
-0.0918921657250284
 50
90.0
  0
VERTEX
  5
93
  8
0
 10
76.290879051060642
 20
69.634921153834526
 30
0.0
 42
-0.0486020662739239
 70
     2
 50
289.453462824783
  0
VERTEX
  5
94
  8
0
 10
76.343032099626072
 20
69.4239982218416
 30
0.0
 42
-0.0363338685801739
 50
90.0
  0
VERTEX
  5
95
  8
0
 10
76.364102355764075
 20
69.134427621991847
 30
0.0
 42
-0.0363338685802231
 50
90.0
  0
SEQEND
  5
96
  8
0
  0
POLYLINE
  5
97
  8
0
 66
     1
 10
0.0
 20
0.0
 30
0.0
  0
VERTEX
  5
98
  8
0
 10
76.364102355764075
 20
69.134427621991847
 30
0.0
 42
-0.0363338685802231
 50
90.0
  0
VERTEX
  5
99
  8
0
 10
76.343032099626015
 20
68.84485702214198
 30
0.0
 42
-0.0486020662739422
 50
90.0
  0
VERTEX
  5
9A
  8
0
 10
76.290879051060585
 20
68.633934090149182
 30
0.0
 42
-0.0918921657250572
 70
     2
 50
250.54653717521029
  0
VERTEX
  5
9B
  8
0
 10
76.187456196043513
 20
68.454468140540214
 30
0.0
 42
-0.2563706040809025
 50
90.0
  0
VERTEX
  5
9C
  8
0
 10
76.114102355763706
 20
68.426622881379942
 30
0.0
 42
-0.2196144455096618
 50
90.0
  0
SEQEND
  5
9D
  8
0
  0
LINE
  5
9E
  8
0
 10
70.414102355764143
 20
69.842232362603681
 30
0.0
 11
70.414102355764129
 21
72.505764115984547
 31
0.0
  0
POLYLINE
  5
9F
  8
0
 66
     1
 10
0.0
 20
0.0
 30
0.0
  0
VERTEX
  5
A0
  8
0
 10
70.414102355764101
 20
73.731717888562457
 30
0.0
 42
0.2244450920054925
 50
90.0
  0
VERTEX
  5
A1
  8
0
 10
70.336736200281152
 20
73.695146684467133
 30
0.0
 42
0.0901691907520375
 50
90.0
  0
VERTEX
  5
A2
  8
0
 10
70.237325660467263
 20
73.516502802233816
 30
0.0
 42
0.0470196877347411
 70
     2
 50
251.20999383284229
  0
VERTEX
  5
A3
  8
0
 10
70.185198767475526
 20
73.297797117864832
 30
0.0
 42
0.035016086932325
 50
251.20999383284229
  0
VERTEX
  5
A4
  8
0
 10
70.164102355763831
 20
72.996927621991958
 30
0.0
 42
0.0350160869323387
 50
90.0
  0
SEQEND
  5
A5
  8
0
  0
POLYLINE
  5
A6
  8
0
 66
     1
 10
0.0
 20
0.0
 30
0.0
  0
VERTEX
  5
A7
  8
0
 10
70.16410235576376
 20
72.996927621991958
 30
0.0
 42
0.0519942056325265
 50
90.0
  0
VERTEX
  5
A8
  8
0
 10
70.184798190976295
 20
72.798445061349753
 30
0.0
 42
0.0658520295855318
 50
90.0
  0
VERTEX
  5
A9
  8
0
 10
70.237325660467263
 20
72.649622576222754
 30
0.0
 42
0.1046008475216924
 70
     2
 50
296.9758878539098
  0
VERTEX
  5
AA
  8
0
 10
70.334365888260123
 20
72.529440150049567
 30
0.0
 42
0.1998248705224882
 50
296.9758878539098
  0
VERTEX
  5
AB
  8
0
 10
70.414102355764172
 20
72.505764115984547
 30
0.0
 42
0.1724524218163822
 50
90.0
  0
SEQEND
  5
AC
  8
0
  0
LINE
  5
AD
  8
0
 10
70.414102355764129
 20
73.731717888562457
 30
0.0
 11
70.414102355764129
 21
75.681558459610272
 31
0.0
  0
POLYLINE
  5
AE
  8
0
 66
     1
 10
0.0
 20
0.0
 30
0.0
  0
VERTEX
  5
AF
  8
0
 10
70.164102355763816
 20
75.824473866226896
 30
0.0
 50
90.0
  0
VERTEX
  5
B0
  8
0
 10
70.180256056487835
 20
75.774648826496318
 30
0.0
 42
0.1065107702596174
 50
90.0
  0
VERTEX
  5
B1
  8
0
 10
70.237325660467278
 20
75.723417413072255
 30
0.0
 42
0.0718266842203901
 70
     2
 50
330.24505355315
  0
VERTEX
  5
B2
  8
0
 10
70.322688342704225
 20
75.689726181605522
 30
0.0
 42
0.0718208819146952
 50
330.24505355315
  0
VERTEX
  5
B3
  8
0
 10
70.414102355764129
 20
75.681558459613527
 30
0.0
 42
0.0581924543484093
 50
90.0
  0
SEQEND
  5
B4
  8
0
  0
POLYLINE
  5
B5
  8
0
 66
     1
 10
0.0
 20
0.0
 30
0.0
  0
VERTEX
  5
B6
  8
0
 10
70.414102355764129
 20
76.389363200222093
 30
0.0
 42
0.1903295519116534
 50
90.0
  0
VERTEX
  5
B7
  8
0
 10
70.331728832249752
 20
76.356828383851791
 30
0.0
 42
0.1007950070163301
 50
90.0
  0
VERTEX
  5
B8
  8
0
 10
70.237325660467278
 20
76.223910944914849
 30
0.0
 42
0.0589055386465863
 70
     2
 50
246.12751664736999
  0
VERTEX
  5
B9
  8
0
 10
70.184970748987155
 20
76.054047241347519
 30
0.0
 42
0.0453568750980548
 50
246.12751664736999
  0
VERTEX
  5
BA
  8
0
 10
70.164102355763816
 20
75.824473866226896
 30
0.0
 42
0.0453568750980339
 50
90.0
  0
SEQEND
  5
BB
  8
0
  0
LINE
  5
BC
  8
0
 10
70.414102355764129
 20
76.389363200222093
 30
0.0
 11
70.414102355764157
 21
77.103054382555229
 31
0.0
  0
POLYLINE
  5
BD
  8
0
 66
     1
 10
0.0
 20
0.0
 30
0.0
  0
VERTEX
  5
BE
  8
0
 10
70.164102355763831
 20
76.884427621991492
 30
0.0
 42
0.087101949488593
 50
90.0
  0
VERTEX
  5
BF
  8
0
 10
70.261251031792483
 20
76.901480677397515
 30
0.0
 42
0.0930219345922933
 50
90.0
  0
VERTEX
  5
C0
  8
0
 10
70.340879051060696
 20
76.948461917611766
 30
0.0
 42
0.10283426098262
 70
     2
 50
41.169924429810322
  0
VERTEX
  5
C1
  8
0
 10
70.399996452743494
 20
77.026664835702206
 30
0.0
 42
0.1306095639862077
 50
41.169924429810322
  0
VERTEX
  5
C2
  8
0
 10
70.414102355757123
 20
77.103054382555243
 30
0.0
 42
0.0381262100094925
 50
90.0
  0
SEQEND
  5
C3
  8
0
  0
POLYLINE
  5
C4
  8
0
 66
     1
 10
0.0
 20
0.0
 30
0.0
  0
VERTEX
  5
C5
  8
0
 10
76.364102355764146
 20
72.996927621991958
 30
0.0
 42
-0.0519942056325265
 50
90.0
  0
VERTEX
  5
C6
  8
0
 10
76.343406520551611
 20
72.798445061349753
 30
0.0
 42
-0.0658520295855318
 50
90.0
  0
VERTEX
  5
C7
  8
0
 10
76.290879051060642
 20
72.649622576222754
 30
0.0
 42
-0.1046008475216924
 70
     2
 50
243.0241121460902
  0
VERTEX
  5
C8
  8
0
 10
76.193838823267754
 20
72.529440150049567
 30
0.0
 42
-0.1998248705224882
 50
90.0
  0
VERTEX
  5
C9
  8
0
 10
76.114102355763734
 20
72.505764115984547
 30
0.0
 42
-0.1724524218163822
 50
90.0
  0
SEQEND
  5
CA
  8
0
  0
POLYLINE
  5
CB
  8
0
 66
     1
 10
0.0
 20
0.0
 30
0.0
  0
VERTEX
  5
CC
  8
0
 10
76.114102355763805
 20
73.731717888562457
 30
0.0
 42
-0.2244450920054925
 50
90.0
  0
VERTEX
  5
CD
  8
0
 10
76.191468511246754
 20
73.695146684467133
 30
0.0
 42
-0.0901691907520375
 50
90.0
  0
VERTEX
  5
CE
  8
0
 10
76.290879051060642
 20
73.516502802233816
 30
0.0
 42
-0.0470196877347411
 70
     2
 50
288.79000616715769
  0
VERTEX
  5
CF
  8
0
 10
76.343005944052379
 20
73.297797117864832
 30
0.0
 42
-0.035016086932325
 50
90.0
  0
VERTEX
  5
D0
  8
0
 10
76.364102355764075
 20
72.996927621991958
 30
0.0
 42
-0.0350160869323387
 50
90.0
  0
SEQEND
  5
D1
  8
0
  0
POLYLINE
  5
D2
  8
0
 66
     1
 10
0.0
 20
0.0
 30
0.0
  0
VERTEX
  5
D3
  8
0
 10
76.364102355764089
 20
75.824473866226896
 30
0.0
 50
90.0
  0
VERTEX
  5
D4
  8
0
 10
76.347948655040071
 20
75.774648826496318
 30
0.0
 42
-0.1065107702596174
 50
90.0
  0
VERTEX
  5
D5
  8
0
 10
76.290879051060628
 20
75.723417413072255
 30
0.0
 42
-0.0718266842203901
 70
     2
 50
209.75494644685
  0
VERTEX
  5
D6
  8
0
 10
76.20551636882368
 20
75.689726181605522
 30
0.0
 42
-0.0718208819146952
 50
90.0
  0
VERTEX
  5
D7
  8
0
 10
76.114102355763777
 20
75.681558459613527
 30
0.0
 42
-0.0581924543484093
 50
90.0
  0
SEQEND
  5
D8
  8
0
  0
POLYLINE
  5
D9
  8
0
 66
     1
 10
0.0
 20
0.0
 30
0.0
  0
VERTEX
  5
DA
  8
0
 10
76.114102355763777
 20
76.389363200222093
 30
0.0
 42
-0.1903295519116534
 50
90.0
  0
VERTEX
  5
DB
  8
0
 10
76.196475879278154
 20
76.356828383851791
 30
0.0
 42
-0.1007950070163301
 50
90.0
  0
VERTEX
  5
DC
  8
0
 10
76.290879051060628
 20
76.223910944914849
 30
0.0
 42
-0.0589055386465863
 70
     2
 50
293.87248335263001
  0
VERTEX
  5
DD
  8
0
 10
76.343233962540751
 20
76.054047241347519
 30
0.0
 42
-0.0453568750980548
 50
90.0
  0
VERTEX
  5
DE
  8
0
 10
76.364102355764089
 20
75.824473866226896
 30
0.0
 42
-0.0453568750980339
 50
90.0
  0
SEQEND
  5
DF
  8
0
  0
POLYLINE
  5
E0
  8
0
 66
     1
 10
0.0
 20
0.0
 30
0.0
  0
VERTEX
  5
E1
  8
0
 10
76.114102355763777
 20
77.103054382555257
 30
0.0
 50
90.0
  0
VERTEX
  5
E2
  8
0
 10
76.217487916204604
 20
77.105739606370037
 30
0.0
 42
0.0182285675157924
 50
90.0
  0
VERTEX
  5
E3
  8
0
 10
76.290879051060614
 20
77.112243391638486
 30
0.0
 42
0.0423593239487818
 70
     2
 50
7.1528245286919203
  0
VERTEX
  5
E4
  8
0
 10
76.360021704633482
 20
77.126945092723119
 30
0.0
 50
7.1528245286919203
  0
VERTEX
  5
E5
  8
0
 10
76.364102355764118
 20
77.134427621991861
 30
0.0
 50
90.0
  0
SEQEND
  5
E6
  8
0
  0
POLYLINE
  5
E7
  8
0
 66
     1
 10
0.0
 20
0.0
 30
0.0
  0
VERTEX
  5
E8
  8
0
 10
76.114102355763777
 20
61.165800861428473
 30
0.0
 50
90.0
  0
VERTEX
  5
E9
  8
0
 10
76.217487916204604
 20
61.163115637613693
 30
0.0
 42
-0.0182285675157924
 50
90.0
  0
VERTEX
  5
EA
  8
0
 10
76.290879051060614
 20
61.156611852345243
 30
0.0
 42
-0.0423593239487818
 70
     2
 50
352.84717547130811
  0
VERTEX
  5
EB
  8
0
 10
76.360021704633482
 20
61.14191015126061
 30
0.0
 50
90.0
  0
VERTEX
  5
EC
  8
0
 10
76.364102355764118
 20
61.134427621991868
 30
0.0
 50
90.0
  0
SEQEND
  5
ED
  8
0
  0
POLYLINE
  5
EE
  8
0
 66
     1
 10
0.0
 20
0.0
 30
0.0
  0
VERTEX
  5
EF
  8
0
 10
76.114102355763777
 20
61.87949204376163
 30
0.0
 42
0.1903295519116534
 50
90.0
  0
VERTEX
  5
F0
  8
0
 10
76.196475879278154
 20
61.912026860131938
 30
0.0
 42
0.1007950070163301
 50
90.0
  0
VERTEX
  5
F1
  8
0
 10
76.290879051060628
 20
62.044944299068881
 30
0.0
 42
0.0589055386465863
 70
     2
 50
66.127516647369944
  0
VERTEX
  5
F2
  8
0
 10
76.343233962540751
 20
62.214808002636211
 30
0.0
 42
0.0453568750980548
 50
90.0
  0
VERTEX
  5
F3
  8
0
 10
76.364102355764089
 20
62.444381377756827
 30
0.0
 42
0.0453568750980339
 50
90.0
  0
SEQEND
  5
F4
  8
0
  0
POLYLINE
  5
F5
  8
0
 66
     1
 10
0.0
 20
0.0
 30
0.0
  0
VERTEX
  5
F6
  8
0
 10
76.364102355764089
 20
62.444381377756827
 30
0.0
 50
90.0
  0
VERTEX
  5
F7
  8
0
 10
76.347948655040071
 20
62.494206417487412
 30
0.0
 42
0.1065107702596174
 50
90.0
  0
VERTEX
  5
F8
  8
0
 10
76.290879051060628
 20
62.545437830911467
 30
0.0
 42
0.0718266842203901
 70
     2
 50
150.24505355314989
  0
VERTEX
  5
F9
  8
0
 10
76.20551636882368
 20
62.5791290623782
 30
0.0
 42
0.0718208819146952
 50
90.0
  0
VERTEX
  5
FA
  8
0
 10
76.114102355763777
 20
62.587296784370203
 30
0.0
 42
0.0581924543484093
 50
90.0
  0
SEQEND
  5
FB
  8
0
  0
POLYLINE
  5
FC
  8
0
 66
     1
 10
0.0
 20
0.0
 30
0.0
  0
VERTEX
  5
FD
  8
0
 10
76.114102355763805
 20
64.537137355421265
 30
0.0
 42
0.2244450920054925
 50
90.0
  0
VERTEX
  5
FE
  8
0
 10
76.191468511246754
 20
64.573708559516575
 30
0.0
 42
0.0901691907520375
 50
90.0
  0
VERTEX
  5
FF
  8
0
 10
76.290879051060642
 20
64.752352441749906
 30
0.0
 42
0.0470196877347411
 70
     2
 50
71.209993832842272
  0
VERTEX
  5
100
  8
0
 10
76.343005944052379
 20
64.971058126118891
 30
0.0
 42
0.035016086932325
 50
90.0
  0
VERTEX
  5
101
  8
0
 10
76.364102355764075
 20
65.271927621991765
 30
0.0
 42
0.0350160869323387
 50
90.0
  0
SEQEND
  5
102
  8
0
  0
POLYLINE
  5
103
  8
0
 66
     1
 10
0.0
 20
0.0
 30
0.0
  0
VERTEX
  5
104
  8
0
 10
76.364102355764146
 20
65.271927621991765
 30
0.0
 42
0.0519942056325265
 50
90.0
  0
VERTEX
  5
105
  8
0
 10
76.343406520551611
 20
65.470410182633969
 30
0.0
 42
0.0658520295855318
 50
90.0
  0
VERTEX
  5
106
  8
0
 10
76.290879051060642
 20
65.619232667760969
 30
0.0
 42
0.1046008475216924
 70
     2
 50
116.9758878539098
  0
VERTEX
  5
107
  8
0
 10
76.193838823267754
 20
65.739415093934156
 30
0.0
 42
0.1998248705224882
 50
90.0
  0
VERTEX
  5
108
  8
0
 10
76.114102355763734
 20
65.763091127999175
 30
0.0
 42
0.1724524218163822
 50
90.0
  0
SEQEND
  5
109
  8
0
  0
POLYLINE
  5
10A
  8
0
 66
     1
 10
0.0
 20
0.0
 30
0.0
  0
VERTEX
  5
10B
  8
0
 10
70.164102355763831
 20
61.384427621992238
 30
0.0
 42
-0.087101949488593
 50
90.0
  0
VERTEX
  5
10C
  8
0
 10
70.261251031792483
 20
61.367374566586221
 30
0.0
 42
-0.0930219345922933
 50
90.0
  0
VERTEX
  5
10D
  8
0
 10
70.340879051060696
 20
61.320393326371963
 30
0.0
 42
-0.10283426098262
 70
     2
 50
318.83007557018971
  0
VERTEX
  5
10E
  8
0
 10
70.399996452743494
 20
61.242190408281523
 30
0.0
 42
-0.1306095639862077
 50
90.0
  0
VERTEX
  5
10F
  8
0
 10
70.414102355757123
 20
61.165800861428487
 30
0.0
 42
-0.0381262100094925
 50
90.0
  0
SEQEND
  5
110
  8
0
  0
LINE
  5
111
  8
0
 10
70.414102355764129
 20
61.87949204376163
 30
0.0
 11
70.414102355764157
 21
61.165800861428501
 31
0.0
  0
POLYLINE
  5
112
  8
0
 66
     1
 10
0.0
 20
0.0
 30
0.0
  0
VERTEX
  5
113
  8
0
 10
70.414102355764129
 20
61.87949204376163
 30
0.0
 42
-0.1903295519116534
 50
90.0
  0
VERTEX
  5
114
  8
0
 10
70.331728832249752
 20
61.912026860131938
 30
0.0
 42
-0.1007950070163301
 50
90.0
  0
VERTEX
  5
115
  8
0
 10
70.237325660467278
 20
62.044944299068881
 30
0.0
 42
-0.0589055386465863
 70
     2
 50
113.8724833526301
  0
VERTEX
  5
116
  8
0
 10
70.184970748987155
 20
62.214808002636211
 30
0.0
 42
-0.0453568750980548
 50
90.0
  0
VERTEX
  5
117
  8
0
 10
70.164102355763816
 20
62.444381377756827
 30
0.0
 42
-0.0453568750980339
 50
90.0
  0
SEQEND
  5
118
  8
0
  0
POLYLINE
  5
119
  8
0
 66
     1
 10
0.0
 20
0.0
 30
0.0
  0
VERTEX
  5
11A
  8
0
 10
70.164102355763816
 20
62.444381377756827
 30
0.0
 50
90.0
  0
VERTEX
  5
11B
  8
0
 10
70.180256056487835
 20
62.494206417487412
 30
0.0
 42
-0.1065107702596174
 50
90.0
  0
VERTEX
  5
11C
  8
0
 10
70.237325660467278
 20
62.545437830911467
 30
0.0
 42
-0.0718266842203901
 70
     2
 50
29.75494644685006
  0
VERTEX
  5
11D
  8
0
 10
70.322688342704225
 20
62.5791290623782
 30
0.0
 42
-0.0718208819146952
 50
90.0
  0
VERTEX
  5
11E
  8
0
 10
70.414102355764129
 20
62.587296784370203
 30
0.0
 42
-0.0581924543484093
 50
90.0
  0
SEQEND
  5
11F
  8
0
  0
LINE
  5
120
  8
0
 10
70.414102355764129
 20
64.537137355421265
 30
0.0
 11
70.414102355764129
 21
62.587296784373457
 31
0.0
  0
POLYLINE
  5
121
  8
0
 66
     1
 10
0.0
 20
0.0
 30
0.0
  0
VERTEX
  5
122
  8
0
 10
70.16410235576376
 20
65.271927621991765
 30
0.0
 42
-0.0519942056325265
 50
90.0
  0
VERTEX
  5
123
  8
0
 10
70.184798190976295
 20
65.470410182633969
 30
0.0
 42
-0.0658520295855318
 50
90.0
  0
VERTEX
  5
124
  8
0
 10
70.237325660467263
 20
65.619232667760969
 30
0.0
 42
-0.1046008475216924
 70
     2
 50
63.024112146090218
  0
VERTEX
  5
125
  8
0
 10
70.334365888260123
 20
65.739415093934156
 30
0.0
 42
-0.1998248705224882
 50
90.0
  0
VERTEX
  5
126
  8
0
 10
70.414102355764172
 20
65.763091127999175
 30
0.0
 42
-0.1724524218163822
 50
90.0
  0
SEQEND
  5
127
  8
0
  0
POLYLINE
  5
128
  8
0
 66
     1
 10
0.0
 20
0.0
 30
0.0
  0
VERTEX
  5
129
  8
0
 10
70.414102355764101
 20
64.537137355421265
 30
0.0
 42
-0.2244450920054925
 50
90.0
  0
VERTEX
  5
12A
  8
0
 10
70.336736200281152
 20
64.573708559516575
 30
0.0
 42
-0.0901691907520375
 50
90.0
  0
VERTEX
  5
12B
  8
0
 10
70.237325660467263
 20
64.752352441749906
 30
0.0
 42
-0.0470196877347411
 70
     2
 50
108.7900061671577
  0
VERTEX
  5
12C
  8
0
 10
70.185198767475526
 20
64.971058126118891
 30
0.0
 42
-0.035016086932325
 50
90.0
  0
VERTEX
  5
12D
  8
0
 10
70.164102355763831
 20
65.271927621991765
 30
0.0
 42
-0.0350160869323387
 50
90.0
  0
SEQEND
  5
12E
  8
0
  0
LINE
  5
12F
  8
0
 10
70.414102355764143
 20
68.426622881380041
 30
0.0
 11
70.414102355764129
 21
65.763091127999175
 31
0.0
  0
LINE
  5
130
  8
0
 10
70.414102355764157
 20
61.165800861428487
 30
0.0
 11
76.114102355763563
 21
61.165800861428473
 31
0.0
  0
LINE
  5
131
  8
0
 10
70.414102355764157
 20
61.879492043761608
 30
0.0
 11
76.114102355763777
 21
61.879492043761608
 31
0.0
  0
LINE
  5
132
  8
0
 10
70.414102355764157
 20
62.587296784373443
 30
0.0
 11
76.148947925734873
 21
62.587296784373457
 31
0.0
  0
LINE
  5
133
  8
0
 10
70.414102355764157
 20
64.537137355421265
 30
0.0
 11
76.114102355763805
 21
64.537137355421279
 31
0.0
  0
LINE
  5
134
  8
0
 10
70.414102355764157
 20
65.763091127999175
 30
0.0
 11
76.136962393263474
 21
65.763091127999175
 31
0.0
  0
LINE
  5
135
  8
0
 10
76.364102355764103
 20
61.134427621991897
 30
0.0
 11
76.914102355764157
 21
61.134427621991883
 31
0.0
  0
LINE
  5
136
  8
0
 10
69.664102355764143
 20
61.884427621991883
 30
0.0
 11
70.164102355771064
 21
61.38442762198499
 31
0.0
  0
LINE
  5
137
  8
0
 10
69.664102355764172
 20
96.884427621991875
 30
0.0
 11
70.164102355771078
 21
96.384427621984969
 31
0.0
  0
LINE
  5
138
  8
0
 10
76.364102355764118
 20
96.134427621991904
 30
0.0
 11
76.914102355764172
 21
96.134427621991875
 31
0.0
  0
LINE
  5
139
  8
0
 10
70.414102355764172
 20
100.7630911279992
 30
0.0
 11
76.136962393263474
 21
100.7630911279992
 31
0.0
  0
LINE
  5
13A
  8
0
 10
70.414102355764172
 20
99.537137355421265
 30
0.0
 11
76.114102355763819
 21
99.537137355421294
 31
0.0
  0
LINE
  5
13B
  8
0
 10
70.414102355764172
 20
97.587296784373464
 30
0.0
 11
76.148947925734888
 21
97.587296784373464
 31
0.0
  0
LINE
  5
13C
  8
0
 10
70.414102355764172
 20
96.879492043761616
 30
0.0
 11
76.114102355763791
 21
96.879492043761616
 31
0.0
  0
LINE
  5
13D
  8
0
 10
70.414102355764172
 20
96.165800861428465
 30
0.0
 11
76.114102355763563
 21
96.165800861428465
 31
0.0
  0
LINE
  5
13E
  8
0
 10
70.414102355764157
 20
103.42662288138
 30
0.0
 11
70.414102355764143
 21
100.7630911279992
 31
0.0
  0
POLYLINE
  5
13F
  8
0
 66
     1
 10
0.0
 20
0.0
 30
0.0
  0
VERTEX
  5
140
  8
0
 10
70.414102355764115
 20
99.537137355421265
 30
0.0
 42
-0.2244450920054925
 50
90.0
  0
VERTEX
  5
141
  8
0
 10
70.336736200281166
 20
99.573708559516604
 30
0.0
 42
-0.0901691907520375
 50
90.0
  0
VERTEX
  5
142
  8
0
 10
70.237325660467278
 20
99.752352441749906
 30
0.0
 42
-0.0470196877347411
 70
     2
 50
108.7900061671577
  0
VERTEX
  5
143
  8
0
 10
70.185198767475541
 20
99.971058126118905
 30
0.0
 42
-0.035016086932325
 50
90.0
  0
VERTEX
  5
144
  8
0
 10
70.164102355763845
 20
100.27192762199169
 30
0.0
 42
-0.0350160869323387
 50
90.0
  0
SEQEND
  5
145
  8
0
  0
POLYLINE
  5
146
  8
0
 66
     1
 10
0.0
 20
0.0
 30
0.0
  0
VERTEX
  5
147
  8
0
 10
70.164102355763774
 20
100.27192762199169
 30
0.0
 42
-0.0519942056325265
 50
90.0
  0
VERTEX
  5
148
  8
0
 10
70.184798190976309
 20
100.4704101826339
 30
0.0
 42
-0.0658520295855318
 50
90.0
  0
VERTEX
  5
149
  8
0
 10
70.237325660467278
 20
100.6192326677609
 30
0.0
 42
-0.1046008475216924
 70
     2
 50
63.024112146090218
  0
VERTEX
  5
14A
  8
0
 10
70.334365888260152
 20
100.7394150939341
 30
0.0
 42
-0.1998248705224882
 50
90.0
  0
VERTEX
  5
14B
  8
0
 10
70.414102355764186
 20
100.7630911279992
 30
0.0
 42
-0.1724524218163822
 50
90.0
  0
SEQEND
  5
14C
  8
0
  0
LINE
  5
14D
  8
0
 10
70.414102355764143
 20
99.537137355421265
 30
0.0
 11
70.414102355764143
 21
97.587296784373464
 31
0.0
  0
POLYLINE
  5
14E
  8
0
 66
     1
 10
0.0
 20
0.0
 30
0.0
  0
VERTEX
  5
14F
  8
0
 10
70.164102355763831
 20
97.444381377756827
 30
0.0
 50
90.0
  0
VERTEX
  5
150
  8
0
 10
70.180256056487849
 20
97.494206417487405
 30
0.0
 42
-0.1065107702596174
 50
90.0
  0
VERTEX
  5
151
  8
0
 10
70.237325660467292
 20
97.545437830911453
 30
0.0
 42
-0.0718266842203901
 70
     2
 50
29.75494644685006
  0
VERTEX
  5
152
  8
0
 10
70.32268834270424
 20
97.5791290623782
 30
0.0
 42
-0.0718208819146952
 50
90.0
  0
VERTEX
  5
153
  8
0
 10
70.414102355764143
 20
97.587296784370196
 30
0.0
 42
-0.0581924543484093
 50
90.0
  0
SEQEND
  5
154
  8
0
  0
POLYLINE
  5
155
  8
0
 66
     1
 10
0.0
 20
0.0
 30
0.0
  0
VERTEX
  5
156
  8
0
 10
70.414102355764143
 20
96.879492043761616
 30
0.0
 42
-0.1903295519116534
 50
90.0
  0
VERTEX
  5
157
  8
0
 10
70.331728832249766
 20
96.912026860131931
 30
0.0
 42
-0.1007950070163301
 50
90.0
  0
VERTEX
  5
158
  8
0
 10
70.237325660467292
 20
97.044944299068874
 30
0.0
 42
-0.0589055386465863
 70
     2
 50
113.8724833526301
  0
VERTEX
  5
159
  8
0
 10
70.184970748987169
 20
97.214808002636204
 30
0.0
 42
-0.0453568750980548
 50
90.0
  0
VERTEX
  5
15A
  8
0
 10
70.164102355763831
 20
97.444381377756827
 30
0.0
 42
-0.0453568750980339
 50
90.0
  0
SEQEND
  5
15B
  8
0
  0
LINE
  5
15C
  8
0
 10
70.414102355764143
 20
96.879492043761616
 30
0.0
 11
70.414102355764172
 21
96.165800861428494
 31
0.0
  0
POLYLINE
  5
15D
  8
0
 66
     1
 10
0.0
 20
0.0
 30
0.0
  0
VERTEX
  5
15E
  8
0
 10
70.164102355763845
 20
96.384427621992245
 30
0.0
 42
-0.087101949488593
 50
90.0
  0
VERTEX
  5
15F
  8
0
 10
70.261251031792497
 20
96.367374566586193
 30
0.0
 42
-0.0930219345922933
 50
90.0
  0
VERTEX
  5
160
  8
0
 10
70.34087905106071
 20
96.320393326371985
 30
0.0
 42
-0.10283426098262
 70
     2
 50
318.83007557018971
  0
VERTEX
  5
161
  8
0
 10
70.399996452743508
 20
96.242190408281516
 30
0.0
 42
-0.1306095639862077
 50
90.0
  0
VERTEX
  5
162
  8
0
 10
70.414102355757137
 20
96.165800861428465
 30
0.0
 42
-0.0381262100094925
 50
90.0
  0
SEQEND
  5
163
  8
0
  0
POLYLINE
  5
164
  8
0
 66
     1
 10
0.0
 20
0.0
 30
0.0
  0
VERTEX
  5
165
  8
0
 10
76.36410235576416
 20
100.27192762199169
 30
0.0
 42
0.0519942056325265
 50
90.0
  0
VERTEX
  5
166
  8
0
 10
76.343406520551625
 20
100.4704101826339
 30
0.0
 42
0.0658520295855318
 50
90.0
  0
VERTEX
  5
167
  8
0
 10
76.290879051060656
 20
100.6192326677609
 30
0.0
 42
0.1046008475216924
 70
     2
 50
116.9758878539098
  0
VERTEX
  5
168
  8
0
 10
76.193838823267782
 20
100.7394150939341
 30
0.0
 42
0.1998248705224882
 50
90.0
  0
VERTEX
  5
169
  8
0
 10
76.114102355763748
 20
100.7630911279992
 30
0.0
 42
0.1724524218163822
 50
90.0
  0
SEQEND
  5
16A
  8
0
  0
POLYLINE
  5
16B
  8
0
 66
     1
 10
0.0
 20
0.0
 30
0.0
  0
VERTEX
  5
16C
  8
0
 10
76.114102355763819
 20
99.537137355421265
 30
0.0
 42
0.2244450920054925
 50
90.0
  0
VERTEX
  5
16D
  8
0
 10
76.191468511246768
 20
99.573708559516604
 30
0.0
 42
0.0901691907520375
 50
90.0
  0
VERTEX
  5
16E
  8
0
 10
76.290879051060656
 20
99.752352441749906
 30
0.0
 42
0.0470196877347411
 70
     2
 50
71.209993832842272
  0
VERTEX
  5
16F
  8
0
 10
76.343005944052393
 20
99.971058126118905
 30
0.0
 42
0.035016086932325
 50
90.0
  0
VERTEX
  5
170
  8
0
 10
76.364102355764089
 20
100.27192762199169
 30
0.0
 42
0.0350160869323387
 50
90.0
  0
SEQEND
  5
171
  8
0
  0
POLYLINE
  5
172
  8
0
 66
     1
 10
0.0
 20
0.0
 30
0.0
  0
VERTEX
  5
173
  8
0
 10
76.364102355764103
 20
97.444381377756827
 30
0.0
 50
90.0
  0
VERTEX
  5
174
  8
0
 10
76.347948655040085
 20
97.494206417487405
 30
0.0
 42
0.1065107702596174
 50
90.0
  0
VERTEX
  5
175
  8
0
 10
76.290879051060642
 20
97.545437830911453
 30
0.0
 42
0.0718266842203901
 70
     2
 50
150.24505355314989
  0
VERTEX
  5
176
  8
0
 10
76.205516368823695
 20
97.5791290623782
 30
0.0
 42
0.0718208819146952
 50
90.0
  0
VERTEX
  5
177
  8
0
 10
76.114102355763791
 20
97.587296784370196
 30
0.0
 42
0.0581924543484093
 50
90.0
  0
SEQEND
  5
178
  8
0
  0
POLYLINE
  5
179
  8
0
 66
     1
 10
0.0
 20
0.0
 30
0.0
  0
VERTEX
  5
17A
  8
0
 10
76.114102355763791
 20
96.879492043761616
 30
0.0
 42
0.1903295519116534
 50
90.0
  0
VERTEX
  5
17B
  8
0
 10
76.196475879278168
 20
96.912026860131931
 30
0.0
 42
0.1007950070163301
 50
90.0
  0
VERTEX
  5
17C
  8
0
 10
76.290879051060642
 20
97.044944299068874
 30
0.0
 42
0.0589055386465863
 70
     2
 50
66.127516647369944
  0
VERTEX
  5
17D
  8
0
 10
76.343233962540765
 20
97.214808002636204
 30
0.0
 42
0.0453568750980548
 50
90.0
  0
VERTEX
  5
17E
  8
0
 10
76.364102355764103
 20
97.444381377756827
 30
0.0
 42
0.0453568750980339
 50
90.0
  0
SEQEND
  5
17F
  8
0
  0
POLYLINE
  5
180
  8
0
 66
     1
 10
0.0
 20
0.0
 30
0.0
  0
VERTEX
  5
181
  8
0
 10
76.114102355763791
 20
96.165800861428465
 30
0.0
 50
90.0
  0
VERTEX
  5
182
  8
0
 10
76.217487916204632
 20
96.163115637613686
 30
0.0
 42
-0.0182285675157924
 50
90.0
  0
VERTEX
  5
183
  8
0
 10
76.290879051060628
 20
96.156611852345236
 30
0.0
 42
-0.0423593239487818
 70
     2
 50
352.84717547130811
  0
VERTEX
  5
184
  8
0
 10
76.360021704633496
 20
96.141910151260618
 30
0.0
 50
90.0
  0
VERTEX
  5
185
  8
0
 10
76.364102355764132
 20
96.134427621991847
 30
0.0
 50
90.0
  0
SEQEND
  5
186
  8
0
  0
POLYLINE
  5
187
  8
0
 66
     1
 10
0.0
 20
0.0
 30
0.0
  0
VERTEX
  5
188
  8
0
 10
76.114102355763791
 20
112.1030543825552
 30
0.0
 50
90.0
  0
VERTEX
  5
189
  8
0
 10
76.217487916204632
 20
112.10573960636999
 30
0.0
 42
0.0182285675157924
 50
90.0
  0
VERTEX
  5
18A
  8
0
 10
76.290879051060628
 20
112.1122433916385
 30
0.0
 42
0.0423593239487818
 70
     2
 50
7.1528245286919203
  0
VERTEX
  5
18B
  8
0
 10
76.360021704633496
 20
112.1269450927231
 30
0.0
 50
7.1528245286919203
  0
VERTEX
  5
18C
  8
0
 10
76.364102355764132
 20
112.1344276219918
 30
0.0
 50
90.0
  0
SEQEND
  5
18D
  8
0
  0
POLYLINE
  5
18E
  8
0
 66
     1
 10
0.0
 20
0.0
 30
0.0
  0
VERTEX
  5
18F
  8
0
 10
76.114102355763791
 20
111.38936320022211
 30
0.0
 42
-0.1903295519116534
 50
90.0
  0
VERTEX
  5
190
  8
0
 10
76.196475879278168
 20
111.35682838385181
 30
0.0
 42
-0.1007950070163301
 50
90.0
  0
VERTEX
  5
191
  8
0
 10
76.290879051060642
 20
111.22391094491481
 30
0.0
 42
-0.0589055386465863
 70
     2
 50
293.87248335263001
  0
VERTEX
  5
192
  8
0
 10
76.343233962540765
 20
111.0540472413475
 30
0.0
 42
-0.0453568750980548
 50
90.0
  0
VERTEX
  5
193
  8
0
 10
76.364102355764103
 20
110.8244738662269
 30
0.0
 42
-0.0453568750980339
 50
90.0
  0
SEQEND
  5
194
  8
0
  0
POLYLINE
  5
195
  8
0
 66
     1
 10
0.0
 20
0.0
 30
0.0
  0
VERTEX
  5
196
  8
0
 10
76.364102355764103
 20
110.8244738662269
 30
0.0
 50
90.0
  0
VERTEX
  5
197
  8
0
 10
76.347948655040085
 20
110.7746488264963
 30
0.0
 42
-0.1065107702596174
 50
90.0
  0
VERTEX
  5
198
  8
0
 10
76.290879051060642
 20
110.7234174130722
 30
0.0
 42
-0.0718266842203901
 70
     2
 50
209.75494644685
  0
VERTEX
  5
199
  8
0
 10
76.205516368823695
 20
110.68972618160549
 30
0.0
 42
-0.0718208819146952
 50
90.0
  0
VERTEX
  5
19A
  8
0
 10
76.114102355763791
 20
110.6815584596135
 30
0.0
 42
-0.0581924543484093
 50
90.0
  0
SEQEND
  5
19B
  8
0
  0
POLYLINE
  5
19C
  8
0
 66
     1
 10
0.0
 20
0.0
 30
0.0
  0
VERTEX
  5
19D
  8
0
 10
76.114102355763819
 20
108.7317178885624
 30
0.0
 42
-0.2244450920054925
 50
90.0
  0
VERTEX
  5
19E
  8
0
 10
76.191468511246768
 20
108.6951466844671
 30
0.0
 42
-0.0901691907520375
 50
90.0
  0
VERTEX
  5
19F
  8
0
 10
76.290879051060656
 20
108.5165028022338
 30
0.0
 42
-0.0470196877347411
 70
     2
 50
288.79000616715769
  0
VERTEX
  5
1A0
  8
0
 10
76.343005944052393
 20
108.2977971178648
 30
0.0
 42
-0.035016086932325
 50
90.0
  0
VERTEX
  5
1A1
  8
0
 10
76.364102355764089
 20
107.996927621992
 30
0.0
 42
-0.0350160869323387
 50
90.0
  0
SEQEND
  5
1A2
  8
0
  0
POLYLINE
  5
1A3
  8
0
 66
     1
 10
0.0
 20
0.0
 30
0.0
  0
VERTEX
  5
1A4
  8
0
 10
76.36410235576416
 20
107.996927621992
 30
0.0
 42
-0.0519942056325265
 50
90.0
  0
VERTEX
  5
1A5
  8
0
 10
76.343406520551625
 20
107.7984450613497
 30
0.0
 42
-0.0658520295855318
 50
90.0
  0
VERTEX
  5
1A6
  8
0
 10
76.290879051060656
 20
107.6496225762227
 30
0.0
 42
-0.1046008475216924
 70
     2
 50
243.0241121460902
  0
VERTEX
  5
1A7
  8
0
 10
76.193838823267782
 20
107.5294401500495
 30
0.0
 42
-0.1998248705224882
 50
90.0
  0
VERTEX
  5
1A8
  8
0
 10
76.114102355763748
 20
107.5057641159845
 30
0.0
 42
-0.1724524218163822
 50
90.0
  0
SEQEND
  5
1A9
  8
0
  0
POLYLINE
  5
1AA
  8
0
 66
     1
 10
0.0
 20
0.0
 30
0.0
  0
VERTEX
  5
1AB
  8
0
 10
70.164102355763845
 20
111.88442762199151
 30
0.0
 42
0.087101949488593
 50
90.0
  0
VERTEX
  5
1AC
  8
0
 10
70.261251031792497
 20
111.9014806773975
 30
0.0
 42
0.0930219345922933
 50
90.0
  0
VERTEX
  5
1AD
  8
0
 10
70.34087905106071
 20
111.94846191761179
 30
0.0
 42
0.10283426098262
 70
     2
 50
41.169924429810322
  0
VERTEX
  5
1AE
  8
0
 10
70.399996452743508
 20
112.02666483570221
 30
0.0
 42
0.1306095639862077
 50
41.169924429810322
  0
VERTEX
  5
1AF
  8
0
 10
70.414102355757137
 20
112.1030543825552
 30
0.0
 42
0.0381262100094925
 50
90.0
  0
SEQEND
  5
1B0
  8
0
  0
LINE
  5
1B1
  8
0
 10
70.414102355764143
 20
111.38936320022211
 30
0.0
 11
70.414102355764172
 21
112.1030543825552
 31
0.0
  0
POLYLINE
  5
1B2
  8
0
 66
     1
 10
0.0
 20
0.0
 30
0.0
  0
VERTEX
  5
1B3
  8
0
 10
70.414102355764143
 20
111.38936320022211
 30
0.0
 42
0.1903295519116534
 50
90.0
  0
VERTEX
  5
1B4
  8
0
 10
70.331728832249766
 20
111.35682838385181
 30
0.0
 42
0.1007950070163301
 50
90.0
  0
VERTEX
  5
1B5
  8
0
 10
70.237325660467292
 20
111.22391094491481
 30
0.0
 42
0.0589055386465863
 70
     2
 50
246.12751664736999
  0
VERTEX
  5
1B6
  8
0
 10
70.184970748987169
 20
111.0540472413475
 30
0.0
 42
0.0453568750980548
 50
246.12751664736999
  0
VERTEX
  5
1B7
  8
0
 10
70.164102355763831
 20
110.8244738662269
 30
0.0
 42
0.0453568750980339
 50
90.0
  0
SEQEND
  5
1B8
  8
0
  0
POLYLINE
  5
1B9
  8
0
 66
     1
 10
0.0
 20
0.0
 30
0.0
  0
VERTEX
  5
1BA
  8
0
 10
70.164102355763831
 20
110.8244738662269
 30
0.0
 50
90.0
  0
VERTEX
  5
1BB
  8
0
 10
70.180256056487849
 20
110.7746488264963
 30
0.0
 42
0.1065107702596174
 50
90.0
  0
VERTEX
  5
1BC
  8
0
 10
70.237325660467292
 20
110.7234174130722
 30
0.0
 42
0.0718266842203901
 70
     2
 50
330.24505355315
  0
VERTEX
  5
1BD
  8
0
 10
70.32268834270424
 20
110.68972618160549
 30
0.0
 42
0.0718208819146952
 50
330.24505355315
  0
VERTEX
  5
1BE
  8
0
 10
70.414102355764143
 20
110.6815584596135
 30
0.0
 42
0.0581924543484093
 50
90.0
  0
SEQEND
  5
1BF
  8
0
  0
LINE
  5
1C0
  8
0
 10
70.414102355764143
 20
108.7317178885624
 30
0.0
 11
70.414102355764143
 21
110.6815584596102
 31
0.0
  0
POLYLINE
  5
1C1
  8
0
 66
     1
 10
0.0
 20
0.0
 30
0.0
  0
VERTEX
  5
1C2
  8
0
 10
70.164102355763774
 20
107.996927621992
 30
0.0
 42
0.0519942056325265
 50
90.0
  0
VERTEX
  5
1C3
  8
0
 10
70.184798190976309
 20
107.7984450613497
 30
0.0
 42
0.0658520295855318
 50
90.0
  0
VERTEX
  5
1C4
  8
0
 10
70.237325660467278
 20
107.6496225762227
 30
0.0
 42
0.1046008475216924
 70
     2
 50
296.9758878539098
  0
VERTEX
  5
1C5
  8
0
 10
70.334365888260152
 20
107.5294401500495
 30
0.0
 42
0.1998248705224882
 50
296.9758878539098
  0
VERTEX
  5
1C6
  8
0
 10
70.414102355764186
 20
107.5057641159845
 30
0.0
 42
0.1724524218163822
 50
90.0
  0
SEQEND
  5
1C7
  8
0
  0
POLYLINE
  5
1C8
  8
0
 66
     1
 10
0.0
 20
0.0
 30
0.0
  0
VERTEX
  5
1C9
  8
0
 10
70.414102355764115
 20
108.7317178885624
 30
0.0
 42
0.2244450920054925
 50
90.0
  0
VERTEX
  5
1CA
  8
0
 10
70.336736200281166
 20
108.6951466844671
 30
0.0
 42
0.0901691907520375
 50
90.0
  0
VERTEX
  5
1CB
  8
0
 10
70.237325660467278
 20
108.5165028022338
 30
0.0
 42
0.0470196877347411
 70
     2
 50
251.20999383284229
  0
VERTEX
  5
1CC
  8
0
 10
70.185198767475541
 20
108.2977971178648
 30
0.0
 42
0.035016086932325
 50
251.20999383284229
  0
VERTEX
  5
1CD
  8
0
 10
70.164102355763845
 20
107.996927621992
 30
0.0
 42
0.0350160869323387
 50
90.0
  0
SEQEND
  5
1CE
  8
0
  0
LINE
  5
1CF
  8
0
 10
70.414102355764157
 20
104.8422323626037
 30
0.0
 11
70.414102355764143
 21
107.5057641159845
 31
0.0
  0
POLYLINE
  5
1D0
  8
0
 66
     1
 10
0.0
 20
0.0
 30
0.0
  0
VERTEX
  5
1D1
  8
0
 10
76.364102355764089
 20
104.1344276219918
 30
0.0
 42
-0.0363338685802231
 50
90.0
  0
VERTEX
  5
1D2
  8
0
 10
76.343032099626015
 20
103.84485702214199
 30
0.0
 42
-0.0486020662739422
 50
90.0
  0
VERTEX
  5
1D3
  8
0
 10
76.2908790510606
 20
103.6339340901492
 30
0.0
 42
-0.0918921657250572
 70
     2
 50
250.54653717521029
  0
VERTEX
  5
1D4
  8
0
 10
76.187456196043527
 20
103.4544681405402
 30
0.0
 42
-0.2563706040809025
 50
90.0
  0
VERTEX
  5
1D5
  8
0
 10
76.114102355763734
 20
103.4266228813799
 30
0.0
 42
-0.2196144455096618
 50
90.0
  0
SEQEND
  5
1D6
  8
0
  0
POLYLINE
  5
1D7
  8
0
 66
     1
 10
0.0
 20
0.0
 30
0.0
  0
VERTEX
  5
1D8
  8
0
 10
76.114102355763819
 20
104.8422323626038
 30
0.0
 42
-0.2196144455096195
 50
90.0
  0
VERTEX
  5
1D9
  8
0
 10
76.192171743191324
 20
104.80620438457881
 30
0.0
 42
-0.0918921657250284
 50
90.0
  0
VERTEX
  5
1DA
  8
0
 10
76.290879051060656
 20
104.6349211538345
 30
0.0
 42
-0.0486020662739239
 70
     2
 50
289.453462824783
  0
VERTEX
  5
1DB
  8
0
 10
76.343032099626086
 20
104.4239982218416
 30
0.0
 42
-0.0363338685801739
 50
90.0
  0
VERTEX
  5
1DC
  8
0
 10
76.364102355764089
 20
104.1344276219918
 30
0.0
 42
-0.0363338685802231
 50
90.0
  0
SEQEND
  5
1DD
  8
0
  0
POLYLINE
  5
1DE
  8
0
 66
     1
 10
0.0
 20
0.0
 30
0.0
  0
VERTEX
  5
1DF
  8
0
 10
70.414102355764115
 20
104.8422323626038
 30
0.0
 42
0.2196144455096195
 50
90.0
  0
VERTEX
  5
1E0
  8
0
 10
70.33603296833661
 20
104.80620438457881
 30
0.0
 42
0.0918921657250284
 50
90.0
  0
VERTEX
  5
1E1
  8
0
 10
70.237325660467278
 20
104.6349211538345
 30
0.0
 42
0.0486020662739239
 70
     2
 50
250.54653717521691
  0
VERTEX
  5
1E2
  8
0
 10
70.185172611901848
 20
104.4239982218416
 30
0.0
 42
0.0363338685801739
 50
250.54653717521691
  0
VERTEX
  5
1E3
  8
0
 10
70.164102355763845
 20
104.1344276219918
 30
0.0
 42
0.0363338685802231
 50
90.0
  0
SEQEND
  5
1E4
  8
0
  0
POLYLINE
  5
1E5
  8
0
 66
     1
 10
0.0
 20
0.0
 30
0.0
  0
VERTEX
  5
1E6
  8
0
 10
70.164102355763845
 20
104.1344276219918
 30
0.0
 42
0.0363338685802231
 50
90.0
  0
VERTEX
  5
1E7
  8
0
 10
70.185172611901905
 20
103.84485702214199
 30
0.0
 42
0.0486020662739422
 50
90.0
  0
VERTEX
  5
1E8
  8
0
 10
70.237325660467334
 20
103.6339340901492
 30
0.0
 42
0.0918921657250572
 70
     2
 50
289.4534628247896
  0
VERTEX
  5
1E9
  8
0
 10
70.340748515484407
 20
103.4544681405402
 30
0.0
 42
0.2563706040809025
 50
289.4534628247896
  0
VERTEX
  5
1EA
  8
0
 10
70.4141023557642
 20
103.4266228813799
 30
0.0
 42
0.2196144455096618
 50
90.0
  0
SEQEND
  5
1EB
  8
0
  0
LINE
  5
1EC
  8
0
 10
70.414102355764172
 20
103.4266228813799
 30
0.0
 11
76.136718895403021
 21
103.4266228813799
 31
0.0
  0
LINE
  5
1ED
  8
0
 10
70.414102355764172
 20
112.1030543825552
 30
0.0
 11
76.114102355763563
 21
112.1030543825552
 31
0.0
  0
LINE
  5
1EE
  8
0
 10
70.414102355764172
 20
111.38936320022211
 30
0.0
 11
76.114102355763791
 21
111.38936320022211
 31
0.0
  0
LINE
  5
1EF
  8
0
 10
70.414102355764172
 20
110.6815584596103
 30
0.0
 11
76.148947925734888
 21
110.6815584596102
 31
0.0
  0
LINE
  5
1F0
  8
0
 10
70.414102355764172
 20
108.7317178885624
 30
0.0
 11
76.114102355763819
 21
108.7317178885624
 31
0.0
  0
LINE
  5
1F1
  8
0
 10
70.414102355764172
 20
107.5057641159845
 30
0.0
 11
76.136962393263474
 21
107.5057641159845
 31
0.0
  0
LINE
  5
1F2
  8
0
 10
70.414102355764172
 20
104.8422323626037
 30
0.0
 11
76.114103523771533
 21
104.8422323626037
 31
0.0
  0
LINE
  5
1F3
  8
2
 10
81.864102355764174
 20
105.7554276219915
 30
0.0
 11
82.664102355764186
 21
106.5554276219916
 31
0.0
  0
LINE
  5
1F4
  8
2
 10
75.164102355764172
 20
105.7554276219915
 30
0.0
 11
74.190107292320718
 21
104.1344276219918
 31
0.0
  0
LINE
  5
1F5
  8
2
 10
76.664102355764172
 20
106.1344276219918
 30
0.0
 11
76.007655099695114
 21
105.7554276219915
 31
0.0
  0
LINE
  5
1F6
  8
2
 10
81.864102355764174
 20
105.7554276219915
 30
0.0
 11
75.164102355764172
 21
105.7554276219915
 31
0.0
  0
LINE
  5
1F7
  8
2
 10
82.243102355764421
 20
106.1344276219918
 30
0.0
 11
76.664102355764172
 21
106.1344276219918
 31
0.0
  0
LINE
  5
1F8
  8
2
 10
82.36410235576416
 20
107.6344276219918
 30
0.0
 11
75.664102355764143
 21
107.6344276219918
 31
0.0
  0
LINE
  5
1F9
  8
2
 10
75.664102355764143
 20
107.6344276219918
 30
0.0
 11
73.664102355764172
 21
105.6344276219918
 31
0.0
  0
LINE
  5
1FA
  8
2
 10
72.164102355764172
 20
108.6344276219918
 30
0.0
 11
71.664102355764172
 21
108.6344276219918
 31
0.0
  0
LINE
  5
1FB
  8
2
 10
69.664102355764172
 20
110.1344276219918
 30
0.0
 11
71.664102355764172
 21
108.6344276219918
 31
0.0
  0
LINE
  5
1FC
  8
0
 10
82.36410235576416
 20
100.6344276219918
 30
0.0
 11
82.664102355764214
 21
100.6344276219918
 31
0.0
  0
LINE
  5
1FD
  8
2
 10
81.864102355764174
 20
102.51342762199209
 30
0.0
 11
82.664102355764186
 21
101.7134276219921
 31
0.0
  0
LINE
  5
1FE
  8
2
 10
81.864102355764174
 20
105.7554276219915
 30
0.0
 11
81.864102355764174
 21
102.51342762199209
 31
0.0
  0
LINE
  5
1FF
  8
2
 10
82.243102355764421
 20
102.1344276219918
 30
0.0
 11
76.664102355764172
 21
102.1344276219918
 31
0.0
  0
LINE
  5
200
  8
2
 10
81.864102355764174
 20
102.51342762199209
 30
0.0
 11
75.164102355764172
 21
102.51342762199209
 31
0.0
  0
LINE
  5
201
  8
2
 10
76.664102355764172
 20
102.1344276219918
 30
0.0
 11
76.664102355764157
 21
106.1344276219918
 31
0.0
  0
LINE
  5
202
  8
2
 10
75.164102355764172
 20
102.51342762199209
 30
0.0
 11
75.164102355764186
 21
105.7554276219915
 31
0.0
  0
LINE
  5
203
  8
2
 10
75.164102355764172
 20
102.51342762199219
 30
0.0
 11
74.190107292320718
 21
104.1344276219918
 31
0.0
  0
LINE
  5
204
  8
2
 10
76.664102355764172
 20
102.1344276219919
 30
0.0
 11
76.007655099695114
 21
102.51342762199209
 31
0.0
  0
LINE
  5
206
  8
2
 10
82.36410235576416
 20
100.6344276219918
 30
0.0
 11
75.664102355764143
 21
100.6344276219918
 31
0.0
  0
LINE
  5
207
  8
2
 10
75.664102355764143
 20
100.6344276219918
 30
0.0
 11
73.664102355764172
 21
102.6344276219918
 31
0.0
  0
LINE
  5
208
  8
2
 10
73.664102355764186
 20
105.6344276219918
 30
0.0
 11
73.664102355764172
 21
102.6344276219918
 31
0.0
  0
LINE
  5
209
  8
2
 10
69.664102355764172
 20
98.134427621991847
 30
0.0
 11
71.664102355764172
 21
99.634427621991861
 31
0.0
  0
LINE
  5
20A
  8
2
 10
71.664102355764172
 20
99.634427621991861
 30
0.0
 11
71.664102355764172
 21
108.6344276219918
 31
0.0
  0
LINE
  5
20B
  8
2
 10
72.164102355764172
 20
99.634427621991861
 30
0.0
 11
71.664102355764172
 21
99.634427621991861
 31
0.0
  0
LINE
  5
20C
  8
2
 10
72.164102355764172
 20
108.6344276219918
 30
0.0
 11
72.164102355764172
 21
99.634427621991861
 31
0.0
  0
LINE
  5
20D
  8
0
 10
81.614102355764132
 20
109.6344276219918
 30
0.0
 11
81.614102355764146
 21
98.634427621991847
 31
0.0
  0
LINE
  5
20E
  8
0
 10
76.914102355764143
 20
112.1344276219918
 30
0.0
 11
76.914102355764143
 21
96.13442762199179
 31
0.0
  0
LINE
  5
20F
  8
0
 10
76.9141023557642
 20
96.134427621991847
 30
0.0
 11
77.6641023557642
 21
96.884427621991847
 31
0.0
  0
LINE
  5
210
  8
0
 10
81.614102355764174
 20
98.634427621991847
 30
0.0
 11
82.36410235576416
 21
99.384427621991847
 31
0.0
  0
LINE
  5
211
  8
0
 10
82.364102355764118
 20
108.8844276219918
 30
0.0
 11
81.614102355764132
 21
109.6344276219918
 31
0.0
  0
LINE
  5
212
  8
0
 10
77.664102355764172
 20
111.3844276219918
 30
0.0
 11
76.914102355764172
 21
112.1344276219918
 31
0.0
  0
LINE
  5
213
  8
0
 10
69.664102355764172
 20
111.3844276219918
 30
0.0
 11
70.164102355771078
 21
111.8844276219987
 31
0.0
  0
LINE
  5
214
  8
0
 10
77.664102355764172
 20
98.634427621991847
 30
0.0
 11
81.614102355764174
 21
98.634427621991847
 31
0.0
  0
LINE
  5
215
  8
0
 10
82.664102355764172
 20
107.6344276219918
 30
0.0
 11
82.664102355764214
 21
100.6344276219918
 31
0.0
  0
LINE
  5
216
  8
0
 10
82.36410235576416
 20
107.6344276219918
 30
0.0
 11
82.664102355764172
 21
107.6344276219918
 31
0.0
  0
LINE
  5
217
  8
0
 10
82.364102355764118
 20
108.8844276219918
 30
0.0
 11
82.364102355764189
 21
99.384427621991904
 31
0.0
  0
LINE
  5
218
  8
0
 10
77.664102355764172
 20
109.6344276219918
 30
0.0
 11
81.614102355764132
 21
109.6344276219918
 31
0.0
  0
LINE
  5
219
  8
0
 10
77.664102355764172
 20
111.3844276219918
 30
0.0
 11
77.664102355764172
 21
96.884427621991819
 31
0.0
  0
LINE
  5
21A
  8
0
 10
76.364102355764118
 20
112.1344276219918
 30
0.0
 11
76.914102355764172
 21
112.1344276219918
 31
0.0
  0
LINE
  5
21B
  8
0
 10
69.664102355764115
 20
96.884427621991847
 30
0.0
 11
69.664102355764172
 21
111.3844276219918
 31
0.0
  0
LINE
  5
21C
  8
1
 10
85.164102355764214
 20
104.1344276219918
 30
0.0
 11
67.164102355764143
 21
104.1344276219918
 31
0.0
  0
LINE
  5
21D
  8
0
 10
69.664102355764143
 20
26.884427621991868
 30
0.0
 11
70.164102355771064
 21
26.38442762198498
 31
0.0
  0
LINE
  5
21E
  8
0
 10
76.364102355764103
 20
26.13442762199189
 30
0.0
 11
76.914102355764157
 21
26.134427621991879
 31
0.0
  0
LINE
  5
21F
  8
0
 10
70.414102355764157
 20
30.763091127999179
 30
0.0
 11
76.136962393263474
 21
30.763091127999179
 31
0.0
  0
LINE
  5
220
  8
0
 10
70.414102355764157
 20
29.537137355421269
 30
0.0
 11
76.114102355763805
 21
29.537137355421279
 31
0.0
  0
LINE
  5
221
  8
0
 10
70.414102355764157
 20
27.587296784373439
 30
0.0
 11
76.148947925734873
 21
27.58729678437345
 31
0.0
  0
LINE
  5
222
  8
0
 10
70.414102355764157
 20
26.879492043761601
 30
0.0
 11
76.114102355763777
 21
26.879492043761601
 31
0.0
  0
LINE
  5
223
  8
0
 10
70.414102355764157
 20
26.16580086142848
 30
0.0
 11
76.114102355763563
 21
26.165800861428458
 31
0.0
  0
LINE
  5
224
  8
0
 10
70.414102355764143
 20
33.426622881380041
 30
0.0
 11
70.414102355764129
 21
30.763091127999179
 31
0.0
  0
POLYLINE
  5
225
  8
0
 66
     1
 10
0.0
 20
0.0
 30
0.0
  0
VERTEX
  5
226
  8
0
 10
70.414102355764101
 20
29.537137355421269
 30
0.0
 42
-0.2244450920054925
 50
90.0
  0
VERTEX
  5
227
  8
0
 10
70.336736200281152
 20
29.573708559516589
 30
0.0
 42
-0.0901691907520375
 50
90.0
  0
VERTEX
  5
228
  8
0
 10
70.237325660467263
 20
29.75235244174991
 30
0.0
 42
-0.0470196877347411
 70
     2
 50
108.7900061671577
  0
VERTEX
  5
229
  8
0
 10
70.185198767475526
 20
29.971058126118891
 30
0.0
 42
-0.035016086932325
 50
90.0
  0
VERTEX
  5
22A
  8
0
 10
70.164102355763831
 20
30.271927621991761
 30
0.0
 42
-0.0350160869323387
 50
90.0
  0
SEQEND
  5
22B
  8
0
  0
POLYLINE
  5
22C
  8
0
 66
     1
 10
0.0
 20
0.0
 30
0.0
  0
VERTEX
  5
22D
  8
0
 10
70.16410235576376
 20
30.271927621991761
 30
0.0
 42
-0.0519942056325265
 50
90.0
  0
VERTEX
  5
22E
  8
0
 10
70.184798190976295
 20
30.470410182633969
 30
0.0
 42
-0.0658520295855318
 50
90.0
  0
VERTEX
  5
22F
  8
0
 10
70.237325660467263
 20
30.619232667760969
 30
0.0
 42
-0.1046008475216924
 70
     2
 50
63.024112146090218
  0
VERTEX
  5
230
  8
0
 10
70.334365888260123
 20
30.739415093934159
 30
0.0
 42
-0.1998248705224882
 50
90.0
  0
VERTEX
  5
231
  8
0
 10
70.414102355764172
 20
30.763091127999179
 30
0.0
 42
-0.1724524218163822
 50
90.0
  0
SEQEND
  5
232
  8
0
  0
LINE
  5
233
  8
0
 10
70.414102355764129
 20
29.537137355421269
 30
0.0
 11
70.414102355764129
 21
27.58729678437345
 31
0.0
  0
POLYLINE
  5
234
  8
0
 66
     1
 10
0.0
 20
0.0
 30
0.0
  0
VERTEX
  5
235
  8
0
 10
70.164102355763816
 20
27.44438137775683
 30
0.0
 50
90.0
  0
VERTEX
  5
236
  8
0
 10
70.180256056487835
 20
27.494206417487408
 30
0.0
 42
-0.1065107702596174
 50
90.0
  0
VERTEX
  5
237
  8
0
 10
70.237325660467278
 20
27.545437830911471
 30
0.0
 42
-0.0718266842203901
 70
     2
 50
29.75494644685006
  0
VERTEX
  5
238
  8
0
 10
70.322688342704225
 20
27.5791290623782
 30
0.0
 42
-0.0718208819146952
 50
90.0
  0
VERTEX
  5
239
  8
0
 10
70.414102355764129
 20
27.587296784370199
 30
0.0
 42
-0.0581924543484093
 50
90.0
  0
SEQEND
  5
23A
  8
0
  0
POLYLINE
  5
23B
  8
0
 66
     1
 10
0.0
 20
0.0
 30
0.0
  0
VERTEX
  5
23C
  8
0
 10
70.414102355764129
 20
26.87949204376163
 30
0.0
 42
-0.1903295519116534
 50
90.0
  0
VERTEX
  5
23D
  8
0
 10
70.331728832249752
 20
26.912026860131931
 30
0.0
 42
-0.1007950070163301
 50
90.0
  0
VERTEX
  5
23E
  8
0
 10
70.237325660467278
 20
27.04494429906887
 30
0.0
 42
-0.0589055386465863
 70
     2
 50
113.8724833526301
  0
VERTEX
  5
23F
  8
0
 10
70.184970748987155
 20
27.2148080026362
 30
0.0
 42
-0.0453568750980548
 50
90.0
  0
VERTEX
  5
240
  8
0
 10
70.164102355763816
 20
27.44438137775683
 30
0.0
 42
-0.0453568750980339
 50
90.0
  0
SEQEND
  5
241
  8
0
  0
LINE
  5
242
  8
0
 10
70.414102355764129
 20
26.87949204376163
 30
0.0
 11
70.414102355764157
 21
26.165800861428501
 31
0.0
  0
POLYLINE
  5
243
  8
0
 66
     1
 10
0.0
 20
0.0
 30
0.0
  0
VERTEX
  5
244
  8
0
 10
70.164102355763831
 20
26.384427621992231
 30
0.0
 42
-0.087101949488593
 50
90.0
  0
VERTEX
  5
245
  8
0
 10
70.261251031792483
 20
26.367374566586211
 30
0.0
 42
-0.0930219345922933
 50
90.0
  0
VERTEX
  5
246
  8
0
 10
70.340879051060696
 20
26.32039332637196
 30
0.0
 42
-0.10283426098262
 70
     2
 50
318.83007557018971
  0
VERTEX
  5
247
  8
0
 10
70.399996452743494
 20
26.24219040828152
 30
0.0
 42
-0.1306095639862077
 50
90.0
  0
VERTEX
  5
248
  8
0
 10
70.414102355757123
 20
26.16580086142848
 30
0.0
 42
-0.0381262100094925
 50
90.0
  0
SEQEND
  5
249
  8
0
  0
POLYLINE
  5
24A
  8
0
 66
     1
 10
0.0
 20
0.0
 30
0.0
  0
VERTEX
  5
24B
  8
0
 10
76.364102355764146
 20
30.271927621991761
 30
0.0
 42
0.0519942056325265
 50
90.0
  0
VERTEX
  5
24C
  8
0
 10
76.343406520551611
 20
30.470410182633969
 30
0.0
 42
0.0658520295855318
 50
90.0
  0
VERTEX
  5
24D
  8
0
 10
76.290879051060642
 20
30.619232667760969
 30
0.0
 42
0.1046008475216924
 70
     2
 50
116.9758878539098
  0
VERTEX
  5
24E
  8
0
 10
76.193838823267754
 20
30.739415093934159
 30
0.0
 42
0.1998248705224882
 50
90.0
  0
VERTEX
  5
24F
  8
0
 10
76.114102355763734
 20
30.763091127999179
 30
0.0
 42
0.1724524218163822
 50
90.0
  0
SEQEND
  5
250
  8
0
  0
POLYLINE
  5
251
  8
0
 66
     1
 10
0.0
 20
0.0
 30
0.0
  0
VERTEX
  5
252
  8
0
 10
76.114102355763805
 20
29.537137355421269
 30
0.0
 42
0.2244450920054925
 50
90.0
  0
VERTEX
  5
253
  8
0
 10
76.191468511246754
 20
29.573708559516589
 30
0.0
 42
0.0901691907520375
 50
90.0
  0
VERTEX
  5
254
  8
0
 10
76.290879051060642
 20
29.75235244174991
 30
0.0
 42
0.0470196877347411
 70
     2
 50
71.209993832842272
  0
VERTEX
  5
255
  8
0
 10
76.343005944052379
 20
29.971058126118891
 30
0.0
 42
0.035016086932325
 50
90.0
  0
VERTEX
  5
256
  8
0
 10
76.364102355764075
 20
30.271927621991761
 30
0.0
 42
0.0350160869323387
 50
90.0
  0
SEQEND
  5
257
  8
0
  0
POLYLINE
  5
258
  8
0
 66
     1
 10
0.0
 20
0.0
 30
0.0
  0
VERTEX
  5
259
  8
0
 10
76.364102355764089
 20
27.44438137775683
 30
0.0
 50
90.0
  0
VERTEX
  5
25A
  8
0
 10
76.347948655040071
 20
27.494206417487408
 30
0.0
 42
0.1065107702596174
 50
90.0
  0
VERTEX
  5
25B
  8
0
 10
76.290879051060628
 20
27.545437830911471
 30
0.0
 42
0.0718266842203901
 70
     2
 50
150.24505355314989
  0
VERTEX
  5
25C
  8
0
 10
76.20551636882368
 20
27.5791290623782
 30
0.0
 42
0.0718208819146952
 50
90.0
  0
VERTEX
  5
25D
  8
0
 10
76.114102355763777
 20
27.587296784370199
 30
0.0
 42
0.0581924543484093
 50
90.0
  0
SEQEND
  5
25E
  8
0
  0
POLYLINE
  5
25F
  8
0
 66
     1
 10
0.0
 20
0.0
 30
0.0
  0
VERTEX
  5
260
  8
0
 10
76.114102355763777
 20
26.87949204376163
 30
0.0
 42
0.1903295519116534
 50
90.0
  0
VERTEX
  5
261
  8
0
 10
76.196475879278154
 20
26.912026860131931
 30
0.0
 42
0.1007950070163301
 50
90.0
  0
VERTEX
  5
262
  8
0
 10
76.290879051060628
 20
27.04494429906887
 30
0.0
 42
0.0589055386465863
 70
     2
 50
66.127516647369944
  0
VERTEX
  5
263
  8
0
 10
76.343233962540751
 20
27.2148080026362
 30
0.0
 42
0.0453568750980548
 50
90.0
  0
VERTEX
  5
264
  8
0
 10
76.364102355764089
 20
27.44438137775683
 30
0.0
 42
0.0453568750980339
 50
90.0
  0
SEQEND
  5
265
  8
0
  0
POLYLINE
  5
266
  8
0
 66
     1
 10
0.0
 20
0.0
 30
0.0
  0
VERTEX
  5
267
  8
0
 10
76.114102355763777
 20
26.165800861428458
 30
0.0
 50
90.0
  0
VERTEX
  5
268
  8
0
 10
76.217487916204604
 20
26.163115637613689
 30
0.0
 42
-0.0182285675157924
 50
90.0
  0
VERTEX
  5
269
  8
0
 10
76.290879051060614
 20
26.15661185234524
 30
0.0
 42
-0.0423593239487818
 70
     2
 50
352.84717547130811
  0
VERTEX
  5
26A
  8
0
 10
76.360021704633482
 20
26.1419101512606
 30
0.0
 50
90.0
  0
VERTEX
  5
26B
  8
0
 10
76.364102355764118
 20
26.134427621991861
 30
0.0
 50
90.0
  0
SEQEND
  5
26C
  8
0
  0
POLYLINE
  5
26D
  8
0
 66
     1
 10
0.0
 20
0.0
 30
0.0
  0
VERTEX
  5
26E
  8
0
 10
76.114102355763777
 20
42.103054382555257
 30
0.0
 50
90.0
  0
VERTEX
  5
26F
  8
0
 10
76.217487916204604
 20
42.10573960637003
 30
0.0
 42
0.0182285675157924
 50
90.0
  0
VERTEX
  5
270
  8
0
 10
76.290879051060614
 20
42.112243391638479
 30
0.0
 42
0.0423593239487818
 70
     2
 50
7.1528245286919203
  0
VERTEX
  5
271
  8
0
 10
76.360021704633482
 20
42.126945092723133
 30
0.0
 50
7.1528245286919203
  0
VERTEX
  5
272
  8
0
 10
76.364102355764118
 20
42.134427621991868
 30
0.0
 50
90.0
  0
SEQEND
  5
273
  8
0
  0
POLYLINE
  5
274
  8
0
 66
     1
 10
0.0
 20
0.0
 30
0.0
  0
VERTEX
  5
275
  8
0
 10
76.114102355763777
 20
41.3893632002221
 30
0.0
 42
-0.1903295519116534
 50
90.0
  0
VERTEX
  5
276
  8
0
 10
76.196475879278154
 20
41.356828383851791
 30
0.0
 42
-0.1007950070163301
 50
90.0
  0
VERTEX
  5
277
  8
0
 10
76.290879051060628
 20
41.223910944914849
 30
0.0
 42
-0.0589055386465863
 70
     2
 50
293.87248335263001
  0
VERTEX
  5
278
  8
0
 10
76.343233962540751
 20
41.054047241347519
 30
0.0
 42
-0.0453568750980548
 50
90.0
  0
VERTEX
  5
279
  8
0
 10
76.364102355764089
 20
40.824473866226889
 30
0.0
 42
-0.0453568750980339
 50
90.0
  0
SEQEND
  5
27A
  8
0
  0
POLYLINE
  5
27B
  8
0
 66
     1
 10
0.0
 20
0.0
 30
0.0
  0
VERTEX
  5
27C
  8
0
 10
76.364102355764089
 20
40.824473866226889
 30
0.0
 50
90.0
  0
VERTEX
  5
27D
  8
0
 10
76.347948655040071
 20
40.774648826496332
 30
0.0
 42
-0.1065107702596174
 50
90.0
  0
VERTEX
  5
27E
  8
0
 10
76.290879051060628
 20
40.723417413072262
 30
0.0
 42
-0.0718266842203901
 70
     2
 50
209.75494644685
  0
VERTEX
  5
27F
  8
0
 10
76.20551636882368
 20
40.689726181605522
 30
0.0
 42
-0.0718208819146952
 50
90.0
  0
VERTEX
  5
280
  8
0
 10
76.114102355763777
 20
40.681558459613541
 30
0.0
 42
-0.0581924543484093
 50
90.0
  0
SEQEND
  5
281
  8
0
  0
POLYLINE
  5
282
  8
0
 66
     1
 10
0.0
 20
0.0
 30
0.0
  0
VERTEX
  5
283
  8
0
 10
76.114102355763805
 20
38.731717888562457
 30
0.0
 42
-0.2244450920054925
 50
90.0
  0
VERTEX
  5
284
  8
0
 10
76.191468511246754
 20
38.695146684467147
 30
0.0
 42
-0.0901691907520375
 50
90.0
  0
VERTEX
  5
285
  8
0
 10
76.290879051060642
 20
38.516502802233809
 30
0.0
 42
-0.0470196877347411
 70
     2
 50
288.79000616715769
  0
VERTEX
  5
286
  8
0
 10
76.343005944052379
 20
38.297797117864832
 30
0.0
 42
-0.035016086932325
 50
90.0
  0
VERTEX
  5
287
  8
0
 10
76.364102355764075
 20
37.996927621991972
 30
0.0
 42
-0.0350160869323387
 50
90.0
  0
SEQEND
  5
288
  8
0
  0
POLYLINE
  5
289
  8
0
 66
     1
 10
0.0
 20
0.0
 30
0.0
  0
VERTEX
  5
28A
  8
0
 10
76.364102355764146
 20
37.996927621991972
 30
0.0
 42
-0.0519942056325265
 50
90.0
  0
VERTEX
  5
28B
  8
0
 10
76.343406520551611
 20
37.798445061349753
 30
0.0
 42
-0.0658520295855318
 50
90.0
  0
VERTEX
  5
28C
  8
0
 10
76.290879051060642
 20
37.649622576222761
 30
0.0
 42
-0.1046008475216924
 70
     2
 50
243.0241121460902
  0
VERTEX
  5
28D
  8
0
 10
76.193838823267754
 20
37.529440150049567
 30
0.0
 42
-0.1998248705224882
 50
90.0
  0
VERTEX
  5
28E
  8
0
 10
76.114102355763734
 20
37.505764115984562
 30
0.0
 42
-0.1724524218163822
 50
90.0
  0
SEQEND
  5
28F
  8
0
  0
POLYLINE
  5
290
  8
0
 66
     1
 10
0.0
 20
0.0
 30
0.0
  0
VERTEX
  5
291
  8
0
 10
70.164102355763831
 20
41.884427621991513
 30
0.0
 42
0.087101949488593
 50
90.0
  0
VERTEX
  5
292
  8
0
 10
70.261251031792483
 20
41.901480677397529
 30
0.0
 42
0.0930219345922933
 50
90.0
  0
VERTEX
  5
293
  8
0
 10
70.340879051060696
 20
41.94846191761178
 30
0.0
 42
0.10283426098262
 70
     2
 50
41.169924429810322
  0
VERTEX
  5
294
  8
0
 10
70.399996452743494
 20
42.026664835702199
 30
0.0
 42
0.1306095639862077
 50
41.169924429810322
  0
VERTEX
  5
295
  8
0
 10
70.414102355757123
 20
42.103054382555257
 30
0.0
 42
0.0381262100094925
 50
90.0
  0
SEQEND
  5
296
  8
0
  0
LINE
  5
297
  8
0
 10
70.414102355764129
 20
41.3893632002221
 30
0.0
 11
70.414102355764157
 21
42.103054382555229
 31
0.0
  0
POLYLINE
  5
298
  8
0
 66
     1
 10
0.0
 20
0.0
 30
0.0
  0
VERTEX
  5
299
  8
0
 10
70.414102355764129
 20
41.3893632002221
 30
0.0
 42
0.1903295519116534
 50
90.0
  0
VERTEX
  5
29A
  8
0
 10
70.331728832249752
 20
41.356828383851791
 30
0.0
 42
0.1007950070163301
 50
90.0
  0
VERTEX
  5
29B
  8
0
 10
70.237325660467278
 20
41.223910944914849
 30
0.0
 42
0.0589055386465863
 70
     2
 50
246.12751664736999
  0
VERTEX
  5
29C
  8
0
 10
70.184970748987155
 20
41.054047241347519
 30
0.0
 42
0.0453568750980548
 50
246.12751664736999
  0
VERTEX
  5
29D
  8
0
 10
70.164102355763816
 20
40.824473866226889
 30
0.0
 42
0.0453568750980339
 50
90.0
  0
SEQEND
  5
29E
  8
0
  0
POLYLINE
  5
29F
  8
0
 66
     1
 10
0.0
 20
0.0
 30
0.0
  0
VERTEX
  5
2A0
  8
0
 10
70.164102355763816
 20
40.824473866226889
 30
0.0
 50
90.0
  0
VERTEX
  5
2A1
  8
0
 10
70.180256056487835
 20
40.774648826496332
 30
0.0
 42
0.1065107702596174
 50
90.0
  0
VERTEX
  5
2A2
  8
0
 10
70.237325660467278
 20
40.723417413072262
 30
0.0
 42
0.0718266842203901
 70
     2
 50
330.24505355315
  0
VERTEX
  5
2A3
  8
0
 10
70.322688342704225
 20
40.689726181605522
 30
0.0
 42
0.0718208819146952
 50
330.24505355315
  0
VERTEX
  5
2A4
  8
0
 10
70.414102355764129
 20
40.681558459613541
 30
0.0
 42
0.0581924543484093
 50
90.0
  0
SEQEND
  5
2A5
  8
0
  0
LINE
  5
2A6
  8
0
 10
70.414102355764129
 20
38.731717888562457
 30
0.0
 11
70.414102355764129
 21
40.681558459610272
 31
0.0
  0
POLYLINE
  5
2A7
  8
0
 66
     1
 10
0.0
 20
0.0
 30
0.0
  0
VERTEX
  5
2A8
  8
0
 10
70.16410235576376
 20
37.996927621991972
 30
0.0
 42
0.0519942056325265
 50
90.0
  0
VERTEX
  5
2A9
  8
0
 10
70.184798190976295
 20
37.798445061349753
 30
0.0
 42
0.0658520295855318
 50
90.0
  0
VERTEX
  5
2AA
  8
0
 10
70.237325660467263
 20
37.649622576222761
 30
0.0
 42
0.1046008475216924
 70
     2
 50
296.9758878539098
  0
VERTEX
  5
2AB
  8
0
 10
70.334365888260123
 20
37.529440150049567
 30
0.0
 42
0.1998248705224882
 50
296.9758878539098
  0
VERTEX
  5
2AC
  8
0
 10
70.414102355764172
 20
37.505764115984562
 30
0.0
 42
0.1724524218163822
 50
90.0
  0
SEQEND
  5
2AD
  8
0
  0
POLYLINE
  5
2AE
  8
0
 66
     1
 10
0.0
 20
0.0
 30
0.0
  0
VERTEX
  5
2AF
  8
0
 10
70.414102355764101
 20
38.731717888562457
 30
0.0
 42
0.2244450920054925
 50
90.0
  0
VERTEX
  5
2B0
  8
0
 10
70.336736200281152
 20
38.695146684467147
 30
0.0
 42
0.0901691907520375
 50
90.0
  0
VERTEX
  5
2B1
  8
0
 10
70.237325660467263
 20
38.516502802233809
 30
0.0
 42
0.0470196877347411
 70
     2
 50
251.20999383284229
  0
VERTEX
  5
2B2
  8
0
 10
70.185198767475526
 20
38.297797117864832
 30
0.0
 42
0.035016086932325
 50
251.20999383284229
  0
VERTEX
  5
2B3
  8
0
 10
70.164102355763831
 20
37.996927621991972
 30
0.0
 42
0.0350160869323387
 50
90.0
  0
SEQEND
  5
2B4
  8
0
  0
LINE
  5
2B5
  8
0
 10
70.414102355764143
 20
34.842232362603681
 30
0.0
 11
70.414102355764129
 21
37.505764115984562
 31
0.0
  0
POLYLINE
  5
2B6
  8
0
 66
     1
 10
0.0
 20
0.0
 30
0.0
  0
VERTEX
  5
2B7
  8
0
 10
76.364102355764075
 20
34.134427621991847
 30
0.0
 42
-0.0363338685802231
 50
90.0
  0
VERTEX
  5
2B8
  8
0
 10
76.343032099626015
 20
33.84485702214198
 30
0.0
 42
-0.0486020662739422
 50
90.0
  0
VERTEX
  5
2B9
  8
0
 10
76.290879051060585
 20
33.633934090149182
 30
0.0
 42
-0.0918921657250572
 70
     2
 50
250.54653717521029
  0
VERTEX
  5
2BA
  8
0
 10
76.187456196043513
 20
33.454468140540229
 30
0.0
 42
-0.2563706040809025
 50
90.0
  0
VERTEX
  5
2BB
  8
0
 10
76.114102355763706
 20
33.426622881379963
 30
0.0
 42
-0.2196144455096618
 50
90.0
  0
SEQEND
  5
2BC
  8
0
  0
POLYLINE
  5
2BD
  8
0
 66
     1
 10
0.0
 20
0.0
 30
0.0
  0
VERTEX
  5
2BE
  8
0
 10
76.114102355763805
 20
34.842232362603802
 30
0.0
 42
-0.2196144455096195
 50
90.0
  0
VERTEX
  5
2BF
  8
0
 10
76.192171743191309
 20
34.80620438457882
 30
0.0
 42
-0.0918921657250284
 50
90.0
  0
VERTEX
  5
2C0
  8
0
 10
76.290879051060642
 20
34.63492115383454
 30
0.0
 42
-0.0486020662739239
 70
     2
 50
289.453462824783
  0
VERTEX
  5
2C1
  8
0
 10
76.343032099626072
 20
34.4239982218416
 30
0.0
 42
-0.0363338685801739
 50
90.0
  0
VERTEX
  5
2C2
  8
0
 10
76.364102355764075
 20
34.134427621991847
 30
0.0
 42
-0.0363338685802231
 50
90.0
  0
SEQEND
  5
2C3
  8
0
  0
POLYLINE
  5
2C4
  8
0
 66
     1
 10
0.0
 20
0.0
 30
0.0
  0
VERTEX
  5
2C5
  8
0
 10
70.414102355764101
 20
34.842232362603802
 30
0.0
 42
0.2196144455096195
 50
90.0
  0
VERTEX
  5
2C6
  8
0
 10
70.336032968336596
 20
34.80620438457882
 30
0.0
 42
0.0918921657250284
 50
90.0
  0
VERTEX
  5
2C7
  8
0
 10
70.237325660467263
 20
34.63492115383454
 30
0.0
 42
0.0486020662739239
 70
     2
 50
250.54653717521691
  0
VERTEX
  5
2C8
  8
0
 10
70.185172611901834
 20
34.4239982218416
 30
0.0
 42
0.0363338685801739
 50
250.54653717521691
  0
VERTEX
  5
2C9
  8
0
 10
70.164102355763831
 20
34.134427621991847
 30
0.0
 42
0.0363338685802231
 50
90.0
  0
SEQEND
  5
2CA
  8
0
  0
POLYLINE
  5
2CB
  8
0
 66
     1
 10
0.0
 20
0.0
 30
0.0
  0
VERTEX
  5
2CC
  8
0
 10
70.164102355763831
 20
34.134427621991847
 30
0.0
 42
0.0363338685802231
 50
90.0
  0
VERTEX
  5
2CD
  8
0
 10
70.185172611901891
 20
33.84485702214198
 30
0.0
 42
0.0486020662739422
 50
90.0
  0
VERTEX
  5
2CE
  8
0
 10
70.23732566046732
 20
33.633934090149182
 30
0.0
 42
0.0918921657250572
 70
     2
 50
289.4534628247896
  0
VERTEX
  5
2CF
  8
0
 10
70.340748515484393
 20
33.454468140540229
 30
0.0
 42
0.2563706040809025
 50
289.4534628247896
  0
VERTEX
  5
2D0
  8
0
 10
70.414102355764186
 20
33.426622881379963
 30
0.0
 42
0.2196144455096618
 50
90.0
  0
SEQEND
  5
2D1
  8
0
  0
LINE
  5
2D2
  8
0
 10
70.414102355764157
 20
33.426622881379927
 30
0.0
 11
76.136718895403007
 21
33.426622881379963
 31
0.0
  0
LINE
  5
2D3
  8
0
 10
70.414102355764157
 20
42.103054382555257
 30
0.0
 11
76.114102355763563
 21
42.103054382555257
 31
0.0
  0
LINE
  5
2D4
  8
0
 10
70.414102355764157
 20
41.389363200222128
 30
0.0
 11
76.114102355763777
 21
41.389363200222128
 31
0.0
  0
LINE
  5
2D5
  8
0
 10
70.414102355764157
 20
40.681558459610301
 30
0.0
 11
76.148947925734873
 21
40.681558459610272
 31
0.0
  0
LINE
  5
2D6
  8
0
 10
70.414102355764157
 20
38.731717888562457
 30
0.0
 11
76.114102355763805
 21
38.731717888562457
 31
0.0
  0
LINE
  5
2D7
  8
0
 10
70.414102355764157
 20
37.505764115984562
 30
0.0
 11
76.136962393263474
 21
37.505764115984562
 31
0.0
  0
LINE
  5
2D8
  8
0
 10
70.414102355764157
 20
34.842232362603681
 30
0.0
 11
76.114103523771519
 21
34.84223236260371
 31
0.0
  0
LINE
  5
2D9
  8
2
 10
81.864102355764174
 20
35.755427621991579
 30
0.0
 11
82.664102355764186
 21
36.555427621991612
 31
0.0
  0
LINE
  5
2DA
  8
2
 10
75.164102355764143
 20
35.755427621991458
 30
0.0
 11
74.190107292320704
 21
34.134427621991819
 31
0.0
  0
LINE
  5
2DB
  8
2
 10
76.664102355764157
 20
36.134427621991762
 30
0.0
 11
76.007655099695114
 21
35.755427621991522
 31
0.0
  0
LINE
  5
2DC
  8
2
 10
81.864102355764174
 20
35.755427621991537
 30
0.0
 11
75.164102355764143
 21
35.755427621991537
 31
0.0
  0
LINE
  5
2DD
  8
2
 10
82.243102355764421
 20
36.134427621991819
 30
0.0
 11
76.664102355764157
 21
36.134427621991819
 31
0.0
  0
LINE
  5
2DE
  8
2
 10
82.36410235576416
 20
37.634427621991847
 30
0.0
 11
75.664102355764115
 21
37.634427621991819
 31
0.0
  0
LINE
  5
2DF
  8
2
 10
75.664102355764115
 20
37.634427621991819
 30
0.0
 11
73.664102355764157
 21
35.634427621991819
 31
0.0
  0
LINE
  5
2E2
  8
0
 10
82.36410235576416
 20
30.634427621991819
 30
0.0
 11
82.664102355764214
 21
30.634427621991851
 31
0.0
  0
LINE
  5
2E3
  8
2
 10
81.864102355764174
 20
32.513427621992122
 30
0.0
 11
82.664102355764186
 21
31.713427621992079
 31
0.0
  0
LINE
  5
2E4
  8
2
 10
81.864102355764174
 20
35.755427621991537
 30
0.0
 11
81.864102355764174
 21
32.513427621992122
 31
0.0
  0
LINE
  5
2E5
  8
2
 10
82.243102355764421
 20
32.134427621991819
 30
0.0
 11
76.664102355764157
 21
32.134427621991819
 31
0.0
  0
LINE
  5
2E6
  8
2
 10
81.864102355764174
 20
32.513427621992101
 30
0.0
 11
75.164102355764143
 21
32.513427621992101
 31
0.0
  0
LINE
  5
2E7
  8
2
 10
76.664102355764157
 20
32.134427621991819
 30
0.0
 11
76.664102355764143
 21
36.134427621991762
 31
0.0
  0
LINE
  5
2E8
  8
2
 10
75.164102355764143
 20
32.513427621992101
 30
0.0
 11
75.164102355764172
 21
35.755427621991537
 31
0.0
  0
LINE
  5
2E9
  8
2
 10
75.164102355764143
 20
32.513427621992179
 30
0.0
 11
74.190107292320704
 21
34.134427621991819
 31
0.0
  0
LINE
  5
2EA
  8
2
 10
76.664102355764157
 20
32.134427621991883
 30
0.0
 11
76.007655099695114
 21
32.513427621992122
 31
0.0
  0
LINE
  5
2EC
  8
2
 10
82.36410235576416
 20
30.634427621991779
 30
0.0
 11
75.664102355764115
 21
30.634427621991801
 31
0.0
  0
LINE
  5
2ED
  8
2
 10
75.664102355764115
 20
30.634427621991801
 30
0.0
 11
73.664102355764157
 21
32.634427621991819
 31
0.0
  0
LINE
  5
2EE
  8
2
 10
73.664102355764172
 20
35.634427621991819
 30
0.0
 11
73.664102355764157
 21
32.634427621991819
 31
0.0
  0
LINE
  5
2F3
  8
0
 10
81.614102355764132
 20
39.634427621991847
 30
0.0
 11
81.614102355764132
 21
28.634427621991851
 31
0.0
  0
LINE
  5
2F4
  8
0
 10
76.914102355764115
 20
42.134427621991847
 30
0.0
 11
76.914102355764115
 21
26.13442762199179
 31
0.0
  0
LINE
  5
2F5
  8
0
 10
76.914102355764186
 20
26.134427621991851
 30
0.0
 11
77.664102355764186
 21
26.884427621991851
 31
0.0
  0
LINE
  5
2F6
  8
0
 10
81.614102355764174
 20
28.634427621991851
 30
0.0
 11
82.36410235576416
 21
29.384427621991851
 31
0.0
  0
LINE
  5
2F7
  8
0
 10
82.364102355764118
 20
38.884427621991847
 30
0.0
 11
81.614102355764132
 21
39.634427621991847
 31
0.0
  0
LINE
  5
2F8
  8
0
 10
77.664102355764143
 20
41.384427621991847
 30
0.0
 11
76.914102355764157
 21
42.134427621991847
 31
0.0
  0
LINE
  5
2F9
  8
0
 10
69.664102355764143
 20
41.384427621991847
 30
0.0
 11
70.164102355771064
 21
41.884427621998753
 31
0.0
  0
LINE
  5
2FA
  8
0
 10
77.664102355764143
 20
28.634427621991851
 30
0.0
 11
81.614102355764174
 21
28.634427621991851
 31
0.0
  0
LINE
  5
2FB
  8
0
 10
82.664102355764172
 20
37.634427621991847
 30
0.0
 11
82.664102355764214
 21
30.634427621991851
 31
0.0
  0
LINE
  5
2FC
  8
0
 10
82.36410235576416
 20
37.634427621991847
 30
0.0
 11
82.664102355764172
 21
37.634427621991847
 31
0.0
  0
LINE
  5
2FD
  8
0
 10
82.364102355764118
 20
38.884427621991847
 30
0.0
 11
82.364102355764189
 21
29.38442762199189
 31
0.0
  0
LINE
  5
2FE
  8
0
 10
77.664102355764143
 20
39.634427621991847
 30
0.0
 11
81.614102355764132
 21
39.634427621991847
 31
0.0
  0
LINE
  5
2FF
  8
0
 10
77.664102355764143
 20
41.384427621991847
 30
0.0
 11
77.664102355764143
 21
26.884427621991819
 31
0.0
  0
LINE
  5
300
  8
0
 10
76.364102355764103
 20
42.134427621991847
 30
0.0
 11
76.914102355764157
 21
42.134427621991847
 31
0.0
  0
LINE
  5
301
  8
0
 10
69.664102355764101
 20
26.884427621991851
 30
0.0
 11
69.664102355764143
 21
41.384427621991847
 31
0.0
  0
LINE
  5
302
  8
1
 10
85.164102355764186
 20
34.134427621991883
 30
0.0
 11
67.164102355764143
 21
34.134427621991883
 31
0.0
  0
LINE
  5
303
  8
1
 10
119.8213287694939
 20
58.634427621991819
 30
0.0
 11
119.8213287694939
 21
79.634427621991819
 31
0.0
  0
LINE
  5
304
  8
1
 10
109.3213287694938
 20
69.134427621991804
 30
0.0
 11
130.3213287694939
 21
69.134427621991804
 31
0.0
  0
CIRCLE
  5
305
  8
0
 10
119.8213287694939
 20
69.134427621991804
 30
0.0
 40
8.0
  0
CIRCLE
  5
306
  8
0
 10
119.8213287694939
 20
69.134427621991804
 30
0.0
 40
1.6209999999999991
  0
CIRCLE
  5
307
  8
3
 10
119.8213287694939
 20
69.134427621991804
 30
0.0
 40
2.0
  0
CIRCLE
  5
308
  8
0
 10
119.8213287694939
 20
69.134427621991804
 30
0.0
 40
7.2500000000000142
  0
CIRCLE
  5
309
  8
0
 10
119.8213287694939
 20
69.134427621991804
 30
0.0
 40
5.4999999999999849
  0
CIRCLE
  5
30A
  8
0
 10
119.8213287694939
 20
69.134427621991804
 30
0.0
 40
4.7499999999999281
  0
CIRCLE
  5
30B
  8
0
 10
119.8213287694939
 20
69.134427621991804
 30
0.0
 40
3.4999999999999849
  0
LINE
  5
3C0
  8
2
 10
72.164102355764172
 20
73.634427621991861
 30
0.0
 11
72.164102355764172
 21
64.634427621991861
 31
0.0
  0
LINE
  5
3C1
  8
2
 10
71.664102355764172
 20
64.634427621991861
 30
0.0
 11
71.664102355764172
 21
73.634427621991861
 31
0.0
  0
LINE
  5
3C2
  8
2
 10
69.664102355764172
 20
75.134427621991861
 30
0.0
 11
71.664102355764172
 21
73.634427621991861
 31
0.0
  0
LINE
  5
3C3
  8
2
 10
72.164102355764172
 20
73.634427621991861
 30
0.0
 11
71.664102355764172
 21
73.634427621991861
 31
0.0
  0
LINE
  5
3C4
  8
2
 10
72.164102355764172
 20
64.634427621991861
 30
0.0
 11
71.664102355764172
 21
64.634427621991861
 31
0.0
  0
LINE
  5
3C5
  8
2
 10
69.664102355764172
 20
63.134427621991861
 30
0.0
 11
71.664102355764172
 21
64.634427621991861
 31
0.0
  0
LINE
  5
3C6
  8
2
 10
72.164102355764172
 20
38.634427621991883
 30
0.0
 11
71.664102355764172
 21
38.634427621991883
 31
0.0
  0
LINE
  5
3C7
  8
2
 10
69.664102355764172
 20
40.134427621991868
 30
0.0
 11
71.664102355764172
 21
38.634427621991883
 31
0.0
  0
LINE
  5
3C8
  8
2
 10
71.664102355764172
 20
29.634427621991879
 30
0.0
 11
71.664102355764172
 21
38.634427621991883
 31
0.0
  0
LINE
  5
3C9
  8
2
 10
72.164102355764172
 20
38.634427621991883
 30
0.0
 11
72.164102355764172
 21
29.634427621991879
 31
0.0
  0
LINE
  5
3CA
  8
2
 10
69.664102355764172
 20
28.134427621991868
 30
0.0
 11
71.664102355764172
 21
29.634427621991879
 31
0.0
  0
LINE
  5
3CB
  8
2
 10
72.164102355764172
 20
29.634427621991879
 30
0.0
 11
71.664102355764172
 21
29.634427621991879
 31
0.0
  0
CIRCLE
  5
3D4
  8
0
 10
29.821328769493949
 20
69.134427621991804
 30
0.0
 40
4.5
  0
TEXT
  5
488
  8
0
 62
     3
 10
0.0
 20
0.0
 30
0.0
 40
10.0
  1
FTK16B
  7
STANDARD1
  0
ENDSEC
  0
EOF
