  0
SECTION
  2
HEADER
  9
$ACADVER
  1
AC1009
  9
$INSBASE
 10
0.0
 20
0.0
 30
0.0
  9
$EXTMIN
 10
0.0
 20
-2.960436562073669
 30
0.0
  9
$EXTMAX
 10
161.0
 20
148.8536586541999895
 30
0.0
  9
$LIMMIN
 10
0.0
 20
0.0
  9
$LIMMAX
 10
187.5
 20
135.0
  9
$ORTHOMODE
 70
     1
  9
$REGENMODE
 70
     1
  9
$FILLMODE
 70
     1
  9
$QTEXTMODE
 70
     0
  9
$MIRRTEXT
 70
     0
  9
$DRAGMODE
 70
     2
  9
$LTSCALE
 40
5.0
  9
$OSMODE
 70
    37
  9
$ATTMODE
 70
     1
  9
$TEXTSIZE
 40
5.0
  9
$TRACEWID
 40
0.05
  9
$TEXTSTYLE
  7
STANDARD
  9
$CLAYER
  8
0
  9
$CELTYPE
  6
BYLAYER
  9
$CECOLOR
 62
   256
  9
$DIMSCALE
 40
0.5
  9
$DIMASZ
 40
3.0
  9
$DIMEXO
 40
2.0
  9
$DIMDLI
 40
0.38
  9
$DIMRND
 40
0.0
  9
$DIMDLE
 40
0.0
  9
$DIMEXE
 40
2.0
  9
$DIMTP
 40
0.0
  9
$DIMTM
 40
0.0
  9
$DIMTXT
 40
3.2000000000000002
  9
$DIMCEN
 40
0.09
  9
$DIMTSZ
 40
0.0
  9
$DIMTOL
 70
     0
  9
$DIMLIM
 70
     0
  9
$DIMTIH
 70
     0
  9
$DIMTOH
 70
     0
  9
$DIMSE1
 70
     0
  9
$DIMSE2
 70
     0
  9
$DIMTAD
 70
     1
  9
$DIMZIN
 70
     0
  9
$DIMBLK
  1

  9
$DIMASO
 70
     1
  9
$DIMSHO
 70
     0
  9
$DIMPOST
  1

  9
$DIMAPOST
  1

  9
$DIMALT
 70
     0
  9
$DIMALTD
 70
     2
  9
$DIMALTF
 40
25.3999999999999986
  9
$DIMLFAC
 40
1.0
  9
$DIMTOFL
 70
     0
  9
$DIMTVP
 40
1.6000000000000001
  9
$DIMTIX
 70
     1
  9
$DIMSOXD
 70
     0
  9
$DIMSAH
 70
     0
  9
$DIMBLK1
  1

  9
$DIMBLK2
  1

  9
$DIMSTYLE
  2
STANDARD
  9
$DIMCLRD
 70
     0
  9
$DIMCLRE
 70
     0
  9
$DIMCLRT
 70
     0
  9
$DIMTFAC
 40
1.0
  9
$DIMGAP
 40
0.09
  9
$LUNITS
 70
     2
  9
$LUPREC
 70
     1
  9
$SKETCHINC
 40
0.1
  9
$FILLETRAD
 40
0.3
  9
$AUNITS
 70
     0
  9
$AUPREC
 70
     1
  9
$MENU
  1
E:\r13\win\SUPPORT\ACAD
  9
$ELEVATION
 40
0.0
  9
$PELEVATION
 40
0.0
  9
$THICKNESS
 40
0.0
  9
$LIMCHECK
 70
     0
  9
$BLIPMODE
 70
     0
  9
$CHAMFERA
 40
0.0
  9
$CHAMFERB
 40
0.0
  9
$SKPOLY
 70
     0
  9
$TDCREATE
 40
2449839.7835879628546536
  9
$TDUPDATE
 40
2460235.5675578699447215
  9
$TDINDWG
 40
0.0042840509
  9
$TDUSRTIMER
 40
0.0042840509
  9
$USRTIMER
 70
     1
  9
$ANGBASE
 50
0.0
  9
$ANGDIR
 70
     0
  9
$PDMODE
 70
     0
  9
$PDSIZE
 40
0.0
  9
$PLINEWID
 40
0.0
  9
$COORDS
 70
     1
  9
$SPLFRAME
 70
     0
  9
$SPLINETYPE
 70
     6
  9
$SPLINESEGS
 70
     8
  9
$ATTDIA
 70
     1
  9
$ATTREQ
 70
     1
  9
$HANDLING
 70
     1
  9
$HANDSEED
  5
120B
  9
$SURFTAB1
 70
     6
  9
$SURFTAB2
 70
     6
  9
$SURFTYPE
 70
     6
  9
$SURFU
 70
     6
  9
$SURFV
 70
     6
  9
$UCSNAME
  2

  9
$UCSORG
 10
0.0
 20
0.0
 30
0.0
  9
$UCSXDIR
 10
1.0
 20
0.0
 30
0.0
  9
$UCSYDIR
 10
0.0
 20
1.0
 30
0.0
  9
$PUCSNAME
  2

  9
$PUCSORG
 10
0.0
 20
0.0
 30
0.0
  9
$PUCSXDIR
 10
1.0
 20
0.0
 30
0.0
  9
$PUCSYDIR
 10
0.0
 20
1.0
 30
0.0
  9
$USERI1
 70
     0
  9
$USERI2
 70
     1
  9
$USERI3
 70
     1
  9
$USERI4
 70
     0
  9
$USERI5
 70
     0
  9
$USERR1
 40
0.0
  9
$USERR2
 40
0.0
  9
$USERR3
 40
0.0
  9
$USERR4
 40
0.0
  9
$USERR5
 40
0.0
  9
$WORLDVIEW
 70
     1
  9
$SHADEDGE
 70
     3
  9
$SHADEDIF
 70
    70
  9
$TILEMODE
 70
     1
  9
$MAXACTVP
 70
    16
  9
$PLIMCHECK
 70
     0
  9
$PEXTMIN
 10
1.0000000000000000E+20
 20
1.0000000000000000E+20
 30
1.0000000000000000E+20
  9
$PEXTMAX
 10
-1.0000000000000000E+20
 20
-1.0000000000000000E+20
 30
-1.0000000000000000E+20
  9
$PLIMMIN
 10
0.0
 20
0.0
  9
$PLIMMAX
 10
12.0
 20
9.0
  9
$UNITMODE
 70
     0
  9
$VISRETAIN
 70
     0
  9
$PLINEGEN
 70
     0
  9
$PSLTSCALE
 70
     0
  0
ENDSEC
  0
SECTION
  2
TABLES
  0
TABLE
  2
VPORT
 70
     1
  0
VPORT
  2
*ACTIVE
 70
     0
 10
0.0
 20
0.0
 11
1.0
 21
1.0
 12
234.8522167487685124
 22
100.0
 13
0.0
 23
0.0
 14
5.0
 24
5.0
 15
5.0
 25
5.0
 16
0.0
 26
0.0
 36
1.0
 17
0.0
 27
0.0
 37
0.0
 40
200.0
 41
2.3485221674876842
 42
50.0
 43
0.0
 44
0.0
 50
0.0
 51
0.0
 71
     0
 72
   500
 73
     1
 74
     0
 75
     0
 76
     0
 77
     0
 78
     2
  0
ENDTAB
  0
TABLE
  2
LTYPE
 70
     3
  0
LTYPE
  2
CONTINUOUS
 70
     0
  3
Solid Line
 72
    65
 73
     0
 40
0.0
  0
LTYPE
  2
CENTER
 70
     0
  3
____ _ ____ _ ____ _ ____ _ ____ _ ____ _ ____
 72
    65
 73
     4
 40
2.0
 49
1.25
 49
-0.25
 49
0.25
 49
-0.25
  0
LTYPE
  2
HIDDEN
 70
     0
  3
_ _ _ _ _ _ _ _ _ _ _ _ _ _ _ _ _ _ _ _ _ _ _
 72
    65
 73
     2
 40
0.375
 49
0.25
 49
-0.125
  0
ENDTAB
  0
TABLE
  2
LAYER
 70
     4
  0
LAYER
  2
0
 70
     0
 62
     7
  6
CONTINUOUS
  0
LAYER
  2
1
 70
     0
 62
     1
  6
CENTER
  0
LAYER
  2
3
 70
     0
 62
     3
  6
CONTINUOUS
  0
LAYER
  2
2
 70
     0
 62
     2
  6
HIDDEN
  0
ENDTAB
  0
TABLE
  2
STYLE
 70
     2
  0
STYLE
  2
STANDARD
 70
     0
 40
0.0
 41
1.0
 50
0.0
 71
     0
 42
5.0
  3
TXT
  4
BIGFONT
  0
STYLE
  2
STANDARD1
 70
     0
 40
0.0
 41
1.0
 50
0.0
 71
     0
 42
3.0
  3
txt
  4

  0
ENDTAB
  0
TABLE
  2
VIEW
 70
     1
  0
VIEW
  2
ALL
 70
     0
 40
135.0
 10
110.4957983193277045
 20
67.5
 41
0.0
 11
0.0
 21
0.0
 31
1.0
 12
0.0
 22
0.0
 32
0.0
 42
0.0
 43
0.0
 44
0.0
 50
0.0
 71
     0
  0
ENDTAB
  0
TABLE
  2
UCS
 70
     0
  0
ENDTAB
  0
TABLE
  2
APPID
 70
     6
  0
APPID
  2
ACAD
 70
     0
  0
APPID
  2
ACAD_MLEADERVER
 70
     0
  0
APPID
  2
ACAD_NAV_VCDISPLAY
 70
     0
  0
APPID
  2
ACAD_EXEMPT_FROM_CAD_STANDARDS
 70
     0
  0
APPID
  2
ACAD_DSTYLE_DIMJAG
 70
     0
  0
APPID
  2
ACAD_DSTYLE_DIMTALN
 70
     0
  0
ENDTAB
  0
TABLE
  2
DIMSTYLE
 70
     1
  0
DIMSTYLE
  2
STANDARD
 70
     0
  3

  4

  5

  6

  7

 40
1.0
 41
0.18
 42
0.0625
 43
0.38
 44
0.18
 45
0.0
 46
0.0
 47
0.0
 48
0.0
140
0.18
141
0.09
142
0.0
143
25.3999999999999986
144
1.0
145
0.0
146
1.0
147
0.09
 71
     0
 72
     0
 73
     1
 74
     1
 75
     0
 76
     0
 77
     0
 78
     0
170
     0
171
     2
172
     0
173
     0
174
     0
175
     0
176
     0
177
     0
178
     0
  0
ENDTAB
  0
ENDSEC
  0
SECTION
  2
BLOCKS
  0
BLOCK
  8
0
  2
$MODEL_SPACE
 70
     0
 10
0.0
 20
0.0
 30
0.0
  3
$MODEL_SPACE
  1

  0
ENDBLK
  5
3C1
  8
0
  0
BLOCK
 67
     1
  8
0
  2
$PAPER_SPACE
 70
     0
 10
0.0
 20
0.0
 30
0.0
  3
$PAPER_SPACE
  1

  0
ENDBLK
  5
3BF
 67
     1
  8
0
  0
ENDSEC
  0
SECTION
  2
ENTITIES
  0
LINE
  5
418
  8
2
 10
88.4457705440718769
 20
49.3536586541999895
 30
0.0
 11
89.3117955440719129
 21
50.8536586541999895
 31
0.0
  0
LINE
  5
419
  8
2
 10
88.4457705440718769
 20
48.8536586541999824
 30
0.0
 11
89.059205544071915
 21
48.2402236542000082
 31
0.0
  0
LINE
  5
41A
  8
2
 10
88.4457705440718769
 20
49.3536586541999895
 30
0.0
 11
87.6457705440719224
 21
49.3536586541999895
 31
0.0
  0
LINE
  5
41B
  8
2
 10
89.059205544071915
 20
48.2402236542000082
 30
0.0
 11
89.059205544071915
 21
43.4670936541999708
 31
0.0
  0
LINE
  5
41C
  8
2
 10
88.4457705440718769
 20
42.3536586541999966
 30
0.0
 11
88.4457705440718769
 21
49.3536586541999895
 31
0.0
  0
LINE
  5
41D
  8
2
 10
88.4457705440718769
 20
42.3536586541999895
 30
0.0
 11
87.6457705440719224
 21
42.3536586541999895
 31
0.0
  0
LINE
  5
41E
  8
2
 10
88.4457705440718769
 20
42.8536586541999895
 30
0.0
 11
89.059205544071915
 21
43.4670936541999708
 31
0.0
  0
LINE
  5
41F
  8
2
 10
89.059205544071915
 20
43.4670936541999708
 30
0.0
 11
88.4457705440718769
 21
42.8536586541999895
 31
0.0
  0
LINE
  5
420
  8
2
 10
88.4457705440718769
 20
42.3536586541999895
 30
0.0
 11
89.3117955440719129
 21
40.8536586541999895
 31
0.0
  0
LINE
  5
421
  8
2
 10
93.5457705440718996
 20
40.8536586541999895
 30
0.0
 11
89.3117955440719129
 21
40.8536586541999895
 31
0.0
  0
LINE
  5
422
  8
2
 10
93.5457705440718996
 20
41.8536586541999824
 30
0.0
 11
93.5457705440718996
 21
40.8536586541999895
 31
0.0
  0
LINE
  5
423
  8
2
 10
93.5457705440718996
 20
49.8536586541999895
 30
0.0
 11
93.5457705440718996
 21
50.8536586541999895
 31
0.0
  0
LINE
  5
424
  8
2
 10
93.5457705440718996
 20
50.8536586541999895
 30
0.0
 11
89.3117955440719129
 21
50.8536586541999895
 31
0.0
  0
LINE
  5
425
  8
2
 10
96.0457705440718996
 20
40.8536586541999895
 30
0.0
 11
96.0457705440718996
 21
41.8536586541999824
 31
0.0
  0
LINE
  5
426
  8
2
 10
96.0457705440718996
 20
41.8536586541999824
 30
0.0
 11
93.5457705440718996
 21
41.8536586541999824
 31
0.0
  0
LINE
  5
427
  8
2
 10
101.8323355440718956
 20
43.4670936541999708
 30
0.0
 11
102.4457705440718058
 21
42.8536586541999895
 31
0.0
  0
LINE
  5
428
  8
2
 10
101.8323355440718956
 20
48.2402236542000082
 30
0.0
 11
101.8323355440718956
 21
43.4670936541999708
 31
0.0
  0
LINE
  5
429
  8
2
 10
102.4457705440718058
 20
48.8536586541999824
 30
0.0
 11
101.8323355440718956
 21
48.2402236542000082
 31
0.0
  0
LINE
  5
42A
  8
2
 10
101.8323355440718956
 20
48.2402236542000082
 30
0.0
 11
89.059205544071915
 21
48.2402236542000082
 31
0.0
  0
LINE
  5
42B
  8
2
 10
102.4457705440718058
 20
48.8536586541999824
 30
0.0
 11
88.4457705440718769
 21
48.8536586541999824
 31
0.0
  0
LINE
  5
42C
  8
2
 10
102.1457705440718939
 20
49.8536586541999895
 30
0.0
 11
100.0457705440718996
 21
49.8536586541999895
 31
0.0
  0
LINE
  5
42D
  8
2
 10
100.0457705440718996
 20
50.8536586541999895
 30
0.0
 11
96.0457705440718996
 21
50.8536586541999895
 31
0.0
  0
LINE
  5
42E
  8
2
 10
100.0457705440718996
 20
49.8536586541999895
 30
0.0
 11
100.0457705440718996
 21
50.8536586541999895
 31
0.0
  0
LINE
  5
42F
  8
2
 10
96.0457705440718996
 20
50.8536586541999895
 30
0.0
 11
96.0457705440718996
 21
49.8536586541999895
 31
0.0
  0
LINE
  5
430
  8
2
 10
96.0457705440718996
 20
49.8536586541999895
 30
0.0
 11
93.5457705440718996
 21
49.8536586541999895
 31
0.0
  0
LINE
  5
431
  8
2
 10
101.8323355440718956
 20
43.4670936541999708
 30
0.0
 11
89.059205544071915
 21
43.4670936541999708
 31
0.0
  0
LINE
  5
432
  8
2
 10
102.4457705440718058
 20
42.8536586541999895
 30
0.0
 11
88.4457705440718769
 21
42.8536586541999895
 31
0.0
  0
LINE
  5
433
  8
2
 10
100.0457705440718996
 20
40.8536586541999895
 30
0.0
 11
96.0457705440718996
 21
40.8536586541999895
 31
0.0
  0
LINE
  5
434
  8
2
 10
102.1457705440718939
 20
41.8536586541999824
 30
0.0
 11
100.0457705440718996
 21
41.8536586541999824
 31
0.0
  0
LINE
  5
435
  8
2
 10
100.0457705440718996
 20
41.8536586541999824
 30
0.0
 11
100.0457705440718996
 21
40.8536586541999895
 31
0.0
  0
LINE
  5
436
  8
2
 10
93.5457705440719138
 20
130.8536586541999895
 30
0.0
 11
89.3117955440719129
 21
130.8536586541999895
 31
0.0
  0
LINE
  5
437
  8
2
 10
88.4457705440718911
 20
132.3536586541999895
 30
0.0
 11
87.6457705440719366
 21
132.3536586541999895
 31
0.0
  0
LINE
  5
438
  8
2
 10
88.4457705440718911
 20
132.3536586541999895
 30
0.0
 11
89.3117955440719129
 21
130.8536586541999895
 31
0.0
  0
LINE
  5
439
  8
2
 10
88.4457705440718911
 20
132.8536586541999895
 30
0.0
 11
89.0592055440719292
 21
133.467093654199914
 31
0.0
  0
LINE
  5
43A
  8
2
 10
89.0592055440719292
 20
133.467093654199914
 30
0.0
 11
88.4457705440718911
 21
132.8536586541999895
 31
0.0
  0
LINE
  5
43B
  8
2
 10
89.0592055440719292
 20
138.2402236542000082
 30
0.0
 11
89.0592055440719292
 21
133.467093654199914
 31
0.0
  0
LINE
  5
43C
  8
2
 10
88.4457705440718911
 20
132.3536586541999895
 30
0.0
 11
88.4457705440718911
 21
139.3536586541999895
 31
0.0
  0
LINE
  5
43D
  8
2
 10
88.4457705440718911
 20
138.8536586541999895
 30
0.0
 11
89.0592055440719292
 21
138.2402236542000082
 31
0.0
  0
LINE
  5
43E
  8
2
 10
88.4457705440718911
 20
139.3536586541999895
 30
0.0
 11
87.6457705440719366
 21
139.3536586541999895
 31
0.0
  0
LINE
  5
43F
  8
2
 10
93.5457705440719138
 20
140.8536586541999895
 30
0.0
 11
89.3117955440719129
 21
140.8536586541999895
 31
0.0
  0
LINE
  5
440
  8
2
 10
88.4457705440718911
 20
139.3536586541999895
 30
0.0
 11
89.3117955440719129
 21
140.8536586541999895
 31
0.0
  0
LINE
  5
441
  8
2
 10
93.5457705440719138
 20
139.8536586541999895
 30
0.0
 11
93.5457705440719138
 21
140.8536586541999895
 31
0.0
  0
LINE
  5
442
  8
2
 10
96.0457705440719138
 20
130.8536586541999895
 30
0.0
 11
96.0457705440719138
 21
131.8536586541999895
 31
0.0
  0
LINE
  5
443
  8
2
 10
96.0457705440719138
 20
131.8536586541999895
 30
0.0
 11
93.5457705440719138
 21
131.8536586541999895
 31
0.0
  0
LINE
  5
444
  8
2
 10
101.8323355440718956
 20
133.467093654199914
 30
0.0
 11
102.4457705440719053
 21
132.8536586541999895
 31
0.0
  0
LINE
  5
445
  8
2
 10
101.8323355440718956
 20
138.2402236542000082
 30
0.0
 11
101.8323355440718956
 21
133.467093654199914
 31
0.0
  0
LINE
  5
446
  8
2
 10
102.4457705440719053
 20
138.8536586541999895
 30
0.0
 11
101.8323355440718956
 21
138.2402236542000082
 31
0.0
  0
LINE
  5
447
  8
2
 10
101.8323355440718956
 20
138.2402236542000082
 30
0.0
 11
89.0592055440719292
 21
138.2402236542000082
 31
0.0
  0
LINE
  5
448
  8
2
 10
102.4457705440719053
 20
138.8536586541999895
 30
0.0
 11
88.4457705440718911
 21
138.8536586541999895
 31
0.0
  0
LINE
  5
449
  8
2
 10
102.1457705440718939
 20
139.8536586541999895
 30
0.0
 11
100.0457705440718996
 21
139.8536586541999895
 31
0.0
  0
LINE
  5
44A
  8
2
 10
100.0457705440718996
 20
140.8536586541999895
 30
0.0
 11
96.0457705440719138
 21
140.8536586541999895
 31
0.0
  0
LINE
  5
44B
  8
2
 10
100.0457705440718996
 20
139.8536586541999895
 30
0.0
 11
100.0457705440718996
 21
140.8536586541999895
 31
0.0
  0
LINE
  5
44C
  8
2
 10
96.0457705440719138
 20
140.8536586541999895
 30
0.0
 11
96.0457705440719138
 21
139.8536586541999895
 31
0.0
  0
LINE
  5
44D
  8
2
 10
96.0457705440719138
 20
139.8536586541999895
 30
0.0
 11
93.5457705440719138
 21
139.8536586541999895
 31
0.0
  0
LINE
  5
44E
  8
2
 10
101.8323355440718956
 20
133.467093654199914
 30
0.0
 11
89.0592055440719292
 21
133.467093654199914
 31
0.0
  0
LINE
  5
44F
  8
2
 10
102.4457705440719053
 20
132.8536586541999895
 30
0.0
 11
88.4457705440718911
 21
132.8536586541999895
 31
0.0
  0
LINE
  5
450
  8
2
 10
100.0457705440718996
 20
130.8536586541999895
 30
0.0
 11
96.0457705440719138
 21
130.8536586541999895
 31
0.0
  0
LINE
  5
451
  8
2
 10
102.1457705440718939
 20
131.8536586541999895
 30
0.0
 11
100.0457705440718996
 21
131.8536586541999895
 31
0.0
  0
LINE
  5
452
  8
2
 10
100.0457705440718996
 20
131.8536586541999895
 30
0.0
 11
100.0457705440718996
 21
130.8536586541999895
 31
0.0
  0
LINE
  5
453
  8
2
 10
93.5457705440718996
 20
86.8536586541999895
 30
0.0
 11
93.5457705440718996
 21
85.8536586542000038
 31
0.0
  0
LINE
  5
454
  8
2
 10
93.5457705440718996
 20
85.8536586542000038
 30
0.0
 11
89.3117955440719129
 21
85.8536586542000038
 31
0.0
  0
LINE
  5
455
  8
2
 10
89.059205544071915
 20
88.4670936541999708
 30
0.0
 11
88.4457705440718769
 21
87.8536586541999895
 31
0.0
  0
LINE
  5
456
  8
2
 10
88.4457705440718769
 20
87.8536586541999895
 30
0.0
 11
89.059205544071915
 21
88.4670936541999708
 31
0.0
  0
LINE
  5
457
  8
2
 10
88.4457705440718769
 20
87.3536586541999753
 30
0.0
 11
89.3117955440719129
 21
85.8536586542000038
 31
0.0
  0
LINE
  5
458
  8
2
 10
88.4457705440718769
 20
87.3536586541999753
 30
0.0
 11
87.6457705440719224
 21
87.3536586541999753
 31
0.0
  0
LINE
  5
459
  8
2
 10
88.4457705440718769
 20
94.3536586541999895
 30
0.0
 11
87.6457705440719224
 21
94.3536586541999895
 31
0.0
  0
LINE
  5
45A
  8
2
 10
88.4457705440718769
 20
93.8536586541999753
 30
0.0
 11
89.059205544071915
 21
93.2402236542000082
 31
0.0
  0
LINE
  5
45B
  8
2
 10
88.4457705440718769
 20
87.3536586542000038
 30
0.0
 11
88.4457705440718769
 21
94.3536586541999895
 31
0.0
  0
LINE
  5
45C
  8
2
 10
89.059205544071915
 20
93.2402236542000082
 30
0.0
 11
89.059205544071915
 21
88.4670936541999708
 31
0.0
  0
LINE
  5
45D
  8
2
 10
88.4457705440718769
 20
94.3536586541999895
 30
0.0
 11
89.3117955440719129
 21
95.8536586542000038
 31
0.0
  0
LINE
  5
45E
  8
2
 10
93.5457705440718996
 20
95.8536586542000038
 30
0.0
 11
89.3117955440719129
 21
95.8536586542000038
 31
0.0
  0
LINE
  5
45F
  8
2
 10
93.5457705440718996
 20
94.8536586541999753
 30
0.0
 11
93.5457705440718996
 21
95.8536586542000038
 31
0.0
  0
LINE
  5
460
  8
2
 10
96.0457705440718996
 20
94.8536586541999753
 30
0.0
 11
93.5457705440718996
 21
94.8536586541999753
 31
0.0
  0
LINE
  5
461
  8
2
 10
96.0457705440718996
 20
95.8536586542000038
 30
0.0
 11
96.0457705440718996
 21
94.8536586541999753
 31
0.0
  0
LINE
  5
462
  8
2
 10
100.0457705440718996
 20
94.8536586541999753
 30
0.0
 11
100.0457705440718996
 21
95.8536586542000038
 31
0.0
  0
LINE
  5
463
  8
2
 10
100.0457705440718996
 20
95.8536586542000038
 30
0.0
 11
96.0457705440718996
 21
95.8536586542000038
 31
0.0
  0
LINE
  5
464
  8
2
 10
102.4457705440718058
 20
93.8536586541999753
 30
0.0
 11
101.8323355440718956
 21
93.2402236542000082
 31
0.0
  0
LINE
  5
465
  8
2
 10
102.1457705440718939
 20
94.8536586541999753
 30
0.0
 11
100.0457705440718996
 21
94.8536586541999753
 31
0.0
  0
LINE
  5
466
  8
2
 10
102.4457705440718058
 20
93.8536586541999753
 30
0.0
 11
88.4457705440718769
 21
93.8536586541999753
 31
0.0
  0
LINE
  5
467
  8
2
 10
101.8323355440718956
 20
93.2402236542000082
 30
0.0
 11
89.059205544071915
 21
93.2402236542000082
 31
0.0
  0
LINE
  5
468
  8
2
 10
101.8323355440718956
 20
93.2402236542000082
 30
0.0
 11
101.8323355440718956
 21
88.4670936541999708
 31
0.0
  0
LINE
  5
469
  8
2
 10
101.8323355440718956
 20
88.4670936541999708
 30
0.0
 11
102.4457705440718058
 21
87.8536586541999895
 31
0.0
  0
LINE
  5
46A
  8
2
 10
96.0457705440718996
 20
86.8536586541999895
 30
0.0
 11
93.5457705440718996
 21
86.8536586541999895
 31
0.0
  0
LINE
  5
46B
  8
2
 10
96.0457705440718996
 20
85.8536586542000038
 30
0.0
 11
96.0457705440718996
 21
86.8536586541999895
 31
0.0
  0
LINE
  5
46C
  8
2
 10
100.0457705440718996
 20
86.8536586541999895
 30
0.0
 11
100.0457705440718996
 21
85.8536586542000038
 31
0.0
  0
LINE
  5
46D
  8
2
 10
102.1457705440718939
 20
86.8536586541999895
 30
0.0
 11
100.0457705440718996
 21
86.8536586541999895
 31
0.0
  0
LINE
  5
46E
  8
2
 10
100.0457705440718996
 20
85.8536586542000038
 30
0.0
 11
96.0457705440718996
 21
85.8536586542000038
 31
0.0
  0
LINE
  5
46F
  8
2
 10
102.4457705440718058
 20
87.8536586541999895
 30
0.0
 11
88.4457705440718769
 21
87.8536586541999895
 31
0.0
  0
LINE
  5
470
  8
2
 10
101.8323355440718956
 20
88.4670936541999708
 30
0.0
 11
89.059205544071915
 21
88.4670936541999708
 31
0.0
  0
LINE
  5
487
  8
1
 10
104.9457705440719053
 20
45.8536586541999895
 30
0.0
 11
80.9457705440718769
 21
45.8536586541999966
 31
0.0
  0
LINE
  5
488
  8
0
 10
94.4457705440718485
 20
37.8536586541999895
 30
0.0
 11
101.1457705440718939
 21
37.8536586541999895
 31
0.0
  0
LINE
  5
489
  8
0
 10
102.1457705440717945
 20
49.8536586541999895
 30
0.0
 11
102.4457705440718058
 21
49.8536586541999895
 31
0.0
  0
LINE
  5
48A
  8
0
 10
102.1457705440717945
 20
52.8536586541999895
 30
0.0
 11
102.1457705440717945
 21
38.8536586541999895
 31
0.0
  0
LINE
  5
48B
  8
0
 10
94.4457705440718769
 20
53.8536586541999895
 30
0.0
 11
101.1457705440718939
 21
53.8536586541999895
 31
0.0
  0
LINE
  5
48E
  8
0
 10
101.1457705440718939
 20
37.8536586541999895
 30
0.0
 11
102.1457705440717945
 21
38.8536586541999895
 31
0.0
  0
LINE
  5
48F
  8
0
 10
102.1457705440717945
 20
52.8536586541999895
 30
0.0
 11
101.1457705440718939
 21
53.8536586541999895
 31
0.0
  0
LINE
  5
492
  8
0
 10
101.1457705440718939
 20
53.8536586541999895
 30
0.0
 11
101.1457705440718939
 21
37.8536586541999895
 31
0.0
  0
LINE
  5
495
  8
0
 10
102.4457705440718058
 20
41.8536586541999824
 30
0.0
 11
102.1457705440717945
 21
41.8536586541999824
 31
0.0
  0
LINE
  5
497
  8
0
 10
102.4457705440718058
 20
41.8536586541999824
 30
0.0
 11
102.4457705440718058
 21
49.8536586541999895
 31
0.0
  0
LINE
  5
576
  8
1
 10
104.9457705440719053
 20
135.8536586541999895
 30
0.0
 11
80.9457705440718769
 21
135.8536586541999895
 31
0.0
  0
LINE
  5
577
  8
0
 10
94.4457705440718627
 20
127.8536586542000038
 30
0.0
 11
101.1457705440718939
 21
127.8536586542000038
 31
0.0
  0
LINE
  5
578
  8
0
 10
102.1457705440718939
 20
139.8536586541999895
 30
0.0
 11
102.4457705440719053
 21
139.8536586541999895
 31
0.0
  0
LINE
  5
579
  8
0
 10
102.1457705440718939
 20
142.8536586541999895
 30
0.0
 11
102.1457705440718939
 21
128.8536586541999895
 31
0.0
  0
LINE
  5
57A
  8
0
 10
94.4457705440718769
 20
143.8536586541999895
 30
0.0
 11
101.1457705440718939
 21
143.8536586541999895
 31
0.0
  0
LINE
  5
57D
  8
0
 10
101.1457705440718939
 20
127.8536586542000038
 30
0.0
 11
102.1457705440718939
 21
128.8536586541999895
 31
0.0
  0
LINE
  5
57E
  8
0
 10
102.1457705440718939
 20
142.8536586541999895
 30
0.0
 11
101.1457705440718939
 21
143.8536586541999895
 31
0.0
  0
LINE
  5
581
  8
0
 10
101.1457705440718939
 20
143.8536586541999895
 30
0.0
 11
101.1457705440718939
 21
127.8536586542000038
 31
0.0
  0
LINE
  5
584
  8
0
 10
102.4457705440719053
 20
131.8536586541999895
 30
0.0
 11
102.1457705440718939
 21
131.8536586541999895
 31
0.0
  0
LINE
  5
586
  8
0
 10
102.4457705440719053
 20
131.8536586541999895
 30
0.0
 11
102.4457705440719053
 21
139.8536586541999895
 31
0.0
  0
LINE
  5
75A
  8
0
 10
102.4457705440718058
 20
86.8536586541999895
 30
0.0
 11
102.4457705440718058
 21
94.8536586541999753
 31
0.0
  0
LINE
  5
75C
  8
0
 10
102.4457705440718058
 20
86.8536586541999895
 30
0.0
 11
102.1457705440717945
 21
86.8536586541999895
 31
0.0
  0
LINE
  5
763
  8
0
 10
101.1457705440718939
 20
98.8536586541999753
 30
0.0
 11
101.1457705440718939
 21
82.8536586541999895
 31
0.0
  0
LINE
  5
766
  8
0
 10
102.1457705440717945
 20
97.8536586541999895
 30
0.0
 11
101.1457705440718939
 21
98.8536586541999753
 31
0.0
  0
LINE
  5
767
  8
0
 10
101.1457705440718939
 20
82.8536586541999895
 30
0.0
 11
102.1457705440717945
 21
83.8536586541999753
 31
0.0
  0
LINE
  5
76A
  8
0
 10
94.4457705440718769
 20
98.8536586541999753
 30
0.0
 11
101.1457705440718939
 21
98.8536586541999753
 31
0.0
  0
LINE
  5
76B
  8
0
 10
102.1457705440717945
 20
97.8536586541999895
 30
0.0
 11
102.1457705440717945
 21
83.8536586541999753
 31
0.0
  0
LINE
  5
76C
  8
0
 10
102.1457705440717945
 20
94.8536586541999753
 30
0.0
 11
102.4457705440718058
 21
94.8536586541999753
 31
0.0
  0
LINE
  5
76D
  8
0
 10
94.4457705440718485
 20
82.8536586541999895
 30
0.0
 11
101.1457705440718939
 21
82.8536586541999895
 31
0.0
  0
LINE
  5
76E
  8
1
 10
104.9457705440719053
 20
90.8536586542000038
 30
0.0
 11
80.9457705440718769
 21
90.8536586542000038
 31
0.0
  0
LINE
  5
775
  8
2
 10
93.5457705440719138
 20
130.8536586541999895
 30
0.0
 11
93.5457705440719138
 21
131.8536586541999895
 31
0.0
  0
TEXT
  5
829
  8
0
 62
     3
 10
0.0
 20
0.0
 30
0.0
 40
10.0
  1
FTK25TA
  7
STANDARD1
  0
CIRCLE
  5
EC3
  8
0
 10
41.0000000000000284
 20
90.8536586542000748
 30
0.0
 40
10.25
  0
CIRCLE
  5
EC4
  8
0
 10
41.0000000000000284
 20
90.8536586542000748
 30
0.0
 40
12.0
  0
CIRCLE
  5
EC5
  8
0
 10
41.0000000000000284
 20
90.8536586542000748
 30
0.0
 40
13.0
  0
LINE
  5
EC6
  8
1
 10
41.0
 20
75.8536586542000748
 30
0.0
 11
41.0000000000000284
 21
105.8536586542001032
 31
0.0
  0
LINE
  5
EC7
  8
1
 10
55.9999999999999716
 20
90.8536586542000748
 30
0.0
 11
26.0000000000000817
 21
90.8536586542000748
 31
0.0
  0
CIRCLE
  5
EC8
  8
0
 10
41.0000000000000284
 20
90.8536586542000748
 30
0.0
 40
7.5
  0
ARC
  5
EC9
  8
0
 10
41.0000000000000284
 20
104.8036586542002055
 30
0.0
 40
1.3
 50
228.8057831229517092
 51
311.1942168770482908
  0
ARC
  5
ECA
  8
0
 10
46.3384338814930672
 20
103.7417781327327049
 30
0.0
 40
1.3
 50
206.3057831229523913
 51
288.694216877048575
  0
ARC
  5
ECB
  8
0
 10
35.6615661185069612
 20
103.7417781327327049
 30
0.0
 40
1.3
 50
251.3057831229513113
 51
333.6942168770481771
  0
ARC
  5
ECC
  8
0
 10
31.1358604024475802
 20
100.7177982517524981
 30
0.0
 40
1.3
 50
273.8057831229505155
 51
356.1942168770494845
  0
ARC
  5
ECD
  8
0
 10
28.111880521467441
 20
96.1920925356931633
 30
0.0
 40
1.3
 50
296.3057831229507997
 51
18.6942168770491506
  0
ARC
  5
ECE
  8
0
 10
27.0499999999998693
 20
90.8536586542001174
 30
0.0
 40
1.3
 50
318.8057831229504018
 51
41.1942168770477224
  0
ARC
  5
ECF
  8
0
 10
28.111880521467441
 20
85.5152247727070431
 30
0.0
 40
1.3
 50
341.3057831229492081
 51
63.6942168770509483
  0
ARC
  5
ED0
  8
0
 10
31.1358604024475802
 20
80.9895190566475947
 30
0.0
 40
1.3
 50
3.8057831229517189
 51
86.1942168770478219
  0
ARC
  5
ED1
  8
0
 10
35.6615661185069612
 20
77.9655391756674732
 30
0.0
 40
1.3
 50
26.3760494411040014
 51
108.6942168770486035
  0
ARC
  5
ED2
  8
0
 10
41.0
 20
76.9036586541999299
 30
0.0
 40
1.3
 50
48.8057831229516665
 51
131.1942168770482908
  0
ARC
  5
ED3
  8
0
 10
46.3384338814930388
 20
77.9655391756674732
 30
0.0
 40
1.3
 50
71.3057831229496628
 51
153.6942168770497972
  0
ARC
  5
ED4
  8
0
 10
50.8641395975524517
 20
80.9895190566476373
 30
0.0
 40
1.3
 50
93.8057831229489238
 51
176.1942168770507067
  0
ARC
  5
ED5
  8
0
 10
53.888119478532623
 20
85.5152247727070431
 30
0.0
 40
1.3
 50
116.3057831229526045
 51
198.6942168770480919
  0
ARC
  5
ED6
  8
0
 10
54.9500000000001805
 20
90.8536586542000748
 30
0.0
 40
1.3
 50
138.8057831229504018
 51
221.194216877047694
  0
ARC
  5
ED7
  8
0
 10
50.8641395975524802
 20
100.7177982517524981
 30
0.0
 40
1.3
 50
183.8057831229519934
 51
266.1942168770477792
  0
ARC
  5
ED8
  8
0
 10
53.888119478532623
 20
96.1920925356931917
 30
0.0
 40
1.3
 50
161.3057831229521923
 51
243.6942168770474098
  0
CIRCLE
  5
ED9
  8
0
 10
146.0
 20
90.8536586542000038
 30
0.0
 40
13.0
  0
LINE
  5
EDA
  8
1
 10
146.0
 20
75.8536586541999895
 30
0.0
 11
146.0
 21
105.8536586542000038
 31
0.0
  0
LINE
  5
EDB
  8
1
 10
161.0
 20
90.8536586542000038
 30
0.0
 11
131.0000000000001137
 21
90.8536586542000038
 31
0.0
  0
CIRCLE
  5
EDC
  8
0
 10
146.0
 20
90.8536586542000038
 30
0.0
 40
11.9999999999997708
  0
CIRCLE
  5
EDD
  8
0
 10
146.0
 20
90.8536586542000038
 30
0.0
 40
8.0
  0
CIRCLE
  5
EDE
  8
0
 10
146.0
 20
90.8536586542000038
 30
0.0
 40
7.0000000000000142
  0
CIRCLE
  5
EDF
  8
0
 10
146.0
 20
90.8536586542000038
 30
0.0
 40
4.0
  0
CIRCLE
  5
EE0
  8
3
 10
146.0
 20
90.8536586542000038
 30
0.0
 40
2.5
  0
CIRCLE
  5
EE1
  8
0
 10
146.0
 20
90.8536586542000038
 30
0.0
 40
3.0
  0
LINE
  5
EE5
  8
0
 10
94.4457705440718769
 20
102.8536586541997053
 30
0.0
 11
94.4457705440718769
 21
78.8536586541997906
 31
0.0
  0
LINE
  5
EE6
  8
0
 10
93.4457705440721043
 20
77.8536586541999895
 30
0.0
 11
94.4457705440721043
 21
78.8536586541999753
 31
0.0
  0
LINE
  5
EE7
  8
0
 10
94.4457705440716495
 20
102.8536586542000038
 30
0.0
 11
93.4457705440716637
 21
103.8536586542000038
 31
0.0
  0
LINE
  5
EE8
  8
0
 10
83.4457705440716637
 20
102.8536586542000038
 30
0.0
 11
83.9449776109681807
 21
103.3528657210965065
 31
0.0
  0
LINE
  5
EE9
  8
0
 10
93.4457705440718769
 20
103.8536586541997053
 30
0.0
 11
93.4457705440718769
 21
77.8536586541997622
 31
0.0
  0
LINE
  5
EEA
  8
0
 10
84.4457705440716495
 20
103.824383561263204
 30
0.0
 11
84.4457705440716495
 21
103.1656679552203002
 31
0.0
  0
LINE
  5
EEB
  8
2
 10
87.6457705440718655
 20
98.3536586542000038
 30
0.0
 11
87.6457705440718655
 21
83.3536586541999611
 31
0.0
  0
LINE
  5
EEC
  8
2
 10
87.6457705440718655
 20
83.3536586541999611
 30
0.0
 11
87.1457705440718655
 21
83.3536586541999611
 31
0.0
  0
LINE
  5
EED
  8
2
 10
87.1457705440718655
 20
83.3536586541999611
 30
0.0
 11
87.1457705440718655
 21
98.3536586542000038
 31
0.0
  0
LINE
  5
EEE
  8
2
 10
83.4457705440718769
 20
80.6036586541999895
 30
0.0
 11
87.1457705440718655
 21
83.3536586541999611
 31
0.0
  0
LINE
  5
EEF
  8
0
 10
83.4457705440718769
 20
78.8536586542002169
 30
0.0
 11
83.4457705440718769
 21
102.8536586542002027
 31
0.0
  0
LINE
  5
EF0
  8
0
 10
84.4457705440719337
 20
103.1656679552203002
 30
0.0
 11
92.9457705440705126
 21
103.1656679552203002
 31
0.0
  0
LINE
  5
EF1
  8
0
 10
84.4457705440719337
 20
102.5103627087346041
 30
0.0
 11
92.9457705440705126
 21
102.5103627087346041
 31
0.0
  0
LINE
  5
EF2
  8
0
 10
84.4457705440718769
 20
100.6315112552540967
 30
0.0
 11
92.9457705440704558
 21
100.6315112552540967
 31
0.0
  0
LINE
  5
EF3
  8
0
 10
84.4457705440718769
 20
99.4206650457033447
 30
0.0
 11
92.9457705440704558
 21
99.4206650457033447
 31
0.0
  0
LINE
  5
EF4
  8
0
 10
84.4457705440718769
 20
96.6087651332320547
 30
0.0
 11
92.945770544070399
 21
96.6087651332320263
 31
0.0
  0
LINE
  5
EF5
  8
0
 10
84.4457705440718769
 20
95.0267183196719998
 30
0.0
 11
92.945770544070399
 21
95.0267183196719998
 31
0.0
  0
LINE
  5
EF6
  8
0
 10
84.4457705440718769
 20
91.7098562199473548
 30
0.0
 11
92.9457705440704558
 21
91.7098562199473406
 31
0.0
  0
ARC
  5
EF7
  8
0
 10
92.4626977132458592
 20
90.8536586542001601
 30
0.0
 40
0.9830735636117521
 50
299.4320041558199819
 51
60.56799584428272
  0
POLYLINE
  5
EF8
  8
0
 66
     1
 10
0.0
 20
0.0
 30
0.0
  0
VERTEX
  5
EF9
  8
0
 10
92.945770544070399
 20
95.0267183196719998
 30
0.0
 42
0.126904853429963
 50
180.0
  0
VERTEX
  5
EFA
  8
0
 10
93.129206483146902
 20
95.0740382211246242
 30
0.0
 42
0.1060810122797594
 50
180.0
  0
VERTEX
  5
EFB
  8
0
 10
93.2993239346646845
 20
95.222130333705536
 30
0.0
 42
0.085744797149215
 70
     2
 50
53.1512003829412834
  0
VERTEX
  5
EFC
  8
0
 10
93.4168808816150857
 20
95.4523802820071836
 30
0.0
 42
0.0912209683726037
 50
53.1512003829412834
  0
VERTEX
  5
EFD
  8
0
 10
93.4457705440708537
 20
95.6938966682358512
 30
0.0
 42
0.0753899821444356
 50
180.0
  0
SEQEND
  5
EFE
  8
0
  0
POLYLINE
  5
EFF
  8
0
 66
     1
 10
0.0
 20
0.0
 30
0.0
  0
VERTEX
  5
F00
  8
0
 10
93.4457705440686368
 20
95.6938966682358654
 30
0.0
 42
0.0558453538950165
 50
180.0
  0
VERTEX
  5
F01
  8
0
 10
93.4045966250457553
 20
96.0613892787449117
 30
0.0
 42
0.0696234494827605
 50
180.0
  0
VERTEX
  5
F02
  8
0
 10
93.299323934662425
 20
96.3392380716884418
 30
0.0
 42
0.1059514344510999
 70
     2
 50
118.7163432381360053
  0
VERTEX
  5
F03
  8
0
 10
93.1185415384246653
 20
96.5485852055252138
 30
0.0
 42
0.1511721533581169
 50
118.7163432381360053
  0
VERTEX
  5
F04
  8
0
 10
92.945770544070399
 20
96.6087651332320263
 30
0.0
 42
0.1632707906765776
 50
180.0
  0
SEQEND
  5
F05
  8
0
  0
POLYLINE
  5
F06
  8
0
 66
     1
 10
0.0
 20
0.0
 30
0.0
  0
VERTEX
  5
F07
  8
0
 10
92.9457705440704558
 20
99.4206650457033447
 30
0.0
 42
0.0759738029860677
 50
180.0
  0
VERTEX
  5
F08
  8
0
 10
93.1427813920672492
 20
99.450774162795085
 30
0.0
 42
0.0861489681664724
 50
180.0
  0
VERTEX
  5
F09
  8
0
 10
93.2993239346646845
 20
99.5313164703017463
 30
0.0
 42
0.1059611842089019
 70
     2
 50
37.0737894260680889
  0
VERTEX
  5
F0A
  8
0
 10
93.4182908960991085
 20
99.6689996206927447
 30
0.0
 42
0.1471982240755334
 50
37.0737894260680889
  0
VERTEX
  5
F0B
  8
0
 10
93.4457705440717064
 20
99.7984526402631218
 30
0.0
 42
0.1260278403512851
 50
180.0
  0
SEQEND
  5
F0C
  8
0
  0
POLYLINE
  5
F0D
  8
0
 66
     1
 10
0.0
 20
0.0
 30
0.0
  0
VERTEX
  5
F0E
  8
0
 10
93.4457705440718769
 20
99.7984526402631644
 30
0.0
 42
0.061112938037691
 50
180.0
  0
VERTEX
  5
F0F
  8
0
 10
93.4049141140280312
 20
100.1314741011483989
 30
0.0
 42
0.0744665224447995
 50
180.0
  0
VERTEX
  5
F10
  8
0
 10
93.2993239346646845
 20
100.3863137172876066
 30
0.0
 42
0.1069586370034828
 70
     2
 50
121.0236844281015038
  0
VERTEX
  5
F11
  8
0
 10
93.121897375440156
 20
100.5750304559541064
 30
0.0
 42
0.1427675426463582
 50
121.0236844281015038
  0
VERTEX
  5
F12
  8
0
 10
92.9457705440704558
 20
100.6315112552540967
 30
0.0
 42
0.1519322921768134
 50
180.0
  0
SEQEND
  5
F13
  8
0
  0
POLYLINE
  5
F14
  8
0
 66
     1
 10
0.0
 20
0.0
 30
0.0
  0
VERTEX
  5
F15
  8
0
 10
92.9457705440705126
 20
102.5103627087346041
 30
0.0
 42
0.0063945854363995
 50
180.0
  0
VERTEX
  5
F16
  8
0
 10
93.1527956338436951
 20
102.5130104962525053
 30
0.0
 42
0.0090272087772587
 50
180.0
  0
VERTEX
  5
F17
  8
0
 10
93.2993239346647556
 20
102.5194078675603038
 30
0.0
 42
0.021587231382142
 70
     2
 50
3.5343387134001181
  0
VERTEX
  5
F18
  8
0
 10
93.4417381415378969
 20
102.5343954769115982
 30
0.0
 50
3.5343387134001181
  0
VERTEX
  5
F19
  8
0
 10
93.4457705440717064
 20
102.5412448126717067
 30
0.0
 50
180.0
  0
SEQEND
  5
F1A
  8
0
  0
POLYLINE
  5
F1B
  8
0
 66
     1
 10
0.0
 20
0.0
 30
0.0
  0
VERTEX
  5
F1C
  8
0
 10
93.4457705440719337
 20
102.5412448126717067
 30
0.0
 42
0.0803470550416908
 50
180.0
  0
VERTEX
  5
F1D
  8
0
 10
93.4062459909888645
 20
102.7856184017913961
 30
0.0
 42
0.0890368192332178
 50
180.0
  0
VERTEX
  5
F1E
  8
0
 10
93.2993239346648124
 20
102.982129043264905
 30
0.0
 42
0.1049083465716828
 70
     2
 50
128.7267845612261965
  0
VERTEX
  5
F1F
  8
0
 10
93.1312465692012239
 20
103.1196763274407004
 30
0.0
 42
0.1149585868589446
 50
128.7267845612261965
  0
VERTEX
  5
F20
  8
0
 10
92.9457705440705126
 20
103.1656679552203002
 30
0.0
 42
0.119763324839129
 50
180.0
  0
SEQEND
  5
F21
  8
0
  0
POLYLINE
  5
F22
  8
0
 66
     1
 10
0.0
 20
0.0
 30
0.0
  0
VERTEX
  5
F23
  8
0
 10
83.9457705440705126
 20
102.5412448126717067
 30
0.0
 42
-0.0803470550416908
 50
180.0
  0
VERTEX
  5
F24
  8
0
 10
83.9852950971535961
 20
102.7856184017913961
 30
0.0
 42
-0.0890368192332178
 50
180.0
  0
VERTEX
  5
F25
  8
0
 10
84.0922171534776339
 20
102.982129043264905
 30
0.0
 42
-0.1049083465716828
 70
     2
 50
51.2732154387738603
  0
VERTEX
  5
F26
  8
0
 10
84.2602945189411798
 20
103.1196763274407004
 30
0.0
 42
-0.1149585868589616
 50
180.0
  0
VERTEX
  5
F27
  8
0
 10
84.4457705440719337
 20
103.1656679552203002
 30
0.0
 42
-0.119763324839129
 50
180.0
  0
SEQEND
  5
F28
  8
0
  0
POLYLINE
  5
F29
  8
0
 66
     1
 10
0.0
 20
0.0
 30
0.0
  0
VERTEX
  5
F2A
  8
0
 10
84.4457705440719337
 20
102.5103627087346041
 30
0.0
 42
-0.0063945854363995
 50
180.0
  0
VERTEX
  5
F2B
  8
0
 10
84.2387454542987371
 20
102.5130104962525053
 30
0.0
 42
-0.0090272087772587
 50
180.0
  0
VERTEX
  5
F2C
  8
0
 10
84.0922171534776908
 20
102.5194078675603038
 30
0.0
 42
-0.021587231382142
 70
     2
 50
176.4656612865998966
  0
VERTEX
  5
F2D
  8
0
 10
83.9498029466045068
 20
102.5343954769115982
 30
0.0
 50
180.0
  0
VERTEX
  5
F2E
  8
0
 10
83.94577054407074
 20
102.5412448126717067
 30
0.0
 50
180.0
  0
SEQEND
  5
F2F
  8
0
  0
POLYLINE
  5
F30
  8
0
 66
     1
 10
0.0
 20
0.0
 30
0.0
  0
VERTEX
  5
F31
  8
0
 10
83.9457705440704558
 20
99.7984526402631644
 30
0.0
 42
-0.061112938037691
 50
180.0
  0
VERTEX
  5
F32
  8
0
 10
83.9866269741142446
 20
100.1314741011483989
 30
0.0
 42
-0.0744665224447995
 50
180.0
  0
VERTEX
  5
F33
  8
0
 10
84.0922171534775771
 20
100.3863137172876066
 30
0.0
 42
-0.1069586370034828
 70
     2
 50
58.9763155718985317
  0
VERTEX
  5
F34
  8
0
 10
84.2696437127021341
 20
100.5750304559541064
 30
0.0
 42
-0.1427675426463604
 50
180.0
  0
VERTEX
  5
F35
  8
0
 10
84.4457705440718769
 20
100.6315112552540967
 30
0.0
 42
-0.1519322921768134
 50
180.0
  0
SEQEND
  5
F36
  8
0
  0
POLYLINE
  5
F37
  8
0
 66
     1
 10
0.0
 20
0.0
 30
0.0
  0
VERTEX
  5
F38
  8
0
 10
84.4457705440718769
 20
99.4206650457033447
 30
0.0
 42
-0.0759738029860677
 50
180.0
  0
VERTEX
  5
F39
  8
0
 10
84.2487596960750693
 20
99.450774162795085
 30
0.0
 42
-0.0861489681664724
 50
180.0
  0
VERTEX
  5
F3A
  8
0
 10
84.0922171534776339
 20
99.5313164703017463
 30
0.0
 42
-0.1059611842089019
 70
     2
 50
142.9262105739319111
  0
VERTEX
  5
F3B
  8
0
 10
83.9732501920432242
 20
99.6689996206927447
 30
0.0
 42
-0.1471982240755334
 50
180.0
  0
VERTEX
  5
F3C
  8
0
 10
83.9457705440706263
 20
99.7984526402631218
 30
0.0
 42
-0.1260278403512851
 50
180.0
  0
SEQEND
  5
F3D
  8
0
  0
POLYLINE
  5
F3E
  8
0
 66
     1
 10
0.0
 20
0.0
 30
0.0
  0
VERTEX
  5
F3F
  8
0
 10
83.9457705440736959
 20
95.6938966682358654
 30
0.0
 42
-0.0558453538950165
 50
180.0
  0
VERTEX
  5
F40
  8
0
 10
83.9869444630965063
 20
96.0613892787449117
 30
0.0
 42
-0.0696234494827605
 50
180.0
  0
VERTEX
  5
F41
  8
0
 10
84.0922171534798508
 20
96.3392380716884418
 30
0.0
 42
-0.1059514344510999
 70
     2
 50
61.2836567618640089
  0
VERTEX
  5
F42
  8
0
 10
84.2729995497176105
 20
96.5485852055252138
 30
0.0
 42
-0.1511721533580949
 50
180.0
  0
VERTEX
  5
F43
  8
0
 10
84.4457705440718769
 20
96.6087651332320263
 30
0.0
 42
-0.1632707906765776
 50
180.0
  0
SEQEND
  5
F44
  8
0
  0
POLYLINE
  5
F45
  8
0
 66
     1
 10
0.0
 20
0.0
 30
0.0
  0
VERTEX
  5
F46
  8
0
 10
84.4457705440718769
 20
95.0267183196719998
 30
0.0
 42
-0.126904853429963
 50
180.0
  0
VERTEX
  5
F47
  8
0
 10
84.2623346049953739
 20
95.0740382211246242
 30
0.0
 42
-0.1060810122797594
 50
180.0
  0
VERTEX
  5
F48
  8
0
 10
84.0922171534775771
 20
95.222130333705536
 30
0.0
 42
-0.085744797149215
 70
     2
 50
126.8487996170587024
  0
VERTEX
  5
F49
  8
0
 10
83.9746602065271759
 20
95.4523802820071836
 30
0.0
 42
-0.0912209683726037
 50
180.0
  0
VERTEX
  5
F4A
  8
0
 10
83.9457705440714079
 20
95.6938966682358512
 30
0.0
 42
-0.0753899821444356
 50
180.0
  0
SEQEND
  5
F4B
  8
0
  0
ARC
  5
F4C
  8
0
 10
84.9288433748953935
 20
90.8536586541999611
 30
0.0
 40
0.9830735636114077
 50
119.4320041556555054
 51
240.5679958443444093
  0
LINE
  5
F4D
  8
0
 10
84.4457705440718769
 20
95.0267183196719998
 30
0.0
 11
84.4457705440718769
 21
91.7086559011857076
 31
0.0
  0
LINE
  5
F4E
  8
0
 10
84.4457705440718769
 20
99.4206650457033163
 30
0.0
 11
84.4457705440718769
 21
96.6087651332320547
 31
0.0
  0
LINE
  5
F4F
  8
0
 10
84.4457705440719337
 20
102.5103627087346041
 30
0.0
 11
84.4457705440718769
 21
100.6315112552540967
 31
0.0
  0
LINE
  5
F50
  8
2
 10
83.4457705440718769
 20
101.1036586542000038
 30
0.0
 11
87.1457705440718655
 21
98.3536586542000038
 31
0.0
  0
LINE
  5
F51
  8
2
 10
87.6457705440718655
 20
98.3536586542000038
 30
0.0
 11
87.1457705440718655
 21
98.3536586542000038
 31
0.0
  0
LINE
  5
F52
  8
0
 10
84.4457705440716495
 20
103.824383561263204
 30
0.0
 11
92.9457705440663062
 21
103.824383561263204
 31
0.0
  0
POLYLINE
  5
F53
  8
0
 66
     1
 10
0.0
 20
0.0
 30
0.0
  0
VERTEX
  5
F54
  8
0
 10
83.9449776109640737
 20
103.3528657210923996
 30
0.0
 42
0.0932326856578775
 50
90.0
  0
VERTEX
  5
F55
  8
0
 10
84.1380093025641713
 20
103.3891750600319028
 30
0.0
 42
0.0961553825390117
 50
90.0
  0
VERTEX
  5
F56
  8
0
 10
84.2990916899347553
 20
103.4909700990280044
 30
0.0
 42
0.1005995558164784
 70
     2
 50
43.2754148837487875
  0
VERTEX
  5
F57
  8
0
 10
84.4081269094301661
 20
103.6453349274406008
 30
0.0
 42
0.1039846014298173
 50
43.2754148837487875
  0
VERTEX
  5
F58
  8
0
 10
84.4457705440716495
 20
103.824383561263204
 30
0.0
 42
0.1039846014297789
 50
90.0
  0
SEQEND
  5
F59
  8
0
  0
POLYLINE
  5
F5A
  8
0
 66
     1
 10
0.0
 20
0.0
 30
0.0
  0
VERTEX
  5
F5B
  8
0
 10
92.9457705440702853
 20
103.824383561263204
 30
0.0
 42
0.0060619562265407
 50
90.0
  0
VERTEX
  5
F5C
  8
0
 10
93.1528039033553341
 20
103.8268937078271961
 30
0.0
 42
0.008559181375748
 50
90.0
  0
VERTEX
  5
F5D
  8
0
 10
93.2993239346645282
 20
103.8329580374647065
 30
0.0
 42
0.0204875976357465
 70
     2
 50
3.3508529875824729
  0
VERTEX
  5
F5E
  8
0
 10
93.4419496808750978
 20
103.8471895304545995
 30
0.0
 50
3.3508529875824729
  0
VERTEX
  5
F5F
  8
0
 10
93.4457705440718769
 20
103.8536586542000038
 30
0.0
 50
90.0
  0
SEQEND
  5
F60
  8
0
  0
POLYLINE
  5
F61
  8
0
 66
     1
 10
0.0
 20
0.0
 30
0.0
  0
VERTEX
  5
F62
  8
0
 10
92.9457705440706832
 20
77.8829337471367751
 30
0.0
 42
-0.0060619562265407
 50
90.0
  0
VERTEX
  5
F63
  8
0
 10
93.1528039033557747
 20
77.8804236005726978
 30
0.0
 42
-0.008559181375748
 50
90.0
  0
VERTEX
  5
F64
  8
0
 10
93.2993239346649688
 20
77.8743592709352868
 30
0.0
 42
-0.0204875976357465
 70
     2
 50
356.6491470124175862
  0
VERTEX
  5
F65
  8
0
 10
93.4419496808754957
 20
77.8601277779453369
 30
0.0
 50
90.0
  0
VERTEX
  5
F66
  8
0
 10
93.4457705440723316
 20
77.8536586541999895
 30
0.0
 50
90.0
  0
SEQEND
  5
F67
  8
0
  0
POLYLINE
  5
F68
  8
0
 66
     1
 10
0.0
 20
0.0
 30
0.0
  0
VERTEX
  5
F69
  8
0
 10
83.9449776109644858
 20
78.3544515873075795
 30
0.0
 42
-0.0932326856578775
 50
90.0
  0
VERTEX
  5
F6A
  8
0
 10
84.1380093025646261
 20
78.3181422483680763
 30
0.0
 42
-0.0961553825390117
 50
90.0
  0
VERTEX
  5
F6B
  8
0
 10
84.2990916899352101
 20
78.2163472093719747
 30
0.0
 42
-0.1005995558164784
 70
     2
 50
316.7245851162513191
  0
VERTEX
  5
F6C
  8
0
 10
84.408126909430564
 20
78.0619823809593356
 30
0.0
 42
-0.1039846014298173
 50
90.0
  0
VERTEX
  5
F6D
  8
0
 10
84.4457705440721043
 20
77.8829337471367751
 30
0.0
 42
-0.1039846014297789
 50
90.0
  0
SEQEND
  5
F6E
  8
0
  0
LINE
  5
F6F
  8
0
 10
84.4457705440721043
 20
77.8829337471367751
 30
0.0
 11
92.945770544066761
 21
77.8829337471367751
 31
0.0
  0
LINE
  5
F70
  8
0
 10
84.4457705440718769
 20
79.1969545996653608
 30
0.0
 11
84.4457705440718769
 21
81.0758060531458113
 31
0.0
  0
LINE
  5
F71
  8
0
 10
84.4457705440718769
 20
82.2866522626966912
 30
0.0
 11
84.4457705440718769
 21
85.0985521751679528
 31
0.0
  0
LINE
  5
F72
  8
0
 10
84.4457705440718769
 20
86.6805989887280077
 30
0.0
 11
84.4457705440718769
 21
89.9974610884525532
 31
0.0
  0
POLYLINE
  5
F73
  8
0
 66
     1
 10
0.0
 20
0.0
 30
0.0
  0
VERTEX
  5
F74
  8
0
 10
84.4457705440718769
 20
86.6805989887280077
 30
0.0
 42
0.126904853429963
 50
90.0
  0
VERTEX
  5
F75
  8
0
 10
84.2623346049954449
 20
86.6332790872753833
 30
0.0
 42
0.1060810122797594
 50
90.0
  0
VERTEX
  5
F76
  8
0
 10
84.0922171534776339
 20
86.4851869746944573
 30
0.0
 42
0.085744797149215
 70
     2
 50
233.1512003829413118
  0
VERTEX
  5
F77
  8
0
 10
83.9746602065272754
 20
86.2549370263927955
 30
0.0
 42
0.0912209683726037
 50
90.0
  0
VERTEX
  5
F78
  8
0
 10
83.9457705440715358
 20
86.0134206401641563
 30
0.0
 42
0.0753899821444356
 50
90.0
  0
SEQEND
  5
F79
  8
0
  0
POLYLINE
  5
F7A
  8
0
 66
     1
 10
0.0
 20
0.0
 30
0.0
  0
VERTEX
  5
F7B
  8
0
 10
83.9457705440736959
 20
86.0134206401641137
 30
0.0
 42
0.0558453538950165
 50
90.0
  0
VERTEX
  5
F7C
  8
0
 10
83.9869444630965631
 20
85.6459280296550958
 30
0.0
 42
0.0696234494827605
 50
90.0
  0
VERTEX
  5
F7D
  8
0
 10
84.0922171534799077
 20
85.3680792367115657
 30
0.0
 42
0.1059514344510999
 70
     2
 50
298.7163432381360053
  0
VERTEX
  5
F7E
  8
0
 10
84.2729995497176674
 20
85.1587321028747937
 30
0.0
 42
0.1511721533578267
 50
90.0
  0
VERTEX
  5
F7F
  8
0
 10
84.4457705440718769
 20
85.0985521751679528
 30
0.0
 42
0.1632707906765776
 50
90.0
  0
SEQEND
  5
F80
  8
0
  0
POLYLINE
  5
F81
  8
0
 66
     1
 10
0.0
 20
0.0
 30
0.0
  0
VERTEX
  5
F82
  8
0
 10
84.4457705440719906
 20
82.2866522626966912
 30
0.0
 42
0.0759738029860677
 50
90.0
  0
VERTEX
  5
F83
  8
0
 10
84.2487596960751262
 20
82.256543145604951
 30
0.0
 42
0.0861489681664724
 50
90.0
  0
VERTEX
  5
F84
  8
0
 10
84.0922171534776908
 20
82.1760008380983038
 30
0.0
 42
0.1059611842089019
 70
     2
 50
217.0737894260680889
  0
VERTEX
  5
F85
  8
0
 10
83.9732501920432952
 20
82.0383176877072913
 30
0.0
 42
0.1471982240755334
 50
90.0
  0
VERTEX
  5
F86
  8
0
 10
83.94577054407074
 20
81.9088646681369141
 30
0.0
 42
0.1260278403512851
 50
90.0
  0
SEQEND
  5
F87
  8
0
  0
POLYLINE
  5
F88
  8
0
 66
     1
 10
0.0
 20
0.0
 30
0.0
  0
VERTEX
  5
F89
  8
0
 10
83.9457705440705126
 20
81.9088646681368857
 30
0.0
 42
0.061112938037691
 50
90.0
  0
VERTEX
  5
F8A
  8
0
 10
83.9866269741143583
 20
81.5758432072516371
 30
0.0
 42
0.0744665224447995
 50
90.0
  0
VERTEX
  5
F8B
  8
0
 10
84.0922171534776339
 20
81.3210035911124578
 30
0.0
 42
0.1069586370034828
 70
     2
 50
301.0236844281014896
  0
VERTEX
  5
F8C
  8
0
 10
84.2696437127022477
 20
81.1322868524459153
 30
0.0
 42
0.142767542645802
 50
90.0
  0
VERTEX
  5
F8D
  8
0
 10
84.4457705440718769
 20
81.0758060531458113
 30
0.0
 42
0.1519322921768134
 50
90.0
  0
SEQEND
  5
F8E
  8
0
  0
POLYLINE
  5
F8F
  8
0
 66
     1
 10
0.0
 20
0.0
 30
0.0
  0
VERTEX
  5
F90
  8
0
 10
84.4457705440718769
 20
79.1969545996653324
 30
0.0
 42
0.0063945854363995
 50
90.0
  0
VERTEX
  5
F91
  8
0
 10
84.2387454542986802
 20
79.1943068121474028
 30
0.0
 42
0.0090272087772587
 50
90.0
  0
VERTEX
  5
F92
  8
0
 10
84.0922171534776339
 20
79.1879094408396327
 30
0.0
 42
0.021587231382142
 70
     2
 50
183.5343387134001034
  0
VERTEX
  5
F93
  8
0
 10
83.9498029466045068
 20
79.1729218314883667
 30
0.0
 50
90.0
  0
VERTEX
  5
F94
  8
0
 10
83.9457705440706832
 20
79.1660724957282582
 30
0.0
 50
90.0
  0
SEQEND
  5
F95
  8
0
  0
POLYLINE
  5
F96
  8
0
 66
     1
 10
0.0
 20
0.0
 30
0.0
  0
VERTEX
  5
F97
  8
0
 10
83.9457705440704558
 20
79.1660724957282298
 30
0.0
 42
0.0803470550416908
 50
90.0
  0
VERTEX
  5
F98
  8
0
 10
83.9852950971535392
 20
78.9216989066085546
 30
0.0
 42
0.0890368192332178
 50
90.0
  0
VERTEX
  5
F99
  8
0
 10
84.0922171534776339
 20
78.7251882651350172
 30
0.0
 42
0.1049083465716828
 70
     2
 50
308.7267845612262249
  0
VERTEX
  5
F9A
  8
0
 10
84.2602945189411798
 20
78.5876409809591649
 30
0.0
 42
0.1149585868589762
 50
90.0
  0
VERTEX
  5
F9B
  8
0
 10
84.4457705440718769
 20
78.5416493531796505
 30
0.0
 42
0.119763324839129
 50
90.0
  0
SEQEND
  5
F9C
  8
0
  0
POLYLINE
  5
F9D
  8
0
 66
     1
 10
0.0
 20
0.0
 30
0.0
  0
VERTEX
  5
F9E
  8
0
 10
93.4457705440718769
 20
79.1660724957282298
 30
0.0
 42
-0.0803470550416908
 50
90.0
  0
VERTEX
  5
F9F
  8
0
 10
93.4062459909887792
 20
78.9216989066085546
 30
0.0
 42
-0.0890368192332178
 50
90.0
  0
VERTEX
  5
FA0
  8
0
 10
93.2993239346647556
 20
78.7251882651350172
 30
0.0
 42
-0.1049083465716828
 70
     2
 50
231.2732154387738035
  0
VERTEX
  5
FA1
  8
0
 10
93.1312465692012239
 20
78.5876409809591649
 30
0.0
 42
-0.1149585868589762
 50
90.0
  0
VERTEX
  5
FA2
  8
0
 10
92.9457705440704558
 20
78.5416493531796505
 30
0.0
 42
-0.119763324839129
 50
90.0
  0
SEQEND
  5
FA3
  8
0
  0
POLYLINE
  5
FA4
  8
0
 66
     1
 10
0.0
 20
0.0
 30
0.0
  0
VERTEX
  5
FA5
  8
0
 10
92.9457705440704558
 20
79.1969545996653324
 30
0.0
 42
-0.0063945854363995
 50
90.0
  0
VERTEX
  5
FA6
  8
0
 10
93.1527956338436525
 20
79.1943068121474028
 30
0.0
 42
-0.0090272087772587
 50
90.0
  0
VERTEX
  5
FA7
  8
0
 10
93.2993239346647556
 20
79.1879094408396327
 30
0.0
 42
-0.021587231382142
 70
     2
 50
356.465661286599925
  0
VERTEX
  5
FA8
  8
0
 10
93.4417381415378969
 20
79.1729218314883667
 30
0.0
 50
90.0
  0
VERTEX
  5
FA9
  8
0
 10
93.4457705440716637
 20
79.1660724957282582
 30
0.0
 50
90.0
  0
SEQEND
  5
FAA
  8
0
  0
POLYLINE
  5
FAB
  8
0
 66
     1
 10
0.0
 20
0.0
 30
0.0
  0
VERTEX
  5
FAC
  8
0
 10
93.4457705440719337
 20
81.9088646681368857
 30
0.0
 42
-0.061112938037691
 50
90.0
  0
VERTEX
  5
FAD
  8
0
 10
93.4049141140281449
 20
81.5758432072516371
 30
0.0
 42
-0.0744665224447995
 50
90.0
  0
VERTEX
  5
FAE
  8
0
 10
93.2993239346647556
 20
81.3210035911124578
 30
0.0
 42
-0.1069586370034828
 70
     2
 50
238.9763155718985104
  0
VERTEX
  5
FAF
  8
0
 10
93.1218973754402555
 20
81.1322868524459153
 30
0.0
 42
-0.1427675426460051
 50
90.0
  0
VERTEX
  5
FB0
  8
0
 10
92.945770544070399
 20
81.0758060531458113
 30
0.0
 42
-0.1519322921768134
 50
90.0
  0
SEQEND
  5
FB1
  8
0
  0
POLYLINE
  5
FB2
  8
0
 66
     1
 10
0.0
 20
0.0
 30
0.0
  0
VERTEX
  5
FB3
  8
0
 10
92.9457705440705126
 20
82.2866522626966912
 30
0.0
 42
-0.0759738029860677
 50
90.0
  0
VERTEX
  5
FB4
  8
0
 10
93.1427813920673344
 20
82.256543145604951
 30
0.0
 42
-0.0861489681664724
 50
90.0
  0
VERTEX
  5
FB5
  8
0
 10
93.2993239346647556
 20
82.1760008380983038
 30
0.0
 42
-0.1059611842089019
 70
     2
 50
322.9262105739318827
  0
VERTEX
  5
FB6
  8
0
 10
93.418290896099208
 20
82.0383176877072913
 30
0.0
 42
-0.1471982240755334
 50
90.0
  0
VERTEX
  5
FB7
  8
0
 10
93.4457705440717632
 20
81.9088646681369141
 30
0.0
 42
-0.1260278403512851
 50
90.0
  0
SEQEND
  5
FB8
  8
0
  0
POLYLINE
  5
FB9
  8
0
 66
     1
 10
0.0
 20
0.0
 30
0.0
  0
VERTEX
  5
FBA
  8
0
 10
93.4457705440686937
 20
86.0134206401641137
 30
0.0
 42
-0.0558453538950165
 50
90.0
  0
VERTEX
  5
FBB
  8
0
 10
93.4045966250458264
 20
85.6459280296550958
 30
0.0
 42
-0.0696234494827605
 50
90.0
  0
VERTEX
  5
FBC
  8
0
 10
93.2993239346624961
 20
85.3680792367115657
 30
0.0
 42
-0.1059514344510999
 70
     2
 50
241.2836567618641084
  0
VERTEX
  5
FBD
  8
0
 10
93.1185415384247364
 20
85.1587321028747937
 30
0.0
 42
-0.1511721533581735
 50
90.0
  0
VERTEX
  5
FBE
  8
0
 10
92.945770544070399
 20
85.0985521751679954
 30
0.0
 42
-0.1632707906765776
 50
90.0
  0
SEQEND
  5
FBF
  8
0
  0
POLYLINE
  5
FC0
  8
0
 66
     1
 10
0.0
 20
0.0
 30
0.0
  0
VERTEX
  5
FC1
  8
0
 10
92.9457705440705126
 20
86.6805989887280077
 30
0.0
 42
-0.126904853429963
 50
90.0
  0
VERTEX
  5
FC2
  8
0
 10
93.1292064831470157
 20
86.6332790872753833
 30
0.0
 42
-0.1060810122797594
 50
90.0
  0
VERTEX
  5
FC3
  8
0
 10
93.2993239346647556
 20
86.4851869746944573
 30
0.0
 42
-0.085744797149215
 70
     2
 50
306.8487996170587735
  0
VERTEX
  5
FC4
  8
0
 10
93.4168808816150857
 20
86.2549370263927955
 30
0.0
 42
-0.0912209683726037
 50
90.0
  0
VERTEX
  5
FC5
  8
0
 10
93.4457705440708537
 20
86.0134206401641563
 30
0.0
 42
-0.0753899821444356
 50
90.0
  0
SEQEND
  5
FC6
  8
0
  0
LINE
  5
FC7
  8
0
 10
84.4457705440714648
 20
89.9974610884527522
 30
0.0
 11
92.9457705440700437
 21
89.9974610884527664
 31
0.0
  0
LINE
  5
FC8
  8
0
 10
84.4457705440718769
 20
86.6805989887280077
 30
0.0
 11
92.9457705440705126
 21
86.6805989887280077
 31
0.0
  0
LINE
  5
FC9
  8
0
 10
84.4457705440718769
 20
85.0985521751679528
 30
0.0
 11
92.945770544070399
 21
85.0985521751679954
 31
0.0
  0
LINE
  5
FCA
  8
0
 10
84.4457705440719337
 20
82.2866522626966912
 30
0.0
 11
92.9457705440705126
 21
82.2866522626966912
 31
0.0
  0
LINE
  5
FCB
  8
0
 10
84.4457705440718769
 20
81.0758060531458113
 30
0.0
 11
92.945770544070399
 21
81.0758060531458113
 31
0.0
  0
LINE
  5
FCC
  8
0
 10
84.4457705440718769
 20
79.1969545996653608
 30
0.0
 11
92.9457705440704558
 21
79.1969545996653324
 31
0.0
  0
LINE
  5
FCD
  8
0
 10
84.4457705440718769
 20
78.5416493531796505
 30
0.0
 11
92.9457705440704558
 21
78.5416493531796505
 31
0.0
  0
LINE
  5
FCE
  8
0
 10
84.4457705440718058
 20
77.8829337471367467
 30
0.0
 11
84.4457705440718769
 21
78.5416493531796505
 31
0.0
  0
LINE
  5
FCF
  8
0
 10
83.4457705440721043
 20
78.8536586541999753
 30
0.0
 11
83.9449776109685644
 21
78.3544515873034868
 31
0.0
  0
LINE
  5
FD0
  8
0
 10
94.4457705440718769
 20
147.8536586541997053
 30
0.0
 11
94.4457705440718769
 21
123.8536586541998048
 31
0.0
  0
LINE
  5
FD1
  8
0
 10
93.4457705440721043
 20
122.8536586542000038
 30
0.0
 11
94.4457705440721043
 21
123.8536586542000038
 31
0.0
  0
LINE
  5
FD2
  8
0
 10
94.4457705440716495
 20
147.8536586541999895
 30
0.0
 11
93.4457705440716637
 21
148.8536586541999895
 31
0.0
  0
LINE
  5
FD3
  8
0
 10
83.4457705440716637
 20
147.8536586541999895
 30
0.0
 11
83.9449776109681807
 21
148.3528657210964923
 31
0.0
  0
LINE
  5
FD4
  8
0
 10
93.4457705440718769
 20
148.8536586541997053
 30
0.0
 11
93.4457705440718769
 21
122.8536586541997053
 31
0.0
  0
LINE
  5
FD5
  8
0
 10
84.4457705440716495
 20
148.824383561263204
 30
0.0
 11
84.4457705440716495
 21
148.1656679552203002
 31
0.0
  0
LINE
  5
FD6
  8
2
 10
87.6457705440718655
 20
143.3536586541999895
 30
0.0
 11
87.6457705440718655
 21
128.3536586541999043
 31
0.0
  0
LINE
  5
FD7
  8
2
 10
87.6457705440718655
 20
128.3536586541999043
 30
0.0
 11
87.1457705440718655
 21
128.3536586541999043
 31
0.0
  0
LINE
  5
FD8
  8
2
 10
87.1457705440718655
 20
128.3536586541999043
 30
0.0
 11
87.1457705440718655
 21
143.3536586541999895
 31
0.0
  0
LINE
  5
FD9
  8
2
 10
83.4457705440718769
 20
125.6036586542000038
 30
0.0
 11
87.1457705440718655
 21
128.3536586541999043
 31
0.0
  0
LINE
  5
FDA
  8
0
 10
83.4457705440718769
 20
123.8536586542002027
 30
0.0
 11
83.4457705440718769
 21
147.8536586542001885
 31
0.0
  0
LINE
  5
FDB
  8
0
 10
84.4457705440719337
 20
148.1656679552203002
 30
0.0
 11
92.9457705440705126
 21
148.1656679552203002
 31
0.0
  0
LINE
  5
FDC
  8
0
 10
84.4457705440719337
 20
147.5103627087345899
 30
0.0
 11
92.9457705440705126
 21
147.5103627087345899
 31
0.0
  0
LINE
  5
FDD
  8
0
 10
84.4457705440718769
 20
145.6315112552541109
 30
0.0
 11
92.9457705440704558
 21
145.6315112552541109
 31
0.0
  0
LINE
  5
FDE
  8
0
 10
84.4457705440718769
 20
144.4206650457032879
 30
0.0
 11
92.9457705440704558
 21
144.4206650457032879
 31
0.0
  0
LINE
  5
FDF
  8
0
 10
84.4457705440718769
 20
141.6087651332319979
 30
0.0
 11
92.945770544070399
 21
141.6087651332319979
 31
0.0
  0
LINE
  5
FE0
  8
0
 10
84.4457705440718769
 20
140.0267183196719998
 30
0.0
 11
92.945770544070399
 21
140.0267183196719998
 31
0.0
  0
LINE
  5
FE1
  8
0
 10
84.4457705440718769
 20
136.7098562199473974
 30
0.0
 11
92.9457705440704558
 21
136.7098562199473122
 31
0.0
  0
ARC
  5
FE2
  8
0
 10
92.4626977132458592
 20
135.8536586542001032
 30
0.0
 40
0.9830735636117521
 50
299.4320041558199819
 51
60.5679958442827981
  0
POLYLINE
  5
FE3
  8
0
 66
     1
 10
0.0
 20
0.0
 30
0.0
  0
VERTEX
  5
FE4
  8
0
 10
92.945770544070399
 20
140.0267183196719998
 30
0.0
 42
0.126904853429963
 50
180.0
  0
VERTEX
  5
FE5
  8
0
 10
93.129206483146902
 20
140.0740382211245958
 30
0.0
 42
0.1060810122797594
 50
180.0
  0
VERTEX
  5
FE6
  8
0
 10
93.2993239346646845
 20
140.2221303337055076
 30
0.0
 42
0.085744797149215
 70
     2
 50
53.1512003829412834
  0
VERTEX
  5
FE7
  8
0
 10
93.4168808816150857
 20
140.4523802820071978
 30
0.0
 42
0.0912209683726037
 50
53.1512003829412834
  0
VERTEX
  5
FE8
  8
0
 10
93.4457705440708537
 20
140.6938966682357943
 30
0.0
 42
0.0753899821444356
 50
180.0
  0
SEQEND
  5
FE9
  8
0
  0
POLYLINE
  5
FEA
  8
0
 66
     1
 10
0.0
 20
0.0
 30
0.0
  0
VERTEX
  5
FEB
  8
0
 10
93.4457705440686368
 20
140.693896668235908
 30
0.0
 42
0.0558453538950165
 50
180.0
  0
VERTEX
  5
FEC
  8
0
 10
93.4045966250457553
 20
141.0613892787449117
 30
0.0
 42
0.0696234494827605
 50
180.0
  0
VERTEX
  5
FED
  8
0
 10
93.299323934662425
 20
141.3392380716884134
 30
0.0
 42
0.1059514344510999
 70
     2
 50
118.7163432381360053
  0
VERTEX
  5
FEE
  8
0
 10
93.1185415384246653
 20
141.5485852055251996
 30
0.0
 42
0.1511721533581169
 50
118.7163432381360053
  0
VERTEX
  5
FEF
  8
0
 10
92.945770544070399
 20
141.6087651332319979
 30
0.0
 42
0.1632707906765776
 50
180.0
  0
SEQEND
  5
FF0
  8
0
  0
POLYLINE
  5
FF1
  8
0
 66
     1
 10
0.0
 20
0.0
 30
0.0
  0
VERTEX
  5
FF2
  8
0
 10
92.9457705440704558
 20
144.4206650457032879
 30
0.0
 42
0.0759738029860677
 50
180.0
  0
VERTEX
  5
FF3
  8
0
 10
93.1427813920672492
 20
144.4507741627949997
 30
0.0
 42
0.0861489681664724
 50
180.0
  0
VERTEX
  5
FF4
  8
0
 10
93.2993239346646845
 20
144.5313164703017037
 30
0.0
 42
0.1059611842089019
 70
     2
 50
37.0737894260680889
  0
VERTEX
  5
FF5
  8
0
 10
93.4182908960991085
 20
144.6689996206926878
 30
0.0
 42
0.1471982240755334
 50
37.0737894260680889
  0
VERTEX
  5
FF6
  8
0
 10
93.4457705440717064
 20
144.7984526402630934
 30
0.0
 42
0.1260278403512851
 50
180.0
  0
SEQEND
  5
FF7
  8
0
  0
POLYLINE
  5
FF8
  8
0
 66
     1
 10
0.0
 20
0.0
 30
0.0
  0
VERTEX
  5
FF9
  8
0
 10
93.4457705440718769
 20
144.7984526402630934
 30
0.0
 42
0.061112938037691
 50
180.0
  0
VERTEX
  5
FFA
  8
0
 10
93.4049141140280312
 20
145.1314741011483989
 30
0.0
 42
0.0744665224447995
 50
180.0
  0
VERTEX
  5
FFB
  8
0
 10
93.2993239346646845
 20
145.3863137172876066
 30
0.0
 42
0.1069586370034828
 70
     2
 50
121.0236844281015038
  0
VERTEX
  5
FFC
  8
0
 10
93.121897375440156
 20
145.5750304559541064
 30
0.0
 42
0.1427675426463582
 50
121.0236844281015038
  0
VERTEX
  5
FFD
  8
0
 10
92.9457705440704558
 20
145.6315112552541109
 30
0.0
 42
0.1519322921768134
 50
180.0
  0
SEQEND
  5
FFE
  8
0
  0
POLYLINE
  5
FFF
  8
0
 66
     1
 10
0.0
 20
0.0
 30
0.0
  0
VERTEX
  5
1000
  8
0
 10
92.9457705440705126
 20
147.5103627087345899
 30
0.0
 42
0.0063945854363995
 50
180.0
  0
VERTEX
  5
1001
  8
0
 10
93.1527956338436951
 20
147.5130104962524911
 30
0.0
 42
0.0090272087772587
 50
180.0
  0
VERTEX
  5
1002
  8
0
 10
93.2993239346647556
 20
147.5194078675602896
 30
0.0
 42
0.021587231382142
 70
     2
 50
3.5343387134001181
  0
VERTEX
  5
1003
  8
0
 10
93.4417381415378969
 20
147.5343954769116124
 30
0.0
 50
3.5343387134001181
  0
VERTEX
  5
1004
  8
0
 10
93.4457705440717064
 20
147.5412448126716924
 30
0.0
 50
180.0
  0
SEQEND
  5
1005
  8
0
  0
POLYLINE
  5
1006
  8
0
 66
     1
 10
0.0
 20
0.0
 30
0.0
  0
VERTEX
  5
1007
  8
0
 10
93.4457705440719337
 20
147.5412448126716924
 30
0.0
 42
0.0803470550416908
 50
180.0
  0
VERTEX
  5
1008
  8
0
 10
93.4062459909888645
 20
147.7856184017913961
 30
0.0
 42
0.0890368192332178
 50
180.0
  0
VERTEX
  5
1009
  8
0
 10
93.2993239346648124
 20
147.982129043264905
 30
0.0
 42
0.1049083465716828
 70
     2
 50
128.7267845612261965
  0
VERTEX
  5
100A
  8
0
 10
93.1312465692012239
 20
148.1196763274406862
 30
0.0
 42
0.1149585868589446
 50
128.7267845612261965
  0
VERTEX
  5
100B
  8
0
 10
92.9457705440705126
 20
148.1656679552203002
 30
0.0
 42
0.119763324839129
 50
180.0
  0
SEQEND
  5
100C
  8
0
  0
POLYLINE
  5
100D
  8
0
 66
     1
 10
0.0
 20
0.0
 30
0.0
  0
VERTEX
  5
100E
  8
0
 10
83.9457705440705126
 20
147.5412448126716924
 30
0.0
 42
-0.0803470550416908
 50
180.0
  0
VERTEX
  5
100F
  8
0
 10
83.9852950971535961
 20
147.7856184017913961
 30
0.0
 42
-0.0890368192332178
 50
180.0
  0
VERTEX
  5
1010
  8
0
 10
84.0922171534776339
 20
147.982129043264905
 30
0.0
 42
-0.1049083465716828
 70
     2
 50
51.2732154387738603
  0
VERTEX
  5
1011
  8
0
 10
84.2602945189411798
 20
148.1196763274406862
 30
0.0
 42
-0.1149585868589616
 50
180.0
  0
VERTEX
  5
1012
  8
0
 10
84.4457705440719337
 20
148.1656679552203002
 30
0.0
 42
-0.119763324839129
 50
180.0
  0
SEQEND
  5
1013
  8
0
  0
POLYLINE
  5
1014
  8
0
 66
     1
 10
0.0
 20
0.0
 30
0.0
  0
VERTEX
  5
1015
  8
0
 10
84.4457705440719337
 20
147.5103627087345899
 30
0.0
 42
-0.0063945854363995
 50
180.0
  0
VERTEX
  5
1016
  8
0
 10
84.2387454542987371
 20
147.5130104962524911
 30
0.0
 42
-0.0090272087772587
 50
180.0
  0
VERTEX
  5
1017
  8
0
 10
84.0922171534776908
 20
147.5194078675602896
 30
0.0
 42
-0.021587231382142
 70
     2
 50
176.4656612865998966
  0
VERTEX
  5
1018
  8
0
 10
83.9498029466045068
 20
147.5343954769116124
 30
0.0
 50
180.0
  0
VERTEX
  5
1019
  8
0
 10
83.94577054407074
 20
147.5412448126716924
 30
0.0
 50
180.0
  0
SEQEND
  5
101A
  8
0
  0
POLYLINE
  5
101B
  8
0
 66
     1
 10
0.0
 20
0.0
 30
0.0
  0
VERTEX
  5
101C
  8
0
 10
83.9457705440704558
 20
144.7984526402630934
 30
0.0
 42
-0.061112938037691
 50
180.0
  0
VERTEX
  5
101D
  8
0
 10
83.9866269741142446
 20
145.1314741011483989
 30
0.0
 42
-0.0744665224447995
 50
180.0
  0
VERTEX
  5
101E
  8
0
 10
84.0922171534775771
 20
145.3863137172876066
 30
0.0
 42
-0.1069586370034828
 70
     2
 50
58.9763155718985317
  0
VERTEX
  5
101F
  8
0
 10
84.2696437127021341
 20
145.5750304559541064
 30
0.0
 42
-0.1427675426463604
 50
180.0
  0
VERTEX
  5
1020
  8
0
 10
84.4457705440718769
 20
145.6315112552541109
 30
0.0
 42
-0.1519322921768134
 50
180.0
  0
SEQEND
  5
1021
  8
0
  0
POLYLINE
  5
1022
  8
0
 66
     1
 10
0.0
 20
0.0
 30
0.0
  0
VERTEX
  5
1023
  8
0
 10
84.4457705440718769
 20
144.4206650457032879
 30
0.0
 42
-0.0759738029860677
 50
180.0
  0
VERTEX
  5
1024
  8
0
 10
84.2487596960750693
 20
144.4507741627949997
 30
0.0
 42
-0.0861489681664724
 50
180.0
  0
VERTEX
  5
1025
  8
0
 10
84.0922171534776339
 20
144.5313164703017037
 30
0.0
 42
-0.1059611842089019
 70
     2
 50
142.9262105739319111
  0
VERTEX
  5
1026
  8
0
 10
83.9732501920432242
 20
144.6689996206926878
 30
0.0
 42
-0.1471982240755334
 50
180.0
  0
VERTEX
  5
1027
  8
0
 10
83.9457705440706263
 20
144.7984526402630934
 30
0.0
 42
-0.1260278403512851
 50
180.0
  0
SEQEND
  5
1028
  8
0
  0
POLYLINE
  5
1029
  8
0
 66
     1
 10
0.0
 20
0.0
 30
0.0
  0
VERTEX
  5
102A
  8
0
 10
83.9457705440736959
 20
140.693896668235908
 30
0.0
 42
-0.0558453538950165
 50
180.0
  0
VERTEX
  5
102B
  8
0
 10
83.9869444630965063
 20
141.0613892787449117
 30
0.0
 42
-0.0696234494827605
 50
180.0
  0
VERTEX
  5
102C
  8
0
 10
84.0922171534798508
 20
141.3392380716884134
 30
0.0
 42
-0.1059514344510999
 70
     2
 50
61.2836567618640089
  0
VERTEX
  5
102D
  8
0
 10
84.2729995497176105
 20
141.5485852055251996
 30
0.0
 42
-0.1511721533580949
 50
180.0
  0
VERTEX
  5
102E
  8
0
 10
84.4457705440718769
 20
141.6087651332319979
 30
0.0
 42
-0.1632707906765776
 50
180.0
  0
SEQEND
  5
102F
  8
0
  0
POLYLINE
  5
1030
  8
0
 66
     1
 10
0.0
 20
0.0
 30
0.0
  0
VERTEX
  5
1031
  8
0
 10
84.4457705440718769
 20
140.0267183196719998
 30
0.0
 42
-0.126904853429963
 50
180.0
  0
VERTEX
  5
1032
  8
0
 10
84.2623346049953739
 20
140.0740382211245958
 30
0.0
 42
-0.1060810122797594
 50
180.0
  0
VERTEX
  5
1033
  8
0
 10
84.0922171534775771
 20
140.2221303337055076
 30
0.0
 42
-0.085744797149215
 70
     2
 50
126.8487996170587024
  0
VERTEX
  5
1034
  8
0
 10
83.9746602065271759
 20
140.4523802820071978
 30
0.0
 42
-0.0912209683726037
 50
180.0
  0
VERTEX
  5
1035
  8
0
 10
83.9457705440714079
 20
140.6938966682357943
 30
0.0
 42
-0.0753899821444356
 50
180.0
  0
SEQEND
  5
1036
  8
0
  0
ARC
  5
1037
  8
0
 10
84.9288433748953935
 20
135.8536586541999043
 30
0.0
 40
0.9830735636114077
 50
119.4320041556556049
 51
240.5679958443444093
  0
LINE
  5
1038
  8
0
 10
84.4457705440718769
 20
140.0267183196719998
 30
0.0
 11
84.4457705440718769
 21
136.7086559011856934
 31
0.0
  0
LINE
  5
1039
  8
0
 10
84.4457705440718769
 20
144.4206650457032879
 30
0.0
 11
84.4457705440718769
 21
141.6087651332319979
 31
0.0
  0
LINE
  5
103A
  8
0
 10
84.4457705440719337
 20
147.5103627087345899
 30
0.0
 11
84.4457705440718769
 21
145.6315112552541109
 31
0.0
  0
LINE
  5
103B
  8
2
 10
83.4457705440718769
 20
146.1036586541999895
 30
0.0
 11
87.1457705440718655
 21
143.3536586541999895
 31
0.0
  0
LINE
  5
103C
  8
2
 10
87.6457705440718655
 20
143.3536586541999895
 30
0.0
 11
87.1457705440718655
 21
143.3536586541999895
 31
0.0
  0
LINE
  5
103D
  8
0
 10
84.4457705440716495
 20
148.824383561263204
 30
0.0
 11
92.9457705440663062
 21
148.824383561263204
 31
0.0
  0
POLYLINE
  5
103E
  8
0
 66
     1
 10
0.0
 20
0.0
 30
0.0
  0
VERTEX
  5
103F
  8
0
 10
83.9449776109640737
 20
148.3528657210923996
 30
0.0
 42
0.0932326856578775
 50
90.0
  0
VERTEX
  5
1040
  8
0
 10
84.1380093025641713
 20
148.3891750600319028
 30
0.0
 42
0.0961553825390117
 50
90.0
  0
VERTEX
  5
1041
  8
0
 10
84.2990916899347553
 20
148.4909700990280044
 30
0.0
 42
0.1005995558164784
 70
     2
 50
43.2754148837487875
  0
VERTEX
  5
1042
  8
0
 10
84.4081269094301661
 20
148.6453349274405866
 30
0.0
 42
0.1039846014298173
 50
43.2754148837487875
  0
VERTEX
  5
1043
  8
0
 10
84.4457705440716495
 20
148.824383561263204
 30
0.0
 42
0.1039846014297789
 50
90.0
  0
SEQEND
  5
1044
  8
0
  0
POLYLINE
  5
1045
  8
0
 66
     1
 10
0.0
 20
0.0
 30
0.0
  0
VERTEX
  5
1046
  8
0
 10
92.9457705440702853
 20
148.824383561263204
 30
0.0
 42
0.0060619562265407
 50
90.0
  0
VERTEX
  5
1047
  8
0
 10
93.1528039033553341
 20
148.8268937078273098
 30
0.0
 42
0.008559181375748
 50
90.0
  0
VERTEX
  5
1048
  8
0
 10
93.2993239346645282
 20
148.8329580374646923
 30
0.0
 42
0.0204875976357465
 70
     2
 50
3.3508529875824729
  0
VERTEX
  5
1049
  8
0
 10
93.4419496808750978
 20
148.8471895304546138
 30
0.0
 50
3.3508529875824729
  0
VERTEX
  5
104A
  8
0
 10
93.4457705440718769
 20
148.8536586541999895
 30
0.0
 50
90.0
  0
SEQEND
  5
104B
  8
0
  0
POLYLINE
  5
104C
  8
0
 66
     1
 10
0.0
 20
0.0
 30
0.0
  0
VERTEX
  5
104D
  8
0
 10
92.9457705440706832
 20
122.882933747136704
 30
0.0
 42
-0.0060619562265407
 50
90.0
  0
VERTEX
  5
104E
  8
0
 10
93.1528039033557747
 20
122.8804236005726978
 30
0.0
 42
-0.008559181375748
 50
90.0
  0
VERTEX
  5
104F
  8
0
 10
93.2993239346649688
 20
122.874359270935301
 30
0.0
 42
-0.0204875976357465
 70
     2
 50
356.6491470124175862
  0
VERTEX
  5
1050
  8
0
 10
93.4419496808754957
 20
122.8601277779452943
 30
0.0
 50
90.0
  0
VERTEX
  5
1051
  8
0
 10
93.4457705440723316
 20
122.8536586542000038
 30
0.0
 50
90.0
  0
SEQEND
  5
1052
  8
0
  0
POLYLINE
  5
1053
  8
0
 66
     1
 10
0.0
 20
0.0
 30
0.0
  0
VERTEX
  5
1054
  8
0
 10
83.9449776109644858
 20
123.3544515873075937
 30
0.0
 42
-0.0932326856578775
 50
90.0
  0
VERTEX
  5
1055
  8
0
 10
84.1380093025646261
 20
123.3181422483681047
 30
0.0
 42
-0.0961553825390117
 50
90.0
  0
VERTEX
  5
1056
  8
0
 10
84.2990916899352101
 20
123.2163472093720031
 30
0.0
 42
-0.1005995558164784
 70
     2
 50
316.7245851162513191
  0
VERTEX
  5
1057
  8
0
 10
84.408126909430564
 20
123.061982380959293
 30
0.0
 42
-0.1039846014298173
 50
90.0
  0
VERTEX
  5
1058
  8
0
 10
84.4457705440721043
 20
122.882933747136704
 30
0.0
 42
-0.1039846014297789
 50
90.0
  0
SEQEND
  5
1059
  8
0
  0
LINE
  5
105A
  8
0
 10
84.4457705440721043
 20
122.882933747136704
 30
0.0
 11
92.945770544066761
 21
122.882933747136704
 31
0.0
  0
LINE
  5
105B
  8
0
 10
84.4457705440718769
 20
124.1969545996653039
 30
0.0
 11
84.4457705440718769
 21
126.0758060531457971
 31
0.0
  0
LINE
  5
105C
  8
0
 10
84.4457705440718769
 20
127.2866522626967054
 30
0.0
 11
84.4457705440718769
 21
130.0985521751678959
 31
0.0
  0
LINE
  5
105D
  8
0
 10
84.4457705440718769
 20
131.6805989887280077
 30
0.0
 11
84.4457705440718769
 21
134.9974610884524964
 31
0.0
  0
POLYLINE
  5
105E
  8
0
 66
     1
 10
0.0
 20
0.0
 30
0.0
  0
VERTEX
  5
105F
  8
0
 10
84.4457705440718769
 20
131.6805989887280077
 30
0.0
 42
0.126904853429963
 50
90.0
  0
VERTEX
  5
1060
  8
0
 10
84.2623346049954449
 20
131.6332790872754117
 30
0.0
 42
0.1060810122797594
 50
90.0
  0
VERTEX
  5
1061
  8
0
 10
84.0922171534776339
 20
131.4851869746943862
 30
0.0
 42
0.085744797149215
 70
     2
 50
233.1512003829413118
  0
VERTEX
  5
1062
  8
0
 10
83.9746602065272754
 20
131.2549370263928097
 30
0.0
 42
0.0912209683726037
 50
90.0
  0
VERTEX
  5
1063
  8
0
 10
83.9457705440715358
 20
131.0134206401640995
 30
0.0
 42
0.0753899821444356
 50
90.0
  0
SEQEND
  5
1064
  8
0
  0
POLYLINE
  5
1065
  8
0
 66
     1
 10
0.0
 20
0.0
 30
0.0
  0
VERTEX
  5
1066
  8
0
 10
83.9457705440736959
 20
131.0134206401640995
 30
0.0
 42
0.0558453538950165
 50
90.0
  0
VERTEX
  5
1067
  8
0
 10
83.9869444630965631
 20
130.6459280296550958
 30
0.0
 42
0.0696234494827605
 50
90.0
  0
VERTEX
  5
1068
  8
0
 10
84.0922171534799077
 20
130.3680792367115089
 30
0.0
 42
0.1059514344510999
 70
     2
 50
298.7163432381360053
  0
VERTEX
  5
1069
  8
0
 10
84.2729995497176674
 20
130.1587321028748079
 30
0.0
 42
0.1511721533578267
 50
90.0
  0
VERTEX
  5
106A
  8
0
 10
84.4457705440718769
 20
130.0985521751678959
 30
0.0
 42
0.1632707906765776
 50
90.0
  0
SEQEND
  5
106B
  8
0
  0
POLYLINE
  5
106C
  8
0
 66
     1
 10
0.0
 20
0.0
 30
0.0
  0
VERTEX
  5
106D
  8
0
 10
84.4457705440719906
 20
127.2866522626967054
 30
0.0
 42
0.0759738029860677
 50
90.0
  0
VERTEX
  5
106E
  8
0
 10
84.2487596960751262
 20
127.2565431456048941
 30
0.0
 42
0.0861489681664724
 50
90.0
  0
VERTEX
  5
106F
  8
0
 10
84.0922171534776908
 20
127.1760008380983038
 30
0.0
 42
0.1059611842089019
 70
     2
 50
217.0737894260680889
  0
VERTEX
  5
1070
  8
0
 10
83.9732501920432952
 20
127.0383176877073055
 30
0.0
 42
0.1471982240755334
 50
90.0
  0
VERTEX
  5
1071
  8
0
 10
83.94577054407074
 20
126.9088646681368999
 30
0.0
 42
0.1260278403512851
 50
90.0
  0
SEQEND
  5
1072
  8
0
  0
POLYLINE
  5
1073
  8
0
 66
     1
 10
0.0
 20
0.0
 30
0.0
  0
VERTEX
  5
1074
  8
0
 10
83.9457705440705126
 20
126.9088646681368999
 30
0.0
 42
0.061112938037691
 50
90.0
  0
VERTEX
  5
1075
  8
0
 10
83.9866269741143583
 20
126.5758432072515944
 30
0.0
 42
0.0744665224447995
 50
90.0
  0
VERTEX
  5
1076
  8
0
 10
84.0922171534776339
 20
126.321003591112401
 30
0.0
 42
0.1069586370034828
 70
     2
 50
301.0236844281014896
  0
VERTEX
  5
1077
  8
0
 10
84.2696437127022477
 20
126.1322868524459011
 30
0.0
 42
0.142767542645802
 50
90.0
  0
VERTEX
  5
1078
  8
0
 10
84.4457705440718769
 20
126.0758060531457971
 30
0.0
 42
0.1519322921768134
 50
90.0
  0
SEQEND
  5
1079
  8
0
  0
POLYLINE
  5
107A
  8
0
 66
     1
 10
0.0
 20
0.0
 30
0.0
  0
VERTEX
  5
107B
  8
0
 10
84.4457705440718769
 20
124.1969545996653039
 30
0.0
 42
0.0063945854363995
 50
90.0
  0
VERTEX
  5
107C
  8
0
 10
84.2387454542986802
 20
124.1943068121474028
 30
0.0
 42
0.0090272087772587
 50
90.0
  0
VERTEX
  5
107D
  8
0
 10
84.0922171534776339
 20
124.1879094408396043
 30
0.0
 42
0.021587231382142
 70
     2
 50
183.5343387134001034
  0
VERTEX
  5
107E
  8
0
 10
83.9498029466045068
 20
124.1729218314882957
 30
0.0
 50
90.0
  0
VERTEX
  5
107F
  8
0
 10
83.9457705440706832
 20
124.1660724957282014
 30
0.0
 50
90.0
  0
SEQEND
  5
1080
  8
0
  0
POLYLINE
  5
1081
  8
0
 66
     1
 10
0.0
 20
0.0
 30
0.0
  0
VERTEX
  5
1082
  8
0
 10
83.9457705440704558
 20
124.1660724957282014
 30
0.0
 42
0.0803470550416908
 50
90.0
  0
VERTEX
  5
1083
  8
0
 10
83.9852950971535392
 20
123.9216989066084977
 30
0.0
 42
0.0890368192332178
 50
90.0
  0
VERTEX
  5
1084
  8
0
 10
84.0922171534776339
 20
123.725188265135003
 30
0.0
 42
0.1049083465716828
 70
     2
 50
308.7267845612262249
  0
VERTEX
  5
1085
  8
0
 10
84.2602945189411798
 20
123.5876409809591934
 30
0.0
 42
0.1149585868589762
 50
90.0
  0
VERTEX
  5
1086
  8
0
 10
84.4457705440718769
 20
123.5416493531795936
 30
0.0
 42
0.119763324839129
 50
90.0
  0
SEQEND
  5
1087
  8
0
  0
POLYLINE
  5
1088
  8
0
 66
     1
 10
0.0
 20
0.0
 30
0.0
  0
VERTEX
  5
1089
  8
0
 10
93.4457705440718769
 20
124.1660724957282014
 30
0.0
 42
-0.0803470550416908
 50
90.0
  0
VERTEX
  5
108A
  8
0
 10
93.4062459909887792
 20
123.9216989066084977
 30
0.0
 42
-0.0890368192332178
 50
90.0
  0
VERTEX
  5
108B
  8
0
 10
93.2993239346647556
 20
123.725188265135003
 30
0.0
 42
-0.1049083465716828
 70
     2
 50
231.2732154387738035
  0
VERTEX
  5
108C
  8
0
 10
93.1312465692012239
 20
123.5876409809591934
 30
0.0
 42
-0.1149585868589762
 50
90.0
  0
VERTEX
  5
108D
  8
0
 10
92.9457705440704558
 20
123.5416493531795936
 30
0.0
 42
-0.119763324839129
 50
90.0
  0
SEQEND
  5
108E
  8
0
  0
POLYLINE
  5
108F
  8
0
 66
     1
 10
0.0
 20
0.0
 30
0.0
  0
VERTEX
  5
1090
  8
0
 10
92.9457705440704558
 20
124.1969545996653039
 30
0.0
 42
-0.0063945854363995
 50
90.0
  0
VERTEX
  5
1091
  8
0
 10
93.1527956338436525
 20
124.1943068121474028
 30
0.0
 42
-0.0090272087772587
 50
90.0
  0
VERTEX
  5
1092
  8
0
 10
93.2993239346647556
 20
124.1879094408396043
 30
0.0
 42
-0.021587231382142
 70
     2
 50
356.465661286599925
  0
VERTEX
  5
1093
  8
0
 10
93.4417381415378969
 20
124.1729218314882957
 30
0.0
 50
90.0
  0
VERTEX
  5
1094
  8
0
 10
93.4457705440716637
 20
124.1660724957282014
 30
0.0
 50
90.0
  0
SEQEND
  5
1095
  8
0
  0
POLYLINE
  5
1096
  8
0
 66
     1
 10
0.0
 20
0.0
 30
0.0
  0
VERTEX
  5
1097
  8
0
 10
93.4457705440719337
 20
126.9088646681368999
 30
0.0
 42
-0.061112938037691
 50
90.0
  0
VERTEX
  5
1098
  8
0
 10
93.4049141140281449
 20
126.5758432072515944
 30
0.0
 42
-0.0744665224447995
 50
90.0
  0
VERTEX
  5
1099
  8
0
 10
93.2993239346647556
 20
126.321003591112401
 30
0.0
 42
-0.1069586370034828
 70
     2
 50
238.9763155718985104
  0
VERTEX
  5
109A
  8
0
 10
93.1218973754402555
 20
126.1322868524459011
 30
0.0
 42
-0.1427675426460051
 50
90.0
  0
VERTEX
  5
109B
  8
0
 10
92.945770544070399
 20
126.0758060531457971
 30
0.0
 42
-0.1519322921768134
 50
90.0
  0
SEQEND
  5
109C
  8
0
  0
POLYLINE
  5
109D
  8
0
 66
     1
 10
0.0
 20
0.0
 30
0.0
  0
VERTEX
  5
109E
  8
0
 10
92.9457705440705126
 20
127.2866522626967054
 30
0.0
 42
-0.0759738029860677
 50
90.0
  0
VERTEX
  5
109F
  8
0
 10
93.1427813920673344
 20
127.2565431456048941
 30
0.0
 42
-0.0861489681664724
 50
90.0
  0
VERTEX
  5
10A0
  8
0
 10
93.2993239346647556
 20
127.1760008380983038
 30
0.0
 42
-0.1059611842089019
 70
     2
 50
322.9262105739318827
  0
VERTEX
  5
10A1
  8
0
 10
93.418290896099208
 20
127.0383176877073055
 30
0.0
 42
-0.1471982240755334
 50
90.0
  0
VERTEX
  5
10A2
  8
0
 10
93.4457705440717632
 20
126.9088646681368999
 30
0.0
 42
-0.1260278403512851
 50
90.0
  0
SEQEND
  5
10A3
  8
0
  0
POLYLINE
  5
10A4
  8
0
 66
     1
 10
0.0
 20
0.0
 30
0.0
  0
VERTEX
  5
10A5
  8
0
 10
93.4457705440686937
 20
131.0134206401640995
 30
0.0
 42
-0.0558453538950165
 50
90.0
  0
VERTEX
  5
10A6
  8
0
 10
93.4045966250458264
 20
130.6459280296550958
 30
0.0
 42
-0.0696234494827605
 50
90.0
  0
VERTEX
  5
10A7
  8
0
 10
93.2993239346624961
 20
130.3680792367115089
 30
0.0
 42
-0.1059514344510999
 70
     2
 50
241.2836567618641084
  0
VERTEX
  5
10A8
  8
0
 10
93.1185415384247364
 20
130.1587321028748079
 30
0.0
 42
-0.1511721533581735
 50
90.0
  0
VERTEX
  5
10A9
  8
0
 10
92.945770544070399
 20
130.0985521751680096
 30
0.0
 42
-0.1632707906765776
 50
90.0
  0
SEQEND
  5
10AA
  8
0
  0
POLYLINE
  5
10AB
  8
0
 66
     1
 10
0.0
 20
0.0
 30
0.0
  0
VERTEX
  5
10AC
  8
0
 10
92.9457705440705126
 20
131.6805989887280077
 30
0.0
 42
-0.126904853429963
 50
90.0
  0
VERTEX
  5
10AD
  8
0
 10
93.1292064831470157
 20
131.6332790872754117
 30
0.0
 42
-0.1060810122797594
 50
90.0
  0
VERTEX
  5
10AE
  8
0
 10
93.2993239346647556
 20
131.4851869746943862
 30
0.0
 42
-0.085744797149215
 70
     2
 50
306.8487996170587735
  0
VERTEX
  5
10AF
  8
0
 10
93.4168808816150857
 20
131.2549370263928097
 30
0.0
 42
-0.0912209683726037
 50
90.0
  0
VERTEX
  5
10B0
  8
0
 10
93.4457705440708537
 20
131.0134206401640995
 30
0.0
 42
-0.0753899821444356
 50
90.0
  0
SEQEND
  5
10B1
  8
0
  0
LINE
  5
10B2
  8
0
 10
84.4457705440714648
 20
134.9974610884526953
 30
0.0
 11
92.9457705440700437
 21
134.997461088452809
 31
0.0
  0
LINE
  5
10B3
  8
0
 10
84.4457705440718769
 20
131.6805989887280077
 30
0.0
 11
92.9457705440705126
 21
131.6805989887280077
 31
0.0
  0
LINE
  5
10B4
  8
0
 10
84.4457705440718769
 20
130.0985521751678959
 30
0.0
 11
92.945770544070399
 21
130.0985521751680096
 31
0.0
  0
LINE
  5
10B5
  8
0
 10
84.4457705440719337
 20
127.2866522626967054
 30
0.0
 11
92.9457705440705126
 21
127.2866522626967054
 31
0.0
  0
LINE
  5
10B6
  8
0
 10
84.4457705440718769
 20
126.0758060531457971
 30
0.0
 11
92.945770544070399
 21
126.0758060531457971
 31
0.0
  0
LINE
  5
10B7
  8
0
 10
84.4457705440718769
 20
124.1969545996653039
 30
0.0
 11
92.9457705440704558
 21
124.1969545996653039
 31
0.0
  0
LINE
  5
10B8
  8
0
 10
84.4457705440718769
 20
123.5416493531795936
 30
0.0
 11
92.9457705440704558
 21
123.5416493531795936
 31
0.0
  0
LINE
  5
10B9
  8
0
 10
84.4457705440718058
 20
122.882933747136704
 30
0.0
 11
84.4457705440718769
 21
123.5416493531795936
 31
0.0
  0
LINE
  5
10BA
  8
0
 10
83.4457705440721043
 20
123.8536586542000038
 30
0.0
 11
83.9449776109685644
 21
123.354451587303501
 31
0.0
  0
LINE
  5
10BB
  8
0
 10
94.4457705440718769
 20
57.8536586541997693
 30
0.0
 11
94.4457705440718769
 21
33.8536586541997977
 31
0.0
  0
LINE
  5
10BC
  8
0
 10
93.4457705440721043
 20
32.8536586541999966
 30
0.0
 11
94.4457705440721043
 21
33.8536586541999966
 31
0.0
  0
LINE
  5
10BD
  8
0
 10
94.4457705440716495
 20
57.8536586541999966
 30
0.0
 11
93.4457705440716637
 21
58.8536586541999895
 31
0.0
  0
LINE
  5
10BE
  8
0
 10
83.4457705440716637
 20
57.8536586541999966
 30
0.0
 11
83.9449776109681807
 21
58.3528657210964994
 31
0.0
  0
LINE
  5
10BF
  8
0
 10
93.4457705440718769
 20
58.8536586541997693
 30
0.0
 11
93.4457705440718769
 21
32.8536586541997693
 31
0.0
  0
LINE
  5
10C0
  8
0
 10
84.4457705440716495
 20
58.8243835612632111
 30
0.0
 11
84.4457705440716495
 21
58.1656679552203286
 31
0.0
  0
LINE
  5
10C1
  8
2
 10
87.6457705440718655
 20
53.3536586541999966
 30
0.0
 11
87.6457705440718655
 21
38.3536586541999682
 31
0.0
  0
LINE
  5
10C2
  8
2
 10
87.6457705440718655
 20
38.3536586541999682
 30
0.0
 11
87.1457705440718655
 21
38.3536586541999682
 31
0.0
  0
LINE
  5
10C3
  8
2
 10
87.1457705440718655
 20
38.3536586541999682
 30
0.0
 11
87.1457705440718655
 21
53.3536586541999966
 31
0.0
  0
LINE
  5
10C4
  8
2
 10
83.4457705440718769
 20
35.6036586541999966
 30
0.0
 11
87.1457705440718655
 21
38.3536586541999682
 31
0.0
  0
LINE
  5
10C5
  8
0
 10
83.4457705440718769
 20
33.8536586542002169
 30
0.0
 11
83.4457705440718769
 21
57.8536586542001885
 31
0.0
  0
LINE
  5
10C6
  8
0
 10
84.4457705440719337
 20
58.1656679552203073
 30
0.0
 11
92.9457705440705126
 21
58.1656679552203073
 31
0.0
  0
LINE
  5
10C7
  8
0
 10
84.4457705440719337
 20
57.5103627087345899
 30
0.0
 11
92.9457705440705126
 21
57.5103627087346325
 31
0.0
  0
LINE
  5
10C8
  8
0
 10
84.4457705440718769
 20
55.6315112552541535
 30
0.0
 11
92.9457705440704558
 21
55.6315112552541535
 31
0.0
  0
LINE
  5
10C9
  8
0
 10
84.4457705440718769
 20
54.4206650457033518
 30
0.0
 11
92.9457705440704558
 21
54.4206650457033518
 31
0.0
  0
LINE
  5
10CA
  8
0
 10
84.4457705440718769
 20
51.6087651332320618
 30
0.0
 11
92.945770544070399
 21
51.6087651332320334
 31
0.0
  0
LINE
  5
10CB
  8
0
 10
84.4457705440718769
 20
50.0267183196720069
 30
0.0
 11
92.945770544070399
 21
50.0267183196720069
 31
0.0
  0
LINE
  5
10CC
  8
0
 10
84.4457705440718769
 20
46.709856219947369
 30
0.0
 11
92.9457705440704558
 21
46.7098562199473406
 31
0.0
  0
ARC
  5
10CD
  8
0
 10
92.4626977132458592
 20
45.8536586542001601
 30
0.0
 40
0.9830735636117521
 50
299.4320041558199819
 51
60.5679958442827981
  0
POLYLINE
  5
10CE
  8
0
 66
     1
 10
0.0
 20
0.0
 30
0.0
  0
VERTEX
  5
10CF
  8
0
 10
92.945770544070399
 20
50.0267183196720069
 30
0.0
 42
0.126904853429963
 50
180.0
  0
VERTEX
  5
10D0
  8
0
 10
93.129206483146902
 20
50.0740382211246313
 30
0.0
 42
0.1060810122797594
 50
180.0
  0
VERTEX
  5
10D1
  8
0
 10
93.2993239346646845
 20
50.2221303337055502
 30
0.0
 42
0.085744797149215
 70
     2
 50
53.1512003829412834
  0
VERTEX
  5
10D2
  8
0
 10
93.4168808816150857
 20
50.452380282007212
 30
0.0
 42
0.0912209683726037
 50
53.1512003829412834
  0
VERTEX
  5
10D3
  8
0
 10
93.4457705440708537
 20
50.6938966682358512
 30
0.0
 42
0.0753899821444356
 50
180.0
  0
SEQEND
  5
10D4
  8
0
  0
POLYLINE
  5
10D5
  8
0
 66
     1
 10
0.0
 20
0.0
 30
0.0
  0
VERTEX
  5
10D6
  8
0
 10
93.4457705440686368
 20
50.6938966682358867
 30
0.0
 42
0.0558453538950165
 50
180.0
  0
VERTEX
  5
10D7
  8
0
 10
93.4045966250457553
 20
51.0613892787449188
 30
0.0
 42
0.0696234494827605
 50
180.0
  0
VERTEX
  5
10D8
  8
0
 10
93.299323934662425
 20
51.3392380716884418
 30
0.0
 42
0.1059514344510999
 70
     2
 50
118.7163432381360053
  0
VERTEX
  5
10D9
  8
0
 10
93.1185415384246653
 20
51.548585205525228
 30
0.0
 42
0.1511721533581169
 50
118.7163432381360053
  0
VERTEX
  5
10DA
  8
0
 10
92.945770544070399
 20
51.6087651332320334
 30
0.0
 42
0.1632707906765776
 50
180.0
  0
SEQEND
  5
10DB
  8
0
  0
POLYLINE
  5
10DC
  8
0
 66
     1
 10
0.0
 20
0.0
 30
0.0
  0
VERTEX
  5
10DD
  8
0
 10
92.9457705440704558
 20
54.4206650457033518
 30
0.0
 42
0.0759738029860677
 50
180.0
  0
VERTEX
  5
10DE
  8
0
 10
93.1427813920672492
 20
54.4507741627950921
 30
0.0
 42
0.0861489681664724
 50
180.0
  0
VERTEX
  5
10DF
  8
0
 10
93.2993239346646845
 20
54.5313164703017392
 30
0.0
 42
0.1059611842089019
 70
     2
 50
37.0737894260680889
  0
VERTEX
  5
10E0
  8
0
 10
93.4182908960991085
 20
54.6689996206927518
 30
0.0
 42
0.1471982240755334
 50
37.0737894260680889
  0
VERTEX
  5
10E1
  8
0
 10
93.4457705440717064
 20
54.7984526402631218
 30
0.0
 42
0.1260278403512851
 50
180.0
  0
SEQEND
  5
10E2
  8
0
  0
POLYLINE
  5
10E3
  8
0
 66
     1
 10
0.0
 20
0.0
 30
0.0
  0
VERTEX
  5
10E4
  8
0
 10
93.4457705440718769
 20
54.7984526402631573
 30
0.0
 42
0.061112938037691
 50
180.0
  0
VERTEX
  5
10E5
  8
0
 10
93.4049141140280312
 20
55.1314741011483989
 30
0.0
 42
0.0744665224447995
 50
180.0
  0
VERTEX
  5
10E6
  8
0
 10
93.2993239346646845
 20
55.3863137172875781
 30
0.0
 42
0.1069586370034828
 70
     2
 50
121.0236844281015038
  0
VERTEX
  5
10E7
  8
0
 10
93.121897375440156
 20
55.5750304559541135
 30
0.0
 42
0.1427675426463582
 50
121.0236844281015038
  0
VERTEX
  5
10E8
  8
0
 10
92.9457705440704558
 20
55.6315112552541535
 30
0.0
 42
0.1519322921768134
 50
180.0
  0
SEQEND
  5
10E9
  8
0
  0
POLYLINE
  5
10EA
  8
0
 66
     1
 10
0.0
 20
0.0
 30
0.0
  0
VERTEX
  5
10EB
  8
0
 10
92.9457705440705126
 20
57.5103627087346325
 30
0.0
 42
0.0063945854363995
 50
180.0
  0
VERTEX
  5
10EC
  8
0
 10
93.1527956338436951
 20
57.5130104962525479
 30
0.0
 42
0.0090272087772587
 50
180.0
  0
VERTEX
  5
10ED
  8
0
 10
93.2993239346647556
 20
57.5194078675603322
 30
0.0
 42
0.021587231382142
 70
     2
 50
3.5343387134001181
  0
VERTEX
  5
10EE
  8
0
 10
93.4417381415378969
 20
57.5343954769115911
 30
0.0
 50
3.5343387134001181
  0
VERTEX
  5
10EF
  8
0
 10
93.4457705440717064
 20
57.5412448126716995
 30
0.0
 50
180.0
  0
SEQEND
  5
10F0
  8
0
  0
POLYLINE
  5
10F1
  8
0
 66
     1
 10
0.0
 20
0.0
 30
0.0
  0
VERTEX
  5
10F2
  8
0
 10
93.4457705440719337
 20
57.5412448126717209
 30
0.0
 42
0.0803470550416908
 50
180.0
  0
VERTEX
  5
10F3
  8
0
 10
93.4062459909888645
 20
57.7856184017914032
 30
0.0
 42
0.0890368192332178
 50
180.0
  0
VERTEX
  5
10F4
  8
0
 10
93.2993239346648124
 20
57.9821290432649405
 30
0.0
 42
0.1049083465716828
 70
     2
 50
128.7267845612261965
  0
VERTEX
  5
10F5
  8
0
 10
93.1312465692012239
 20
58.1196763274407786
 30
0.0
 42
0.1149585868589446
 50
128.7267845612261965
  0
VERTEX
  5
10F6
  8
0
 10
92.9457705440705126
 20
58.1656679552203073
 30
0.0
 42
0.119763324839129
 50
180.0
  0
SEQEND
  5
10F7
  8
0
  0
POLYLINE
  5
10F8
  8
0
 66
     1
 10
0.0
 20
0.0
 30
0.0
  0
VERTEX
  5
10F9
  8
0
 10
83.9457705440705126
 20
57.5412448126717209
 30
0.0
 42
-0.0803470550416908
 50
180.0
  0
VERTEX
  5
10FA
  8
0
 10
83.9852950971535961
 20
57.7856184017914032
 30
0.0
 42
-0.0890368192332178
 50
180.0
  0
VERTEX
  5
10FB
  8
0
 10
84.0922171534776339
 20
57.9821290432649405
 30
0.0
 42
-0.1049083465716828
 70
     2
 50
51.2732154387738603
  0
VERTEX
  5
10FC
  8
0
 10
84.2602945189411798
 20
58.1196763274407786
 30
0.0
 42
-0.1149585868589616
 50
180.0
  0
VERTEX
  5
10FD
  8
0
 10
84.4457705440719337
 20
58.1656679552203073
 30
0.0
 42
-0.119763324839129
 50
180.0
  0
SEQEND
  5
10FE
  8
0
  0
POLYLINE
  5
10FF
  8
0
 66
     1
 10
0.0
 20
0.0
 30
0.0
  0
VERTEX
  5
1100
  8
0
 10
84.4457705440719337
 20
57.5103627087346325
 30
0.0
 42
-0.0063945854363995
 50
180.0
  0
VERTEX
  5
1101
  8
0
 10
84.2387454542987371
 20
57.5130104962525479
 30
0.0
 42
-0.0090272087772587
 50
180.0
  0
VERTEX
  5
1102
  8
0
 10
84.0922171534776908
 20
57.5194078675603322
 30
0.0
 42
-0.021587231382142
 70
     2
 50
176.4656612865998966
  0
VERTEX
  5
1103
  8
0
 10
83.9498029466045068
 20
57.5343954769115911
 30
0.0
 50
180.0
  0
VERTEX
  5
1104
  8
0
 10
83.94577054407074
 20
57.5412448126716995
 30
0.0
 50
180.0
  0
SEQEND
  5
1105
  8
0
  0
POLYLINE
  5
1106
  8
0
 66
     1
 10
0.0
 20
0.0
 30
0.0
  0
VERTEX
  5
1107
  8
0
 10
83.9457705440704558
 20
54.7984526402631573
 30
0.0
 42
-0.061112938037691
 50
180.0
  0
VERTEX
  5
1108
  8
0
 10
83.9866269741142446
 20
55.1314741011483989
 30
0.0
 42
-0.0744665224447995
 50
180.0
  0
VERTEX
  5
1109
  8
0
 10
84.0922171534775771
 20
55.3863137172875781
 30
0.0
 42
-0.1069586370034828
 70
     2
 50
58.9763155718985317
  0
VERTEX
  5
110A
  8
0
 10
84.2696437127021341
 20
55.5750304559541135
 30
0.0
 42
-0.1427675426463604
 50
180.0
  0
VERTEX
  5
110B
  8
0
 10
84.4457705440718769
 20
55.6315112552541535
 30
0.0
 42
-0.1519322921768134
 50
180.0
  0
SEQEND
  5
110C
  8
0
  0
POLYLINE
  5
110D
  8
0
 66
     1
 10
0.0
 20
0.0
 30
0.0
  0
VERTEX
  5
110E
  8
0
 10
84.4457705440718769
 20
54.4206650457033518
 30
0.0
 42
-0.0759738029860677
 50
180.0
  0
VERTEX
  5
110F
  8
0
 10
84.2487596960750693
 20
54.4507741627950921
 30
0.0
 42
-0.0861489681664724
 50
180.0
  0
VERTEX
  5
1110
  8
0
 10
84.0922171534776339
 20
54.5313164703017392
 30
0.0
 42
-0.1059611842089019
 70
     2
 50
142.9262105739319111
  0
VERTEX
  5
1111
  8
0
 10
83.9732501920432242
 20
54.6689996206927518
 30
0.0
 42
-0.1471982240755334
 50
180.0
  0
VERTEX
  5
1112
  8
0
 10
83.9457705440706263
 20
54.7984526402631218
 30
0.0
 42
-0.1260278403512851
 50
180.0
  0
SEQEND
  5
1113
  8
0
  0
POLYLINE
  5
1114
  8
0
 66
     1
 10
0.0
 20
0.0
 30
0.0
  0
VERTEX
  5
1115
  8
0
 10
83.9457705440736959
 20
50.6938966682358867
 30
0.0
 42
-0.0558453538950165
 50
180.0
  0
VERTEX
  5
1116
  8
0
 10
83.9869444630965063
 20
51.0613892787449188
 30
0.0
 42
-0.0696234494827605
 50
180.0
  0
VERTEX
  5
1117
  8
0
 10
84.0922171534798508
 20
51.3392380716884418
 30
0.0
 42
-0.1059514344510999
 70
     2
 50
61.2836567618640089
  0
VERTEX
  5
1118
  8
0
 10
84.2729995497176105
 20
51.548585205525228
 30
0.0
 42
-0.1511721533580949
 50
180.0
  0
VERTEX
  5
1119
  8
0
 10
84.4457705440718769
 20
51.6087651332320334
 30
0.0
 42
-0.1632707906765776
 50
180.0
  0
SEQEND
  5
111A
  8
0
  0
POLYLINE
  5
111B
  8
0
 66
     1
 10
0.0
 20
0.0
 30
0.0
  0
VERTEX
  5
111C
  8
0
 10
84.4457705440718769
 20
50.0267183196720069
 30
0.0
 42
-0.126904853429963
 50
180.0
  0
VERTEX
  5
111D
  8
0
 10
84.2623346049953739
 20
50.0740382211246313
 30
0.0
 42
-0.1060810122797594
 50
180.0
  0
VERTEX
  5
111E
  8
0
 10
84.0922171534775771
 20
50.2221303337055502
 30
0.0
 42
-0.085744797149215
 70
     2
 50
126.8487996170587024
  0
VERTEX
  5
111F
  8
0
 10
83.9746602065271759
 20
50.452380282007212
 30
0.0
 42
-0.0912209683726037
 50
180.0
  0
VERTEX
  5
1120
  8
0
 10
83.9457705440714079
 20
50.6938966682358512
 30
0.0
 42
-0.0753899821444356
 50
180.0
  0
SEQEND
  5
1121
  8
0
  0
ARC
  5
1122
  8
0
 10
84.9288433748953935
 20
45.8536586541999682
 30
0.0
 40
0.9830735636114077
 50
119.4320041556556049
 51
240.5679958443444093
  0
LINE
  5
1123
  8
0
 10
84.4457705440718769
 20
50.0267183196720069
 30
0.0
 11
84.4457705440718769
 21
46.7086559011857219
 31
0.0
  0
LINE
  5
1124
  8
0
 10
84.4457705440718769
 20
54.4206650457033234
 30
0.0
 11
84.4457705440718769
 21
51.6087651332320618
 31
0.0
  0
LINE
  5
1125
  8
0
 10
84.4457705440719337
 20
57.5103627087345899
 30
0.0
 11
84.4457705440718769
 21
55.6315112552541109
 31
0.0
  0
LINE
  5
1126
  8
2
 10
83.4457705440718769
 20
56.1036586541999966
 30
0.0
 11
87.1457705440718655
 21
53.3536586541999966
 31
0.0
  0
LINE
  5
1127
  8
2
 10
87.6457705440718655
 20
53.3536586541999966
 30
0.0
 11
87.1457705440718655
 21
53.3536586541999966
 31
0.0
  0
LINE
  5
1128
  8
0
 10
84.4457705440716495
 20
58.8243835612632111
 30
0.0
 11
92.9457705440663062
 21
58.8243835612632111
 31
0.0
  0
POLYLINE
  5
1129
  8
0
 66
     1
 10
0.0
 20
0.0
 30
0.0
  0
VERTEX
  5
112A
  8
0
 10
83.9449776109640737
 20
58.3528657210923996
 30
0.0
 42
0.0932326856578775
 50
90.0
  0
VERTEX
  5
112B
  8
0
 10
84.1380093025641713
 20
58.3891750600319099
 30
0.0
 42
0.0961553825390117
 50
90.0
  0
VERTEX
  5
112C
  8
0
 10
84.2990916899347553
 20
58.4909700990280115
 30
0.0
 42
0.1005995558164784
 70
     2
 50
43.2754148837487875
  0
VERTEX
  5
112D
  8
0
 10
84.4081269094301661
 20
58.6453349274406506
 30
0.0
 42
0.1039846014298173
 50
43.2754148837487875
  0
VERTEX
  5
112E
  8
0
 10
84.4457705440716495
 20
58.8243835612632111
 30
0.0
 42
0.1039846014297789
 50
90.0
  0
SEQEND
  5
112F
  8
0
  0
POLYLINE
  5
1130
  8
0
 66
     1
 10
0.0
 20
0.0
 30
0.0
  0
VERTEX
  5
1131
  8
0
 10
92.9457705440702853
 20
58.8243835612632111
 30
0.0
 42
0.0060619562265407
 50
90.0
  0
VERTEX
  5
1132
  8
0
 10
93.1528039033553341
 20
58.8268937078272884
 30
0.0
 42
0.008559181375748
 50
90.0
  0
VERTEX
  5
1133
  8
0
 10
93.2993239346645282
 20
58.8329580374646994
 30
0.0
 42
0.0204875976357465
 70
     2
 50
3.3508529875824729
  0
VERTEX
  5
1134
  8
0
 10
93.4419496808750978
 20
58.8471895304546493
 30
0.0
 50
3.3508529875824729
  0
VERTEX
  5
1135
  8
0
 10
93.4457705440718769
 20
58.8536586541999895
 30
0.0
 50
90.0
  0
SEQEND
  5
1136
  8
0
  0
POLYLINE
  5
1137
  8
0
 66
     1
 10
0.0
 20
0.0
 30
0.0
  0
VERTEX
  5
1138
  8
0
 10
92.9457705440706832
 20
32.8829337471367822
 30
0.0
 42
-0.0060619562265407
 50
90.0
  0
VERTEX
  5
1139
  8
0
 10
93.1528039033557747
 20
32.880423600572712
 30
0.0
 42
-0.008559181375748
 50
90.0
  0
VERTEX
  5
113A
  8
0
 10
93.2993239346649688
 20
32.8743592709352868
 30
0.0
 42
-0.0204875976357465
 70
     2
 50
356.6491470124175862
  0
VERTEX
  5
113B
  8
0
 10
93.4419496808754957
 20
32.8601277779453369
 30
0.0
 50
90.0
  0
VERTEX
  5
113C
  8
0
 10
93.4457705440723316
 20
32.8536586541999966
 30
0.0
 50
90.0
  0
SEQEND
  5
113D
  8
0
  0
POLYLINE
  5
113E
  8
0
 66
     1
 10
0.0
 20
0.0
 30
0.0
  0
VERTEX
  5
113F
  8
0
 10
83.9449776109644858
 20
33.3544515873075866
 30
0.0
 42
-0.0932326856578775
 50
90.0
  0
VERTEX
  5
1140
  8
0
 10
84.1380093025646261
 20
33.3181422483680834
 30
0.0
 42
-0.0961553825390117
 50
90.0
  0
VERTEX
  5
1141
  8
0
 10
84.2990916899352101
 20
33.2163472093719818
 30
0.0
 42
-0.1005995558164784
 70
     2
 50
316.7245851162513191
  0
VERTEX
  5
1142
  8
0
 10
84.408126909430564
 20
33.0619823809593427
 30
0.0
 42
-0.1039846014298173
 50
90.0
  0
VERTEX
  5
1143
  8
0
 10
84.4457705440721043
 20
32.8829337471367822
 30
0.0
 42
-0.1039846014297789
 50
90.0
  0
SEQEND
  5
1144
  8
0
  0
LINE
  5
1145
  8
0
 10
84.4457705440721043
 20
32.8829337471367822
 30
0.0
 11
92.945770544066761
 21
32.8829337471367822
 31
0.0
  0
LINE
  5
1146
  8
0
 10
84.4457705440718769
 20
34.1969545996653679
 30
0.0
 11
84.4457705440718769
 21
36.0758060531458185
 31
0.0
  0
LINE
  5
1147
  8
0
 10
84.4457705440718769
 20
37.2866522626966983
 30
0.0
 11
84.4457705440718769
 21
40.0985521751679599
 31
0.0
  0
LINE
  5
1148
  8
0
 10
84.4457705440718769
 20
41.6805989887280077
 30
0.0
 11
84.4457705440718769
 21
44.9974610884525603
 31
0.0
  0
POLYLINE
  5
1149
  8
0
 66
     1
 10
0.0
 20
0.0
 30
0.0
  0
VERTEX
  5
114A
  8
0
 10
84.4457705440718769
 20
41.6805989887280077
 30
0.0
 42
0.126904853429963
 50
90.0
  0
VERTEX
  5
114B
  8
0
 10
84.2623346049954449
 20
41.6332790872753904
 30
0.0
 42
0.1060810122797594
 50
90.0
  0
VERTEX
  5
114C
  8
0
 10
84.0922171534776339
 20
41.4851869746944715
 30
0.0
 42
0.085744797149215
 70
     2
 50
233.1512003829413118
  0
VERTEX
  5
114D
  8
0
 10
83.9746602065272754
 20
41.2549370263928097
 30
0.0
 42
0.0912209683726037
 50
90.0
  0
VERTEX
  5
114E
  8
0
 10
83.9457705440715358
 20
41.0134206401641634
 30
0.0
 42
0.0753899821444356
 50
90.0
  0
SEQEND
  5
114F
  8
0
  0
POLYLINE
  5
1150
  8
0
 66
     1
 10
0.0
 20
0.0
 30
0.0
  0
VERTEX
  5
1151
  8
0
 10
83.9457705440736959
 20
41.0134206401641279
 30
0.0
 42
0.0558453538950165
 50
90.0
  0
VERTEX
  5
1152
  8
0
 10
83.9869444630965631
 20
40.6459280296551029
 30
0.0
 42
0.0696234494827605
 50
90.0
  0
VERTEX
  5
1153
  8
0
 10
84.0922171534799077
 20
40.3680792367115728
 30
0.0
 42
0.1059514344510999
 70
     2
 50
298.7163432381360053
  0
VERTEX
  5
1154
  8
0
 10
84.2729995497176674
 20
40.1587321028747866
 30
0.0
 42
0.1511721533578267
 50
90.0
  0
VERTEX
  5
1155
  8
0
 10
84.4457705440718769
 20
40.0985521751679599
 30
0.0
 42
0.1632707906765776
 50
90.0
  0
SEQEND
  5
1156
  8
0
  0
POLYLINE
  5
1157
  8
0
 66
     1
 10
0.0
 20
0.0
 30
0.0
  0
VERTEX
  5
1158
  8
0
 10
84.4457705440719906
 20
37.2866522626966983
 30
0.0
 42
0.0759738029860677
 50
90.0
  0
VERTEX
  5
1159
  8
0
 10
84.2487596960751262
 20
37.2565431456049581
 30
0.0
 42
0.0861489681664724
 50
90.0
  0
VERTEX
  5
115A
  8
0
 10
84.0922171534776908
 20
37.1760008380983109
 30
0.0
 42
0.1059611842089019
 70
     2
 50
217.0737894260680889
  0
VERTEX
  5
115B
  8
0
 10
83.9732501920432952
 20
37.0383176877072984
 30
0.0
 42
0.1471982240755334
 50
90.0
  0
VERTEX
  5
115C
  8
0
 10
83.94577054407074
 20
36.9088646681369212
 30
0.0
 42
0.1260278403512851
 50
90.0
  0
SEQEND
  5
115D
  8
0
  0
POLYLINE
  5
115E
  8
0
 66
     1
 10
0.0
 20
0.0
 30
0.0
  0
VERTEX
  5
115F
  8
0
 10
83.9457705440705126
 20
36.9088646681368928
 30
0.0
 42
0.061112938037691
 50
90.0
  0
VERTEX
  5
1160
  8
0
 10
83.9866269741143583
 20
36.5758432072516513
 30
0.0
 42
0.0744665224447995
 50
90.0
  0
VERTEX
  5
1161
  8
0
 10
84.0922171534776339
 20
36.321003591112472
 30
0.0
 42
0.1069586370034828
 70
     2
 50
301.0236844281014896
  0
VERTEX
  5
1162
  8
0
 10
84.2696437127022477
 20
36.1322868524459366
 30
0.0
 42
0.142767542645802
 50
90.0
  0
VERTEX
  5
1163
  8
0
 10
84.4457705440718769
 20
36.0758060531458185
 30
0.0
 42
0.1519322921768134
 50
90.0
  0
SEQEND
  5
1164
  8
0
  0
POLYLINE
  5
1165
  8
0
 66
     1
 10
0.0
 20
0.0
 30
0.0
  0
VERTEX
  5
1166
  8
0
 10
84.4457705440718769
 20
34.1969545996653395
 30
0.0
 42
0.0063945854363995
 50
90.0
  0
VERTEX
  5
1167
  8
0
 10
84.2387454542986802
 20
34.1943068121474099
 30
0.0
 42
0.0090272087772587
 50
90.0
  0
VERTEX
  5
1168
  8
0
 10
84.0922171534776339
 20
34.1879094408396398
 30
0.0
 42
0.021587231382142
 70
     2
 50
183.5343387134001034
  0
VERTEX
  5
1169
  8
0
 10
83.9498029466045068
 20
34.1729218314883809
 30
0.0
 50
90.0
  0
VERTEX
  5
116A
  8
0
 10
83.9457705440706832
 20
34.1660724957282724
 30
0.0
 50
90.0
  0
SEQEND
  5
116B
  8
0
  0
POLYLINE
  5
116C
  8
0
 66
     1
 10
0.0
 20
0.0
 30
0.0
  0
VERTEX
  5
116D
  8
0
 10
83.9457705440704558
 20
34.1660724957282369
 30
0.0
 42
0.0803470550416908
 50
90.0
  0
VERTEX
  5
116E
  8
0
 10
83.9852950971535392
 20
33.9216989066085617
 30
0.0
 42
0.0890368192332178
 50
90.0
  0
VERTEX
  5
116F
  8
0
 10
84.0922171534776339
 20
33.7251882651350172
 30
0.0
 42
0.1049083465716828
 70
     2
 50
308.7267845612262249
  0
VERTEX
  5
1170
  8
0
 10
84.2602945189411798
 20
33.5876409809591934
 30
0.0
 42
0.1149585868589762
 50
90.0
  0
VERTEX
  5
1171
  8
0
 10
84.4457705440718769
 20
33.5416493531796576
 30
0.0
 42
0.119763324839129
 50
90.0
  0
SEQEND
  5
1172
  8
0
  0
POLYLINE
  5
1173
  8
0
 66
     1
 10
0.0
 20
0.0
 30
0.0
  0
VERTEX
  5
1174
  8
0
 10
93.4457705440718769
 20
34.1660724957282369
 30
0.0
 42
-0.0803470550416908
 50
90.0
  0
VERTEX
  5
1175
  8
0
 10
93.4062459909887792
 20
33.9216989066085617
 30
0.0
 42
-0.0890368192332178
 50
90.0
  0
VERTEX
  5
1176
  8
0
 10
93.2993239346647556
 20
33.7251882651350172
 30
0.0
 42
-0.1049083465716828
 70
     2
 50
231.2732154387738035
  0
VERTEX
  5
1177
  8
0
 10
93.1312465692012239
 20
33.5876409809591934
 30
0.0
 42
-0.1149585868589762
 50
90.0
  0
VERTEX
  5
1178
  8
0
 10
92.9457705440704558
 20
33.5416493531796576
 30
0.0
 42
-0.119763324839129
 50
90.0
  0
SEQEND
  5
1179
  8
0
  0
POLYLINE
  5
117A
  8
0
 66
     1
 10
0.0
 20
0.0
 30
0.0
  0
VERTEX
  5
117B
  8
0
 10
92.9457705440704558
 20
34.1969545996653395
 30
0.0
 42
-0.0063945854363995
 50
90.0
  0
VERTEX
  5
117C
  8
0
 10
93.1527956338436525
 20
34.1943068121474099
 30
0.0
 42
-0.0090272087772587
 50
90.0
  0
VERTEX
  5
117D
  8
0
 10
93.2993239346647556
 20
34.1879094408396398
 30
0.0
 42
-0.021587231382142
 70
     2
 50
356.465661286599925
  0
VERTEX
  5
117E
  8
0
 10
93.4417381415378969
 20
34.1729218314883809
 30
0.0
 50
90.0
  0
VERTEX
  5
117F
  8
0
 10
93.4457705440716637
 20
34.1660724957282724
 30
0.0
 50
90.0
  0
SEQEND
  5
1180
  8
0
  0
POLYLINE
  5
1181
  8
0
 66
     1
 10
0.0
 20
0.0
 30
0.0
  0
VERTEX
  5
1182
  8
0
 10
93.4457705440719337
 20
36.9088646681368928
 30
0.0
 42
-0.061112938037691
 50
90.0
  0
VERTEX
  5
1183
  8
0
 10
93.4049141140281449
 20
36.5758432072516513
 30
0.0
 42
-0.0744665224447995
 50
90.0
  0
VERTEX
  5
1184
  8
0
 10
93.2993239346647556
 20
36.321003591112472
 30
0.0
 42
-0.1069586370034828
 70
     2
 50
238.9763155718985104
  0
VERTEX
  5
1185
  8
0
 10
93.1218973754402555
 20
36.1322868524459366
 30
0.0
 42
-0.1427675426460051
 50
90.0
  0
VERTEX
  5
1186
  8
0
 10
92.945770544070399
 20
36.0758060531458185
 30
0.0
 42
-0.1519322921768134
 50
90.0
  0
SEQEND
  5
1187
  8
0
  0
POLYLINE
  5
1188
  8
0
 66
     1
 10
0.0
 20
0.0
 30
0.0
  0
VERTEX
  5
1189
  8
0
 10
92.9457705440705126
 20
37.2866522626966983
 30
0.0
 42
-0.0759738029860677
 50
90.0
  0
VERTEX
  5
118A
  8
0
 10
93.1427813920673344
 20
37.2565431456049581
 30
0.0
 42
-0.0861489681664724
 50
90.0
  0
VERTEX
  5
118B
  8
0
 10
93.2993239346647556
 20
37.1760008380983109
 30
0.0
 42
-0.1059611842089019
 70
     2
 50
322.9262105739318827
  0
VERTEX
  5
118C
  8
0
 10
93.418290896099208
 20
37.0383176877072984
 30
0.0
 42
-0.1471982240755334
 50
90.0
  0
VERTEX
  5
118D
  8
0
 10
93.4457705440717632
 20
36.9088646681369212
 30
0.0
 42
-0.1260278403512851
 50
90.0
  0
SEQEND
  5
118E
  8
0
  0
POLYLINE
  5
118F
  8
0
 66
     1
 10
0.0
 20
0.0
 30
0.0
  0
VERTEX
  5
1190
  8
0
 10
93.4457705440686937
 20
41.0134206401641279
 30
0.0
 42
-0.0558453538950165
 50
90.0
  0
VERTEX
  5
1191
  8
0
 10
93.4045966250458264
 20
40.6459280296551029
 30
0.0
 42
-0.0696234494827605
 50
90.0
  0
VERTEX
  5
1192
  8
0
 10
93.2993239346624961
 20
40.3680792367115728
 30
0.0
 42
-0.1059514344510999
 70
     2
 50
241.2836567618641084
  0
VERTEX
  5
1193
  8
0
 10
93.1185415384247364
 20
40.1587321028747866
 30
0.0
 42
-0.1511721533581735
 50
90.0
  0
VERTEX
  5
1194
  8
0
 10
92.945770544070399
 20
40.0985521751679883
 30
0.0
 42
-0.1632707906765776
 50
90.0
  0
SEQEND
  5
1195
  8
0
  0
POLYLINE
  5
1196
  8
0
 66
     1
 10
0.0
 20
0.0
 30
0.0
  0
VERTEX
  5
1197
  8
0
 10
92.9457705440705126
 20
41.6805989887280077
 30
0.0
 42
-0.126904853429963
 50
90.0
  0
VERTEX
  5
1198
  8
0
 10
93.1292064831470157
 20
41.6332790872753904
 30
0.0
 42
-0.1060810122797594
 50
90.0
  0
VERTEX
  5
1199
  8
0
 10
93.2993239346647556
 20
41.4851869746944715
 30
0.0
 42
-0.085744797149215
 70
     2
 50
306.8487996170587735
  0
VERTEX
  5
119A
  8
0
 10
93.4168808816150857
 20
41.2549370263928097
 30
0.0
 42
-0.0912209683726037
 50
90.0
  0
VERTEX
  5
119B
  8
0
 10
93.4457705440708537
 20
41.0134206401641634
 30
0.0
 42
-0.0753899821444356
 50
90.0
  0
SEQEND
  5
119C
  8
0
  0
LINE
  5
119D
  8
0
 10
84.4457705440714648
 20
44.9974610884527522
 30
0.0
 11
92.9457705440700437
 21
44.9974610884527806
 31
0.0
  0
LINE
  5
119E
  8
0
 10
84.4457705440718769
 20
41.6805989887280077
 30
0.0
 11
92.9457705440705126
 21
41.6805989887280077
 31
0.0
  0
LINE
  5
119F
  8
0
 10
84.4457705440718769
 20
40.0985521751679599
 30
0.0
 11
92.945770544070399
 21
40.0985521751679883
 31
0.0
  0
LINE
  5
11A0
  8
0
 10
84.4457705440719337
 20
37.2866522626966983
 30
0.0
 11
92.9457705440705126
 21
37.2866522626966983
 31
0.0
  0
LINE
  5
11A1
  8
0
 10
84.4457705440718769
 20
36.0758060531458185
 30
0.0
 11
92.945770544070399
 21
36.0758060531458185
 31
0.0
  0
LINE
  5
11A2
  8
0
 10
84.4457705440718769
 20
34.1969545996653679
 30
0.0
 11
92.9457705440704558
 21
34.1969545996653395
 31
0.0
  0
LINE
  5
11A3
  8
0
 10
84.4457705440718769
 20
33.5416493531796576
 30
0.0
 11
92.9457705440704558
 21
33.5416493531796576
 31
0.0
  0
LINE
  5
11A4
  8
0
 10
84.4457705440718058
 20
32.8829337471367467
 30
0.0
 11
84.4457705440718769
 21
33.5416493531796576
 31
0.0
  0
LINE
  5
11A5
  8
0
 10
83.4457705440721043
 20
33.8536586541999966
 30
0.0
 11
83.9449776109685644
 21
33.354451587303501
 31
0.0
  0
ENDSEC
  0
EOF
