  0
SECTION
  2
HEADER
  9
$ACADVER
  1
AC1009
  9
$INSBASE
 10
0.0
 20
0.0
 30
0.0
  9
$EXTMIN
 10
0.0
 20
-2.960436562073669
 30
0.0
  9
$EXTMAX
 10
206.97401777661869
 20
187.84959316798449
 30
0.0
  9
$LIMMIN
 10
0.0
 20
0.0
  9
$LIMMAX
 10
187.5
 20
135.0
  9
$ORTHOMODE
 70
     1
  9
$REGENMODE
 70
     1
  9
$FILLMODE
 70
     1
  9
$QTEXTMODE
 70
     0
  9
$MIRRTEXT
 70
     0
  9
$DRAGMODE
 70
     2
  9
$LTSCALE
 40
5.0
  9
$OSMODE
 70
    55
  9
$ATTMODE
 70
     1
  9
$TEXTSIZE
 40
5.0
  9
$TRACEWID
 40
0.05
  9
$TEXTSTYLE
  7
STANDARD
  9
$CLAYER
  8
0
  9
$CELTYPE
  6
BYLAYER
  9
$CECOLOR
 62
   256
  9
$DIMSCALE
 40
0.5
  9
$DIMASZ
 40
3.0
  9
$DIMEXO
 40
2.0
  9
$DIMDLI
 40
0.38
  9
$DIMRND
 40
0.0
  9
$DIMDLE
 40
0.0
  9
$DIMEXE
 40
2.0
  9
$DIMTP
 40
0.0
  9
$DIMTM
 40
0.0
  9
$DIMTXT
 40
3.0
  9
$DIMCEN
 40
0.09
  9
$DIMTSZ
 40
0.0
  9
$DIMTOL
 70
     0
  9
$DIMLIM
 70
     0
  9
$DIMTIH
 70
     0
  9
$DIMTOH
 70
     0
  9
$DIMSE1
 70
     0
  9
$DIMSE2
 70
     0
  9
$DIMTAD
 70
     1
  9
$DIMZIN
 70
     8
  9
$DIMBLK
  1

  9
$DIMASO
 70
     0
  9
$DIMSHO
 70
     0
  9
$DIMPOST
  1

  9
$DIMAPOST
  1

  9
$DIMALT
 70
     0
  9
$DIMALTD
 70
     2
  9
$DIMALTF
 40
25.399999999999999
  9
$DIMLFAC
 40
1.0
  9
$DIMTOFL
 70
     0
  9
$DIMTVP
 40
1.6000000000000001
  9
$DIMTIX
 70
     1
  9
$DIMSOXD
 70
     0
  9
$DIMSAH
 70
     0
  9
$DIMBLK1
  1

  9
$DIMBLK2
  1

  9
$DIMSTYLE
  2
STANDARD
  9
$DIMCLRD
 70
     0
  9
$DIMCLRE
 70
     0
  9
$DIMCLRT
 70
     0
  9
$DIMTFAC
 40
1.0
  9
$DIMGAP
 40
0.09
  9
$LUNITS
 70
     2
  9
$LUPREC
 70
     4
  9
$SKETCHINC
 40
0.1
  9
$FILLETRAD
 40
0.3
  9
$AUNITS
 70
     0
  9
$AUPREC
 70
     0
  9
$MENU
  1
E:\r13\win\SUPPORT\ACAD
  9
$ELEVATION
 40
0.0
  9
$PELEVATION
 40
0.0
  9
$THICKNESS
 40
0.0
  9
$LIMCHECK
 70
     0
  9
$BLIPMODE
 70
     0
  9
$CHAMFERA
 40
0.0
  9
$CHAMFERB
 40
0.0
  9
$SKPOLY
 70
     0
  9
$TDCREATE
 40
2449839.7836226849
  9
$TDUPDATE
 40
2456598.678240845
  9
$TDINDWG
 40
0.025814919
  9
$TDUSRTIMER
 40
0.025814919
  9
$USRTIMER
 70
     1
  9
$ANGBASE
 50
0.0
  9
$ANGDIR
 70
     0
  9
$PDMODE
 70
     0
  9
$PDSIZE
 40
0.0
  9
$PLINEWID
 40
0.0
  9
$COORDS
 70
     1
  9
$SPLFRAME
 70
     0
  9
$SPLINETYPE
 70
     6
  9
$SPLINESEGS
 70
     8
  9
$ATTDIA
 70
     0
  9
$ATTREQ
 70
     1
  9
$HANDLING
 70
     1
  9
$HANDSEED
  5
EE4
  9
$SURFTAB1
 70
     6
  9
$SURFTAB2
 70
     6
  9
$SURFTYPE
 70
     6
  9
$SURFU
 70
     6
  9
$SURFV
 70
     6
  9
$UCSNAME
  2

  9
$UCSORG
 10
0.0
 20
0.0
 30
0.0
  9
$UCSXDIR
 10
1.0
 20
0.0
 30
0.0
  9
$UCSYDIR
 10
0.0
 20
1.0
 30
0.0
  9
$PUCSNAME
  2

  9
$PUCSORG
 10
0.0
 20
0.0
 30
0.0
  9
$PUCSXDIR
 10
1.0
 20
0.0
 30
0.0
  9
$PUCSYDIR
 10
0.0
 20
1.0
 30
0.0
  9
$USERI1
 70
     0
  9
$USERI2
 70
     1
  9
$USERI3
 70
     1
  9
$USERI4
 70
     0
  9
$USERI5
 70
     0
  9
$USERR1
 40
0.0
  9
$USERR2
 40
0.0
  9
$USERR3
 40
0.0
  9
$USERR4
 40
0.0
  9
$USERR5
 40
0.0
  9
$WORLDVIEW
 70
     1
  9
$SHADEDGE
 70
     3
  9
$SHADEDIF
 70
    70
  9
$TILEMODE
 70
     1
  9
$MAXACTVP
 70
    16
  9
$PLIMCHECK
 70
     0
  9
$PEXTMIN
 10
1.0000000000000000E+020
 20
1.0000000000000000E+020
 30
1.0000000000000000E+020
  9
$PEXTMAX
 10
-1.0000000000000000E+020
 20
-1.0000000000000000E+020
 30
-1.0000000000000000E+020
  9
$PLIMMIN
 10
0.0
 20
0.0
  9
$PLIMMAX
 10
12.0
 20
9.0
  9
$UNITMODE
 70
     0
  9
$VISRETAIN
 70
     0
  9
$PLINEGEN
 70
     0
  9
$PSLTSCALE
 70
     0
  0
ENDSEC
  0
SECTION
  2
TABLES
  0
TABLE
  2
VPORT
 70
     1
  0
VPORT
  2
*ACTIVE
 70
     0
 10
0.0
 20
0.0
 11
1.0
 21
1.0
 12
103.4870093702083
 22
121.38569605763659
 13
0.0
 23
0.0
 14
5.0
 24
5.0
 15
5.0
 25
5.0
 16
0.0
 26
0.0
 36
1.0
 17
0.0
 27
0.0
 37
0.0
 40
250.90963860495009
 41
1.7807262569832401
 42
50.0
 43
0.0
 44
0.0
 50
0.0
 51
0.0
 71
     0
 72
   500
 73
     1
 74
     0
 75
     0
 76
     0
 77
     0
 78
     2
  0
ENDTAB
  0
TABLE
  2
LTYPE
 70
     4
  0
LTYPE
  2
CONTINUOUS
 70
     0
  3
Solid Line
 72
    65
 73
     0
 40
0.0
  0
LTYPE
  2
CENTER
 70
     0
  3
____ _ ____ _ ____ _ ____ _ ____ _ ____ _ ____
 72
    65
 73
     4
 40
2.0
 49
1.25
 49
-0.25
 49
0.25
 49
-0.25
  0
LTYPE
  2
HIDDEN
 70
     0
  3
_ _ _ _ _ _ _ _ _ _ _ _ _ _ _ _ _ _ _ _ _ _ _
 72
    65
 73
     2
 40
0.375
 49
0.25
 49
-0.125
  0
LTYPE
  2
PHANTOM2
 70
     0
  3
___ _ _ ___ _ _ ___ _ _ ___ _ _
 72
    65
 73
     6
 40
1.25
 49
0.625
 49
-0.125
 49
0.125
 49
-0.125
 49
0.125
 49
-0.125
  0
ENDTAB
  0
TABLE
  2
LAYER
 70
     4
  0
LAYER
  2
0
 70
     0
 62
     7
  6
CONTINUOUS
  0
LAYER
  2
1
 70
     0
 62
     1
  6
CENTER
  0
LAYER
  2
3
 70
     0
 62
     3
  6
CONTINUOUS
  0
LAYER
  2
2
 70
     0
 62
     2
  6
HIDDEN
  0
ENDTAB
  0
TABLE
  2
STYLE
 70
     2
  0
STYLE
  2
STANDARD
 70
     0
 40
0.0
 41
1.0
 50
0.0
 71
     0
 42
5.0
  3
TXT
  4
BIGFONT
  0
STYLE
  2
STANDARD1
 70
     0
 40
0.0
 41
1.0
 50
0.0
 71
     0
 42
3.0
  3
txt
  4

  0
ENDTAB
  0
TABLE
  2
VIEW
 70
     1
  0
VIEW
  2
ALL
 70
     0
 40
135.0
 10
110.4957983193277
 20
67.5
 41
0.0
 11
0.0
 21
0.0
 31
1.0
 12
0.0
 22
0.0
 32
0.0
 42
0.0
 43
0.0
 44
0.0
 50
0.0
 71
     0
  0
ENDTAB
  0
TABLE
  2
UCS
 70
     0
  0
ENDTAB
  0
TABLE
  2
APPID
 70
    10
  0
APPID
  2
ACAD
 70
     0
  0
APPID
  2
GENIUS_GENODEF_13
 70
     0
  0
APPID
  2
GENIUS_GENOBJ-N-FIL_13
 70
     0
  0
APPID
  2
GENIUS_GENFIL_13
 70
     0
  0
APPID
  2
GENIUS_GENOBJ-N-CHA_13
 70
     0
  0
APPID
  2
GENIUS_GENOREF_13
 70
     0
  0
APPID
  2
ACAD_DSTYLE_DIMJAG
 70
     0
  0
APPID
  2
ACAD_DSTYLE_DIMTALN
 70
     0
  0
APPID
  2
ACAD_MLEADERVER
 70
     0
  0
APPID
  2
ACAD_NAV_VCDISPLAY
 70
     0
  0
ENDTAB
  0
TABLE
  2
DIMSTYLE
 70
     1
  0
DIMSTYLE
  2
STANDARD
 70
     0
  3

  4

  5

  6

  7

 40
1.0
 41
0.18
 42
0.0625
 43
0.38
 44
0.18
 45
0.0
 46
0.0
 47
0.0
 48
0.0
140
0.18
141
0.09
142
0.0
143
25.399999999999999
144
1.0
145
0.0
146
1.0
147
0.09
 71
     0
 72
     0
 73
     1
 74
     1
 75
     0
 76
     0
 77
     0
 78
     0
170
     0
171
     2
172
     0
173
     0
174
     0
175
     0
176
     0
177
     0
178
     0
  0
ENDTAB
  0
ENDSEC
  0
SECTION
  2
BLOCKS
  0
BLOCK
  8
0
  2
$MODEL_SPACE
 70
     0
 10
0.0
 20
0.0
 30
0.0
  3
$MODEL_SPACE
  1

  0
ENDBLK
  5
4CD
  8
0
  0
BLOCK
 67
     1
  8
0
  2
$PAPER_SPACE
 70
     0
 10
0.0
 20
0.0
 30
0.0
  3
$PAPER_SPACE
  1

  0
ENDBLK
  5
4CB
 67
     1
  8
0
  0
ENDSEC
  0
SECTION
  2
ENTITIES
  0
CIRCLE
  5
8C5
  8
0
 10
60.974017776618659
 20
116.84959316798449
 30
0.0
 40
5.5000000000000142
  0
CIRCLE
  5
8C6
  8
0
 10
60.974017776618687
 20
116.84959316798449
 30
0.0
 40
4.1879999999999988
  0
CIRCLE
  5
8C7
  8
3
 10
60.974017776618687
 20
116.84959316798449
 30
0.0
 40
5.0
  0
CIRCLE
  5
8C8
  8
3
 10
185.97401777661861
 20
116.84959316798449
 30
0.0
 40
5.0
  0
CIRCLE
  5
8C9
  8
0
 10
185.97401777661861
 20
116.84959316798449
 30
0.0
 40
4.1879999999999988
  0
ARC
  5
904
  8
0
 10
123.7465101924012
 20
167.02120216798451
 30
0.0
 40
2.4147090000000002
 50
350.738910000001
 51
0.0
  0
ARC
  5
906
  8
0
 10
125.78621819240119
 20
166.2344221679846
 30
0.0
 40
0.16582
 50
270.0
 51
316.45742899999999
  0
ARC
  5
907
  8
0
 10
125.39540219240109
 20
166.6058451679846
 30
0.0
 40
0.704979
 50
316.45742899999999
 51
338.51245800000032
  0
ARC
  5
908
  8
0
 10
124.76014619240119
 20
166.85592016798461
 30
0.0
 40
1.3876850000000001
 50
338.51245800000032
 51
350.738910000001
  0
LINE
  5
925
  8
1
 10
142.03621819240109
 20
116.84959316798449
 30
0.0
 11
110.03621819240109
 21
116.84959316798449
 31
0.0
  0
LINE
  5
926
  8
1
 10
81.974017776618666
 20
116.84959316798449
 30
0.0
 11
39.974017776618673
 21
116.84959316798459
 31
0.0
  0
LINE
  5
927
  8
1
 10
60.974017776618609
 20
95.849593167984551
 30
0.0
 11
60.974017776618659
 21
137.84959316798449
 31
0.0
  0
CIRCLE
  5
928
  8
0
 10
60.974017776618659
 20
116.84959316798449
 30
0.0
 40
16.0
  0
CIRCLE
  5
929
  8
0
 10
60.974017776618659
 20
116.84959316798449
 30
0.0
 40
15.0
  0
CIRCLE
  5
92A
  8
0
 10
60.974017776618659
 20
116.84959316798449
 30
0.0
 40
13.5
  0
CIRCLE
  5
92B
  8
0
 10
60.974017776618659
 20
116.84959316798449
 30
0.0
 40
10.5
  0
ARC
  5
92C
  8
0
 10
60.974017776618638
 20
99.924593167983673
 30
0.0
 40
1.3
 50
46.928274776697869
 51
133.07172522330211
  0
ARC
  5
92D
  8
0
 10
66.20413040641489
 20
100.7529616296882
 30
0.0
 40
1.3
 50
64.928274776697975
 51
151.07172522330211
  0
ARC
  5
92E
  8
0
 10
70.922283171669264
 20
103.1569805381878
 30
0.0
 40
1.3
 50
82.928274776697876
 51
169.07172522330211
  0
ARC
  5
92F
  8
0
 10
74.666630406415351
 20
106.9013277729339
 30
0.0
 40
1.3
 50
100.9282747766979
 51
187.07172522330211
  0
ARC
  5
930
  8
0
 10
77.070649314914974
 20
111.6194805381882
 30
0.0
 40
1.3
 50
118.9282747766979
 51
205.071725223302
  0
ARC
  5
931
  8
0
 10
77.899017776619544
 20
116.84959316798449
 30
0.0
 40
1.3
 50
136.928274776698
 51
223.07172522330211
  0
ARC
  5
932
  8
0
 10
77.070649314914931
 20
122.0797057977808
 30
0.0
 40
1.3
 50
154.92827477669789
 51
241.07172522330211
  0
ARC
  5
933
  8
0
 10
74.666630406415379
 20
126.79785856303511
 30
0.0
 40
1.3
 50
172.928274776698
 51
259.07172522330211
  0
ARC
  5
934
  8
0
 10
70.922283171669307
 20
130.54220579778121
 30
0.0
 40
1.3
 50
190.92827477669789
 51
277.07172522330211
  0
ARC
  5
935
  8
0
 10
66.204130406414933
 20
132.9462247062809
 30
0.0
 40
1.3
 50
208.928274776698
 51
295.07172522330211
  0
ARC
  5
936
  8
0
 10
60.974017776618659
 20
133.77459316798539
 30
0.0
 40
1.3
 50
226.92827477669789
 51
313.07172522330211
  0
ARC
  5
937
  8
0
 10
55.743905146822406
 20
132.9462247062809
 30
0.0
 40
1.3
 50
244.928274776698
 51
331.07172522330211
  0
ARC
  5
938
  8
0
 10
51.025752381568019
 20
130.54220579778121
 30
0.0
 40
1.3
 50
262.92827477669789
 51
349.07172522330211
  0
ARC
  5
939
  8
0
 10
47.281405146821953
 20
126.79785856303521
 30
0.0
 40
1.3
 50
280.92827477669789
 51
7.0717252233020931
  0
ARC
  5
93A
  8
0
 10
44.877386238322337
 20
122.0797057977808
 30
0.0
 40
1.3
 50
298.928274776698
 51
25.071725223302089
  0
ARC
  5
93B
  8
0
 10
44.049017776617738
 20
116.84959316798459
 30
0.0
 40
1.3
 50
316.92827477669789
 51
43.071725223302089
  0
ARC
  5
93C
  8
0
 10
44.877386238322337
 20
111.6194805381882
 30
0.0
 40
1.3
 50
334.928274776698
 51
61.071725223302089
  0
ARC
  5
93D
  8
0
 10
47.281405146821918
 20
106.9013277729339
 30
0.0
 40
1.3
 50
352.92827477669789
 51
79.071725223302096
  0
ARC
  5
93E
  8
0
 10
51.02575238156799
 20
103.1569805381878
 30
0.0
 40
1.3
 50
10.928274776697981
 51
97.071725223302096
  0
ARC
  5
93F
  8
0
 10
55.743905146822392
 20
100.7529616296882
 30
0.0
 40
1.3
 50
28.928274776697879
 51
115.0717252233021
  0
LINE
  5
940
  8
0
 10
128.03621819240109
 20
108.34959316798449
 30
0.0
 11
135.73621819240111
 21
108.34959316798449
 31
0.0
  0
LINE
  5
941
  8
0
 10
127.03621819240109
 20
100.84959316798449
 30
0.0
 11
128.03621819240109
 21
101.84959316798449
 31
0.0
  0
LINE
  5
942
  8
0
 10
135.73621819240111
 20
108.34959316798449
 30
0.0
 11
136.73621819240111
 21
109.34959316798449
 31
0.0
  0
LINE
  5
943
  8
0
 10
135.73621819240111
 20
125.34959316798449
 30
0.0
 11
136.73621819240111
 21
124.34959316798449
 31
0.0
  0
LINE
  5
944
  8
0
 10
127.03621819240109
 20
132.84959316798449
 30
0.0
 11
128.03621819240109
 21
131.84959316798449
 31
0.0
  0
LINE
  5
945
  8
0
 10
115.6612181924113
 20
132.4745931679947
 30
0.0
 11
115.03621819240109
 21
131.84959316798449
 31
0.0
  0
LINE
  5
946
  8
0
 10
136.73621819240111
 20
122.84959316798449
 30
0.0
 11
137.03621819240109
 21
122.84959316798449
 31
0.0
  0
LINE
  5
947
  8
0
 10
136.73621819240111
 20
124.34959316798449
 30
0.0
 11
136.73621819240111
 21
109.34959316798449
 31
0.0
  0
LINE
  5
948
  8
0
 10
128.03621819240109
 20
125.34959316798449
 30
0.0
 11
135.73621819240111
 21
125.34959316798449
 31
0.0
  0
LINE
  5
949
  8
0
 10
128.03621819240109
 20
131.84959316798449
 30
0.0
 11
128.03621819240109
 21
101.84959316798449
 31
0.0
  0
LINE
  5
94A
  8
0
 10
126.16121819240099
 20
132.84959316798449
 30
0.0
 11
127.03621819240109
 21
132.84959316798449
 31
0.0
  0
LINE
  5
94B
  8
0
 10
135.7362181924012
 20
125.34959316798449
 30
0.0
 11
135.7362181924012
 21
108.34959316798449
 31
0.0
  0
LINE
  5
94C
  8
0
 10
127.03621819240109
 20
132.84959316798449
 30
0.0
 11
127.03621819240109
 21
100.84959316798449
 31
0.0
  0
LINE
  5
94D
  8
0
 10
137.03621819240109
 20
110.84959316798449
 30
0.0
 11
136.73621819240111
 21
110.84959316798449
 31
0.0
  0
LINE
  5
952
  8
0
 10
115.03621819240109
 20
101.84959316798449
 30
0.0
 11
115.03621819240109
 21
131.84959316798449
 31
0.0
  0
LINE
  5
953
  8
0
 10
137.03621819240109
 20
110.84959316798449
 30
0.0
 11
137.03621819240109
 21
122.84959316798449
 31
0.0
  0
LINE
  5
954
  8
0
 10
116.03621819240109
 20
117.7373805414606
 30
0.0
 11
125.78621819240109
 21
117.7373805414606
 31
0.0
  0
LINE
  5
955
  8
0
 10
116.03621819240109
 20
120.941912093491
 30
0.0
 11
125.8205124888572
 21
120.941912093491
 31
0.0
  0
LINE
  5
956
  8
0
 10
116.03621819240109
 20
122.6305840267492
 30
0.0
 11
125.7862191460754
 21
122.6305840267492
 31
0.0
  0
LINE
  5
957
  8
0
 10
116.03621819240109
 20
125.52143370318259
 30
0.0
 11
125.8236594755339
 21
125.52143370318259
 31
0.0
  0
LINE
  5
958
  8
0
 10
116.03621819240109
 20
126.9579038482501
 30
0.0
 11
125.7862203248817
 21
126.9579038482501
 31
0.0
  0
LINE
  5
959
  8
0
 10
116.03621819240109
 20
129.25209514102329
 30
0.0
 11
125.8366770652179
 21
129.25209514102329
 31
0.0
  0
LINE
  5
95A
  8
0
 10
116.03621819240109
 20
130.2957517916247
 30
0.0
 11
125.7862191460754
 21
130.2957517916247
 31
0.0
  0
LINE
  5
95B
  8
0
 10
116.03621819240109
 20
131.7687132724304
 30
0.0
 11
125.78621819240109
 21
131.7687132724304
 31
0.0
  0
LINE
  5
95C
  8
0
 10
116.03621819240109
 20
132.31739604402159
 30
0.0
 11
125.78621819240109
 21
132.31739604402159
 31
0.0
  0
LINE
  5
95F
  8
0
 10
116.03621819240109
 20
132.82494398039231
 30
0.0
 11
116.03621819240109
 21
132.31739604402159
 31
0.0
  0
LINE
  5
960
  8
0
 10
116.03621819240109
 20
132.82494398039231
 30
0.0
 11
125.78621819240109
 21
132.82494398039231
 31
0.0
  0
POLYLINE
  5
961
  8
0
 66
     1
 10
0.0
 20
0.0
 30
0.0
  0
VERTEX
  5
962
  8
0
 10
116.03621819240109
 20
126.9579038482501
 30
0.0
 42
0.2015894264067176
 50
90.0
  0
VERTEX
  5
963
  8
0
 10
115.9151511721347
 20
126.90702453736689
 30
0.0
 42
0.0977170379735125
 50
90.0
  0
VERTEX
  5
964
  8
0
 10
115.77105314945619
 20
126.687221860638
 30
0.0
 42
0.0547927573384048
 70
     2
 50
247.9141022391737
  0
VERTEX
  5
965
  8
0
 10
115.6926521155838
 20
126.4104052806114
 30
0.0
 42
0.0416539519670256
 50
247.9141022391737
  0
VERTEX
  5
966
  8
0
 10
115.66121819240119
 20
126.0337377350549
 30
0.0
 42
0.0416539519669881
 50
90.0
  0
SEQEND
  5
967
  8
0
  0
POLYLINE
  5
968
  8
0
 66
     1
 10
0.0
 20
0.0
 30
0.0
  0
VERTEX
  5
969
  8
0
 10
115.66121819240119
 20
126.033737735055
 30
0.0
 42
0.0737304435607645
 50
90.0
  0
VERTEX
  5
96A
  8
0
 10
115.691226519838
 20
125.8313437484142
 30
0.0
 42
0.0845717212532976
 50
90.0
  0
VERTEX
  5
96B
  8
0
 10
115.77105314945619
 20
125.6714840800889
 30
0.0
 42
0.1063921108588694
 70
     2
 50
306.20365064702992
  0
VERTEX
  5
96C
  8
0
 10
115.9083302480277
 20
125.54938765010399
 30
0.0
 42
0.1510088585334486
 50
306.20365064702992
  0
VERTEX
  5
96D
  8
0
 10
116.03621819240109
 20
125.5214337031795
 30
0.0
 42
0.1294534172461018
 50
90.0
  0
SEQEND
  5
96E
  8
0
  0
POLYLINE
  5
96F
  8
0
 66
     1
 10
0.0
 20
0.0
 30
0.0
  0
VERTEX
  5
970
  8
0
 10
115.66121819240119
 20
121.6779837050933
 30
0.0
 42
0.0520405140106174
 50
90.0
  0
VERTEX
  5
971
  8
0
 10
115.69226003735611
 20
121.38054451228091
 30
0.0
 42
0.0658985238271168
 50
90.0
  0
VERTEX
  5
972
  8
0
 10
115.77105314945619
 20
121.1575024770904
 30
0.0
 42
0.1046205348859841
 70
     2
 50
296.99708196701908
  0
VERTEX
  5
973
  8
0
 10
115.916590298679
 20
120.977408257368
 30
0.0
 42
0.1996909920929194
 50
296.99708196701908
  0
VERTEX
  5
974
  8
0
 10
116.03621819240109
 20
120.941912093491
 30
0.0
 42
0.172337143622725
 50
90.0
  0
SEQEND
  5
975
  8
0
  0
POLYLINE
  5
976
  8
0
 66
     1
 10
0.0
 20
0.0
 30
0.0
  0
VERTEX
  5
977
  8
0
 10
116.03621819240109
 20
122.6305840267492
 30
0.0
 42
0.2055316714992537
 50
90.0
  0
VERTEX
  5
978
  8
0
 10
115.91602120689031
 20
122.5789962142796
 30
0.0
 42
0.0965313913509376
 50
90.0
  0
VERTEX
  5
979
  8
0
 10
115.77105314945599
 20
122.3515738522967
 30
0.0
 42
0.0533986296957384
 70
     2
 50
248.5124580243924
  0
VERTEX
  5
97A
  8
0
 10
115.6926933510662
 20
122.0665914774045
 30
0.0
 42
0.0404311354471943
 50
248.5124580243924
  0
VERTEX
  5
97B
  8
0
 10
115.6612181924009
 20
121.6779837050933
 30
0.0
 42
0.0404311354471791
 50
90.0
  0
SEQEND
  5
97C
  8
0
  0
POLYLINE
  5
97D
  8
0
 66
     1
 10
0.0
 20
0.0
 30
0.0
  0
VERTEX
  5
97E
  8
0
 10
115.66121819240119
 20
116.84959316798449
 30
0.0
 42
0.0433295665536456
 50
90.0
  0
VERTEX
  5
97F
  8
0
 10
115.6925938787271
 20
116.4882142933219
 30
0.0
 42
0.0566743414169658
 50
90.0
  0
VERTEX
  5
980
  8
0
 10
115.77105314945631
 20
116.2218326959478
 30
0.0
 42
0.0992025570697266
 70
     2
 50
292.89911996388048
  0
VERTEX
  5
981
  8
0
 10
115.92146604340429
 20
116.00075446552221
 30
0.0
 42
0.2280338981645266
 50
292.89911996388048
  0
VERTEX
  5
982
  8
0
 10
116.03621819240109
 20
115.9618057945258
 30
0.0
 42
0.1963710675046459
 50
90.0
  0
SEQEND
  5
983
  8
0
  0
POLYLINE
  5
984
  8
0
 66
     1
 10
0.0
 20
0.0
 30
0.0
  0
VERTEX
  5
985
  8
0
 10
116.03621819240109
 20
117.7373805414606
 30
0.0
 42
0.1963710675046226
 50
90.0
  0
VERTEX
  5
986
  8
0
 10
115.9139970702814
 20
117.68745390627269
 30
0.0
 42
0.0992025570696904
 50
90.0
  0
VERTEX
  5
987
  8
0
 10
115.77105314945619
 20
117.47735364002121
 30
0.0
 42
0.0566743414169369
 70
     2
 50
247.10088003612381
  0
VERTEX
  5
988
  8
0
 10
115.6925938787271
 20
117.2109720426473
 30
0.0
 42
0.0433295665536664
 50
247.10088003612381
  0
VERTEX
  5
989
  8
0
 10
115.66121819240119
 20
116.84959316798449
 30
0.0
 42
0.0433295665536456
 50
90.0
  0
SEQEND
  5
98A
  8
0
  0
LINE
  5
98B
  8
0
 10
116.03621819240109
 20
125.52143370318259
 30
0.0
 11
116.03621819240109
 21
122.6305840267492
 31
0.0
  0
LINE
  5
98C
  8
0
 10
116.03621819240109
 20
120.9419120934911
 30
0.0
 11
116.03621819240109
 21
117.7373805414606
 31
0.0
  0
POLYLINE
  5
98D
  8
0
 66
     1
 10
0.0
 20
0.0
 30
0.0
  0
VERTEX
  5
98E
  8
0
 10
115.66121819240119
 20
129.49048370509379
 30
0.0
 42
0.1453834159301123
 50
90.0
  0
VERTEX
  5
98F
  8
0
 10
115.6864353216988
 20
129.4055904888325
 30
0.0
 42
0.1071699662217274
 50
90.0
  0
VERTEX
  5
990
  8
0
 10
115.77105314945619
 20
129.3219175348822
 30
0.0
 42
0.077350332773411
 70
     2
 50
327.55576388790911
  0
VERTEX
  5
991
  8
0
 10
115.89951770498431
 20
129.2657976766279
 30
0.0
 42
0.0789475685392101
 50
327.55576388790911
  0
VERTEX
  5
992
  8
0
 10
116.03621819240109
 20
129.25209514102491
 30
0.0
 42
0.0644571111103437
 50
90.0
  0
SEQEND
  5
993
  8
0
  0
POLYLINE
  5
994
  8
0
 66
     1
 10
0.0
 20
0.0
 30
0.0
  0
VERTEX
  5
995
  8
0
 10
116.03621819240109
 20
130.2957517916247
 30
0.0
 42
0.1837701506072527
 50
90.0
  0
VERTEX
  5
996
  8
0
 10
115.91120102920991
 20
130.24819694894859
 30
0.0
 42
0.1023570990015804
 50
90.0
  0
VERTEX
  5
997
  8
0
 10
115.7710531494529
 20
130.0598942297529
 30
0.0
 42
0.06139380527182
 70
     2
 50
245.0293849661897
  0
VERTEX
  5
998
  8
0
 10
115.69243376595919
 20
129.81712473945029
 30
0.0
 42
0.0476740870733025
 50
245.0293849661897
  0
VERTEX
  5
999
  8
0
 10
115.6612181923964
 20
129.49048370509379
 30
0.0
 42
0.0476740870732675
 50
90.0
  0
SEQEND
  5
99A
  8
0
  0
LINE
  5
99B
  8
0
 10
116.03621819240109
 20
129.25209514102329
 30
0.0
 11
116.03621819240109
 21
126.9579038482501
 31
0.0
  0
POLYLINE
  5
99C
  8
0
 66
     1
 10
0.0
 20
0.0
 30
0.0
  0
VERTEX
  5
99D
  8
0
 10
116.03621819240109
 20
132.31739604402159
 30
0.0
 42
0.1488470320745859
 50
90.0
  0
VERTEX
  5
99E
  8
0
 10
115.90344050461481
 20
132.27697333157809
 30
0.0
 42
0.1070939314374275
 50
90.0
  0
VERTEX
  5
99F
  8
0
 10
115.77105314945619
 20
132.13945028936229
 30
0.0
 42
0.0758177480846394
 70
     2
 50
238.31552115822251
  0
VERTEX
  5
9A0
  8
0
 10
115.691787550054
 20
131.95282993253591
 30
0.0
 42
0.0626584555913342
 50
238.31552115822251
  0
VERTEX
  5
9A1
  8
0
 10
115.66121819240119
 20
131.70985123509709
 30
0.0
 42
0.0626584555913199
 50
90.0
  0
SEQEND
  5
9A2
  8
0
  0
POLYLINE
  5
9A3
  8
0
 66
     1
 10
0.0
 20
0.0
 30
0.0
  0
VERTEX
  5
9A4
  8
0
 10
115.66121819240119
 20
131.70985123509709
 30
0.0
 42
0.0162328826952284
 50
90.0
  0
VERTEX
  5
9A5
  8
0
 10
115.8161557957969
 20
131.71488272881041
 30
0.0
 42
0.0226962008047463
 50
90.0
  0
VERTEX
  5
9A6
  8
0
 10
115.92638323534609
 20
131.72709152667761
 30
0.0
 42
0.0516790455059756
 70
     2
 50
8.9206691496988508
  0
VERTEX
  5
9A7
  8
0
 10
116.0286392491935
 20
131.75418012775009
 30
0.0
 50
8.9206691496988508
  0
VERTEX
  5
9A8
  8
0
 10
116.03621819240109
 20
131.76871327243029
 30
0.0
 50
90.0
  0
SEQEND
  5
9A9
  8
0
  0
LINE
  5
9AA
  8
0
 10
116.03621819240109
 20
131.76871327243029
 30
0.0
 11
116.03621819240109
 21
130.2957517916247
 31
0.0
  0
POLYLINE
  5
9AB
  8
0
 66
     1
 10
0.0
 20
0.0
 30
0.0
  0
VERTEX
  5
9AC
  8
0
 10
115.66121819240119
 20
132.47459316798461
 30
0.0
 42
0.092572595455409
 50
90.0
  0
VERTEX
  5
9AD
  8
0
 10
115.8058913452207
 20
132.50161023424209
 30
0.0
 42
0.0958395211622397
 50
90.0
  0
VERTEX
  5
9AE
  8
0
 10
115.92638323534609
 20
132.5772085451446
 30
0.0
 42
0.1008530118927434
 70
     2
 50
43.053698806586652
  0
VERTEX
  5
9AF
  8
0
 10
116.0148805569592
 20
132.70160600582841
 30
0.0
 42
0.1236287328816281
 50
43.053698806586652
  0
VERTEX
  5
9B0
  8
0
 10
116.0362181923965
 20
132.82494398039231
 30
0.0
 42
0.1047089114758273
 50
90.0
  0
SEQEND
  5
9B1
  8
0
  0
POLYLINE
  5
9B2
  8
0
 66
     1
 10
0.0
 20
0.0
 30
0.0
  0
VERTEX
  5
9B3
  8
0
 10
126.16121819240099
 20
131.70985123509709
 30
0.0
 42
-0.0162328826952284
 50
90.0
  0
VERTEX
  5
9B4
  8
0
 10
126.0062805890053
 20
131.71488272881041
 30
0.0
 42
-0.0226962008047463
 50
90.0
  0
VERTEX
  5
9B5
  8
0
 10
125.89605314945609
 20
131.72709152667761
 30
0.0
 42
-0.0516790455059756
 70
     2
 50
171.07933085030109
  0
VERTEX
  5
9B6
  8
0
 10
125.7937971356087
 20
131.75418012775009
 30
0.0
 50
90.0
  0
VERTEX
  5
9B7
  8
0
 10
125.78621819240109
 20
131.76871327243029
 30
0.0
 50
90.0
  0
SEQEND
  5
9B8
  8
0
  0
POLYLINE
  5
9B9
  8
0
 66
     1
 10
0.0
 20
0.0
 30
0.0
  0
VERTEX
  5
9BA
  8
0
 10
125.78621819240109
 20
132.31739604402159
 30
0.0
 42
-0.1488470320745859
 50
90.0
  0
VERTEX
  5
9BB
  8
0
 10
125.9189958801874
 20
132.27697333157809
 30
0.0
 42
-0.1070939314374275
 50
90.0
  0
VERTEX
  5
9BC
  8
0
 10
126.05138323534599
 20
132.13945028936229
 30
0.0
 42
-0.0758177480846394
 70
     2
 50
301.68447884177749
  0
VERTEX
  5
9BD
  8
0
 10
126.1306488347482
 20
131.95282993253591
 30
0.0
 42
-0.0626584555913342
 50
90.0
  0
VERTEX
  5
9BE
  8
0
 10
126.16121819240099
 20
131.70985123509709
 30
0.0
 42
-0.0626584555913199
 50
90.0
  0
SEQEND
  5
9BF
  8
0
  0
POLYLINE
  5
9C0
  8
0
 66
     1
 10
0.0
 20
0.0
 30
0.0
  0
VERTEX
  5
9C1
  8
0
 10
125.78621819240109
 20
130.2957517916247
 30
0.0
 42
-0.1837701506072527
 50
90.0
  0
VERTEX
  5
9C2
  8
0
 10
125.9112353555924
 20
130.24819694894859
 30
0.0
 42
-0.1023570990015804
 50
90.0
  0
VERTEX
  5
9C3
  8
0
 10
126.05138323534941
 20
130.0598942297529
 30
0.0
 42
-0.06139380527182
 70
     2
 50
294.9706150338103
  0
VERTEX
  5
9C4
  8
0
 10
126.13000261884299
 20
129.81712473945029
 30
0.0
 42
-0.0476740870733025
 50
90.0
  0
VERTEX
  5
9C5
  8
0
 10
126.1612181924058
 20
129.49048370509379
 30
0.0
 42
-0.0476740870732675
 50
90.0
  0
SEQEND
  5
9C6
  8
0
  0
POLYLINE
  5
9C7
  8
0
 66
     1
 10
0.0
 20
0.0
 30
0.0
  0
VERTEX
  5
9C8
  8
0
 10
126.16121819240099
 20
129.49048370509379
 30
0.0
 42
-0.1453834159301123
 50
90.0
  0
VERTEX
  5
9C9
  8
0
 10
126.13600106310339
 20
129.4055904888325
 30
0.0
 42
-0.1071699662217274
 50
90.0
  0
VERTEX
  5
9CA
  8
0
 10
126.05138323534599
 20
129.3219175348822
 30
0.0
 42
-0.077350332773411
 70
     2
 50
212.444236112091
  0
VERTEX
  5
9CB
  8
0
 10
125.9229186798179
 20
129.2657976766279
 30
0.0
 42
-0.0789475685392101
 50
90.0
  0
VERTEX
  5
9CC
  8
0
 10
125.78621819240109
 20
129.25209514102491
 30
0.0
 42
-0.0644571111103437
 50
90.0
  0
SEQEND
  5
9CD
  8
0
  0
POLYLINE
  5
9CE
  8
0
 66
     1
 10
0.0
 20
0.0
 30
0.0
  0
VERTEX
  5
9CF
  8
0
 10
125.78621819240109
 20
117.7373805414606
 30
0.0
 42
-0.1963710675046226
 50
90.0
  0
VERTEX
  5
9D0
  8
0
 10
125.90843931452081
 20
117.68745390627269
 30
0.0
 42
-0.0992025570696904
 50
90.0
  0
VERTEX
  5
9D1
  8
0
 10
126.05138323534599
 20
117.47735364002121
 30
0.0
 42
-0.0566743414169369
 70
     2
 50
292.89911996387622
  0
VERTEX
  5
9D2
  8
0
 10
126.12984250607521
 20
117.2109720426473
 30
0.0
 42
-0.0433295665536664
 50
90.0
  0
VERTEX
  5
9D3
  8
0
 10
126.16121819240099
 20
116.84959316798449
 30
0.0
 42
-0.0433295665536456
 50
90.0
  0
SEQEND
  5
9D4
  8
0
  0
POLYLINE
  5
9D5
  8
0
 66
     1
 10
0.0
 20
0.0
 30
0.0
  0
VERTEX
  5
9D6
  8
0
 10
126.16121819240099
 20
116.84959316798449
 30
0.0
 42
-0.0433295665536456
 50
90.0
  0
VERTEX
  5
9D7
  8
0
 10
126.12984250607521
 20
116.4882142933219
 30
0.0
 42
-0.0566743414169658
 50
90.0
  0
VERTEX
  5
9D8
  8
0
 10
126.05138323534599
 20
116.2218326959478
 30
0.0
 42
-0.0992025570697266
 70
     2
 50
247.10088003611941
  0
VERTEX
  5
9D9
  8
0
 10
125.90097034139789
 20
116.00075446552221
 30
0.0
 42
-0.2280338981645266
 50
90.0
  0
VERTEX
  5
9DA
  8
0
 10
125.78621819240109
 20
115.9618057945258
 30
0.0
 42
-0.1963710675046459
 50
90.0
  0
SEQEND
  5
9DB
  8
0
  0
POLYLINE
  5
9DC
  8
0
 66
     1
 10
0.0
 20
0.0
 30
0.0
  0
VERTEX
  5
9DD
  8
0
 10
125.78621819240109
 20
122.6305840267492
 30
0.0
 42
-0.2055316714992537
 50
90.0
  0
VERTEX
  5
9DE
  8
0
 10
125.9064151779119
 20
122.5789962142796
 30
0.0
 42
-0.0965313913509376
 50
90.0
  0
VERTEX
  5
9DF
  8
0
 10
126.05138323534619
 20
122.3515738522967
 30
0.0
 42
-0.0533986296957384
 70
     2
 50
291.4875419756076
  0
VERTEX
  5
9E0
  8
0
 10
126.1297430337361
 20
122.0665914774045
 30
0.0
 42
-0.0404311354471943
 50
90.0
  0
VERTEX
  5
9E1
  8
0
 10
126.16121819240129
 20
121.6779837050933
 30
0.0
 42
-0.0404311354471791
 50
90.0
  0
SEQEND
  5
9E2
  8
0
  0
POLYLINE
  5
9E3
  8
0
 66
     1
 10
0.0
 20
0.0
 30
0.0
  0
VERTEX
  5
9E4
  8
0
 10
126.16121819240099
 20
121.6779837050933
 30
0.0
 42
-0.0520405140106174
 50
90.0
  0
VERTEX
  5
9E5
  8
0
 10
126.1301763474461
 20
121.38054451228091
 30
0.0
 42
-0.0658985238271168
 50
90.0
  0
VERTEX
  5
9E6
  8
0
 10
126.05138323534599
 20
121.1575024770904
 30
0.0
 42
-0.1046205348859841
 70
     2
 50
243.00291803298089
  0
VERTEX
  5
9E7
  8
0
 10
125.9058460861232
 20
120.977408257368
 30
0.0
 42
-0.1996909920929194
 50
90.0
  0
VERTEX
  5
9E8
  8
0
 10
125.78621819240109
 20
120.941912093491
 30
0.0
 42
-0.172337143622725
 50
90.0
  0
SEQEND
  5
9E9
  8
0
  0
POLYLINE
  5
9EA
  8
0
 66
     1
 10
0.0
 20
0.0
 30
0.0
  0
VERTEX
  5
9EB
  8
0
 10
126.16121819240099
 20
126.033737735055
 30
0.0
 42
-0.0737304435607645
 50
90.0
  0
VERTEX
  5
9EC
  8
0
 10
126.13120986496421
 20
125.8313437484142
 30
0.0
 42
-0.0845717212532976
 50
90.0
  0
VERTEX
  5
9ED
  8
0
 10
126.05138323534599
 20
125.6714840800889
 30
0.0
 42
-0.1063921108588694
 70
     2
 50
233.79634935297011
  0
VERTEX
  5
9EE
  8
0
 10
125.91410613677451
 20
125.54938765010399
 30
0.0
 42
-0.1510088585334486
 50
90.0
  0
VERTEX
  5
9EF
  8
0
 10
125.78621819240109
 20
125.5214337031795
 30
0.0
 42
-0.1294534172461018
 50
90.0
  0
SEQEND
  5
9F0
  8
0
  0
POLYLINE
  5
9F1
  8
0
 66
     1
 10
0.0
 20
0.0
 30
0.0
  0
VERTEX
  5
9F2
  8
0
 10
125.78621819240109
 20
126.9579038482501
 30
0.0
 42
-0.2015894264067176
 50
90.0
  0
VERTEX
  5
9F3
  8
0
 10
125.9072852126676
 20
126.90702453736689
 30
0.0
 42
-0.0977170379735125
 50
90.0
  0
VERTEX
  5
9F4
  8
0
 10
126.05138323534599
 20
126.687221860638
 30
0.0
 42
-0.0547927573384048
 70
     2
 50
292.08589776082619
  0
VERTEX
  5
9F5
  8
0
 10
126.1297842692184
 20
126.4104052806114
 30
0.0
 42
-0.0416539519670256
 50
90.0
  0
VERTEX
  5
9F6
  8
0
 10
126.16121819240099
 20
126.0337377350549
 30
0.0
 42
-0.0416539519669881
 50
90.0
  0
SEQEND
  5
9F7
  8
0
  0
POLYLINE
  5
9F8
  8
0
 66
     1
 10
0.0
 20
0.0
 30
0.0
  0
VERTEX
  5
9F9
  8
0
 10
125.78621819240109
 20
132.82494398039231
 30
0.0
 42
0.0068051090718327
 50
90.0
  0
VERTEX
  5
9FA
  8
0
 10
125.94147890061301
 20
132.8270572103628
 30
0.0
 42
0.0096044777403865
 50
90.0
  0
VERTEX
  5
9FB
  8
0
 10
126.05138323534599
 20
132.83216356028731
 30
0.0
 42
0.0229390352869734
 70
     2
 50
3.7607085175068882
  0
VERTEX
  5
9FC
  8
0
 10
126.15799815822029
 20
132.8441013645047
 30
0.0
 50
3.7607085175068882
  0
VERTEX
  5
9FD
  8
0
 10
126.16121819240099
 20
132.84959316798449
 30
0.0
 50
90.0
  0
SEQEND
  5
9FE
  8
0
  0
POLYLINE
  5
9FF
  8
0
 66
     1
 10
0.0
 20
0.0
 30
0.0
  0
VERTEX
  5
A00
  8
0
 10
125.78621819240109
 20
100.8742423555768
 30
0.0
 42
-0.0068051090718327
 50
90.0
  0
VERTEX
  5
A01
  8
0
 10
125.94147890061301
 20
100.87212912560619
 30
0.0
 42
-0.0096044777403865
 50
90.0
  0
VERTEX
  5
A02
  8
0
 10
126.05138323534599
 20
100.8670227756817
 30
0.0
 42
-0.0229390352869734
 70
     2
 50
356.23929148249317
  0
VERTEX
  5
A03
  8
0
 10
126.15799815822029
 20
100.85508497146439
 30
0.0
 50
90.0
  0
VERTEX
  5
A04
  8
0
 10
126.16121819240099
 20
100.84959316798449
 30
0.0
 50
90.0
  0
SEQEND
  5
A05
  8
0
  0
POLYLINE
  5
A06
  8
0
 66
     1
 10
0.0
 20
0.0
 30
0.0
  0
VERTEX
  5
A07
  8
0
 10
125.78621819240109
 20
106.74128248771891
 30
0.0
 42
0.2015894264067176
 50
90.0
  0
VERTEX
  5
A08
  8
0
 10
125.9072852126676
 20
106.79216179860209
 30
0.0
 42
0.0977170379735125
 50
90.0
  0
VERTEX
  5
A09
  8
0
 10
126.05138323534599
 20
107.011964475331
 30
0.0
 42
0.0547927573384048
 70
     2
 50
67.914102239173715
  0
VERTEX
  5
A0A
  8
0
 10
126.1297842692184
 20
107.2887810553576
 30
0.0
 42
0.0416539519670256
 50
90.0
  0
VERTEX
  5
A0B
  8
0
 10
126.16121819240099
 20
107.6654486009141
 30
0.0
 42
0.0416539519669881
 50
90.0
  0
SEQEND
  5
A0C
  8
0
  0
POLYLINE
  5
A0D
  8
0
 66
     1
 10
0.0
 20
0.0
 30
0.0
  0
VERTEX
  5
A0E
  8
0
 10
126.16121819240099
 20
107.6654486009141
 30
0.0
 42
0.0737304435607645
 50
90.0
  0
VERTEX
  5
A0F
  8
0
 10
126.13120986496421
 20
107.8678425875548
 30
0.0
 42
0.0845717212532976
 50
90.0
  0
VERTEX
  5
A10
  8
0
 10
126.05138323534599
 20
108.0277022558802
 30
0.0
 42
0.1063921108588694
 70
     2
 50
126.2036506470299
  0
VERTEX
  5
A11
  8
0
 10
125.91410613677451
 20
108.14979868586499
 30
0.0
 42
0.1510088585334486
 50
90.0
  0
VERTEX
  5
A12
  8
0
 10
125.78621819240109
 20
108.17775263278951
 30
0.0
 42
0.1294534172461018
 50
90.0
  0
SEQEND
  5
A13
  8
0
  0
POLYLINE
  5
A14
  8
0
 66
     1
 10
0.0
 20
0.0
 30
0.0
  0
VERTEX
  5
A15
  8
0
 10
126.16121819240099
 20
112.02120263087571
 30
0.0
 42
0.0520405140106174
 50
90.0
  0
VERTEX
  5
A16
  8
0
 10
126.1301763474461
 20
112.3186418236881
 30
0.0
 42
0.0658985238271168
 50
90.0
  0
VERTEX
  5
A17
  8
0
 10
126.05138323534599
 20
112.5416838588786
 30
0.0
 42
0.1046205348859841
 70
     2
 50
116.9970819670191
  0
VERTEX
  5
A18
  8
0
 10
125.9058460861232
 20
112.7217780786011
 30
0.0
 42
0.1996909920929194
 50
90.0
  0
VERTEX
  5
A19
  8
0
 10
125.78621819240109
 20
112.757274242478
 30
0.0
 42
0.172337143622725
 50
90.0
  0
SEQEND
  5
A1A
  8
0
  0
POLYLINE
  5
A1B
  8
0
 66
     1
 10
0.0
 20
0.0
 30
0.0
  0
VERTEX
  5
A1C
  8
0
 10
125.78621819240109
 20
111.0686023092199
 30
0.0
 42
0.2055316714992537
 50
90.0
  0
VERTEX
  5
A1D
  8
0
 10
125.9064151779119
 20
111.1201901216894
 30
0.0
 42
0.0965313913509376
 50
90.0
  0
VERTEX
  5
A1E
  8
0
 10
126.05138323534619
 20
111.34761248367241
 30
0.0
 42
0.0533986296957384
 70
     2
 50
68.512458024392416
  0
VERTEX
  5
A1F
  8
0
 10
126.1297430337361
 20
111.6325948585645
 30
0.0
 42
0.0404311354471943
 50
90.0
  0
VERTEX
  5
A20
  8
0
 10
126.16121819240129
 20
112.02120263087571
 30
0.0
 42
0.0404311354471791
 50
90.0
  0
SEQEND
  5
A21
  8
0
  0
POLYLINE
  5
A22
  8
0
 66
     1
 10
0.0
 20
0.0
 30
0.0
  0
VERTEX
  5
A23
  8
0
 10
126.16121819240099
 20
104.20870263087519
 30
0.0
 42
0.1453834159301123
 50
90.0
  0
VERTEX
  5
A24
  8
0
 10
126.13600106310339
 20
104.2935958471365
 30
0.0
 42
0.1071699662217274
 50
90.0
  0
VERTEX
  5
A25
  8
0
 10
126.05138323534599
 20
104.3772688010868
 30
0.0
 42
0.077350332773411
 70
     2
 50
147.555763887909
  0
VERTEX
  5
A26
  8
0
 10
125.9229186798179
 20
104.43338865934111
 30
0.0
 42
0.0789475685392101
 50
90.0
  0
VERTEX
  5
A27
  8
0
 10
125.78621819240109
 20
104.44709119494409
 30
0.0
 42
0.0644571111103437
 50
90.0
  0
SEQEND
  5
A28
  8
0
  0
POLYLINE
  5
A29
  8
0
 66
     1
 10
0.0
 20
0.0
 30
0.0
  0
VERTEX
  5
A2A
  8
0
 10
125.78621819240109
 20
103.40343454434429
 30
0.0
 42
0.1837701506072527
 50
90.0
  0
VERTEX
  5
A2B
  8
0
 10
125.9112353555924
 20
103.4509893870204
 30
0.0
 42
0.1023570990015804
 50
90.0
  0
VERTEX
  5
A2C
  8
0
 10
126.05138323534941
 20
103.6392921062161
 30
0.0
 42
0.06139380527182
 70
     2
 50
65.029384966189681
  0
VERTEX
  5
A2D
  8
0
 10
126.13000261884299
 20
103.8820615965187
 30
0.0
 42
0.0476740870733025
 50
90.0
  0
VERTEX
  5
A2E
  8
0
 10
126.1612181924058
 20
104.20870263087519
 30
0.0
 42
0.0476740870732675
 50
90.0
  0
SEQEND
  5
A2F
  8
0
  0
POLYLINE
  5
A30
  8
0
 66
     1
 10
0.0
 20
0.0
 30
0.0
  0
VERTEX
  5
A31
  8
0
 10
125.78621819240109
 20
101.3817902919475
 30
0.0
 42
0.1488470320745859
 50
90.0
  0
VERTEX
  5
A32
  8
0
 10
125.9189958801874
 20
101.4222130043909
 30
0.0
 42
0.1070939314374275
 50
90.0
  0
VERTEX
  5
A33
  8
0
 10
126.05138323534599
 20
101.5597360466067
 30
0.0
 42
0.0758177480846394
 70
     2
 50
58.315521158222467
  0
VERTEX
  5
A34
  8
0
 10
126.1306488347482
 20
101.7463564034331
 30
0.0
 42
0.0626584555913342
 50
90.0
  0
VERTEX
  5
A35
  8
0
 10
126.16121819240099
 20
101.9893351008719
 30
0.0
 42
0.0626584555913199
 50
90.0
  0
SEQEND
  5
A36
  8
0
  0
POLYLINE
  5
A37
  8
0
 66
     1
 10
0.0
 20
0.0
 30
0.0
  0
VERTEX
  5
A38
  8
0
 10
126.16121819240099
 20
101.9893351008719
 30
0.0
 42
0.0162328826952284
 50
90.0
  0
VERTEX
  5
A39
  8
0
 10
126.0062805890053
 20
101.98430360715869
 30
0.0
 42
0.0226962008047463
 50
90.0
  0
VERTEX
  5
A3A
  8
0
 10
125.89605314945609
 20
101.97209480929141
 30
0.0
 42
0.0516790455059756
 70
     2
 50
188.92066914969891
  0
VERTEX
  5
A3B
  8
0
 10
125.7937971356087
 20
101.945006208219
 30
0.0
 50
90.0
  0
VERTEX
  5
A3C
  8
0
 10
125.78621819240109
 20
101.9304730635387
 30
0.0
 50
90.0
  0
SEQEND
  5
A3D
  8
0
  0
POLYLINE
  5
A3E
  8
0
 66
     1
 10
0.0
 20
0.0
 30
0.0
  0
VERTEX
  5
A3F
  8
0
 10
115.66121819240119
 20
101.22459316798439
 30
0.0
 42
-0.092572595455409
 50
90.0
  0
VERTEX
  5
A40
  8
0
 10
115.8058913452207
 20
101.1975761017269
 30
0.0
 42
-0.0958395211622397
 50
90.0
  0
VERTEX
  5
A41
  8
0
 10
115.92638323534609
 20
101.1219777908244
 30
0.0
 42
-0.1008530118927434
 70
     2
 50
316.94630119341338
  0
VERTEX
  5
A42
  8
0
 10
116.0148805569592
 20
100.99758033014059
 30
0.0
 42
-0.1236287328816281
 50
90.0
  0
VERTEX
  5
A43
  8
0
 10
116.0362181923965
 20
100.8742423555768
 30
0.0
 42
-0.1047089114758273
 50
90.0
  0
SEQEND
  5
A44
  8
0
  0
LINE
  5
A45
  8
0
 10
116.03621819240109
 20
101.9304730635387
 30
0.0
 11
116.03621819240109
 21
103.40343454434429
 31
0.0
  0
POLYLINE
  5
A46
  8
0
 66
     1
 10
0.0
 20
0.0
 30
0.0
  0
VERTEX
  5
A47
  8
0
 10
115.66121819240119
 20
101.9893351008719
 30
0.0
 42
-0.0162328826952284
 50
90.0
  0
VERTEX
  5
A48
  8
0
 10
115.8161557957969
 20
101.98430360715869
 30
0.0
 42
-0.0226962008047463
 50
90.0
  0
VERTEX
  5
A49
  8
0
 10
115.92638323534609
 20
101.97209480929141
 30
0.0
 42
-0.0516790455059756
 70
     2
 50
351.07933085030118
  0
VERTEX
  5
A4A
  8
0
 10
116.0286392491935
 20
101.945006208219
 30
0.0
 50
90.0
  0
VERTEX
  5
A4B
  8
0
 10
116.03621819240109
 20
101.9304730635387
 30
0.0
 50
90.0
  0
SEQEND
  5
A4C
  8
0
  0
POLYLINE
  5
A4D
  8
0
 66
     1
 10
0.0
 20
0.0
 30
0.0
  0
VERTEX
  5
A4E
  8
0
 10
116.03621819240109
 20
101.3817902919475
 30
0.0
 42
-0.1488470320745859
 50
90.0
  0
VERTEX
  5
A4F
  8
0
 10
115.90344050461481
 20
101.4222130043909
 30
0.0
 42
-0.1070939314374275
 50
90.0
  0
VERTEX
  5
A50
  8
0
 10
115.77105314945619
 20
101.5597360466067
 30
0.0
 42
-0.0758177480846394
 70
     2
 50
121.6844788417775
  0
VERTEX
  5
A51
  8
0
 10
115.691787550054
 20
101.7463564034331
 30
0.0
 42
-0.0626584555913342
 50
90.0
  0
VERTEX
  5
A52
  8
0
 10
115.66121819240119
 20
101.9893351008719
 30
0.0
 42
-0.0626584555913199
 50
90.0
  0
SEQEND
  5
A53
  8
0
  0
LINE
  5
A54
  8
0
 10
116.03621819240109
 20
104.4470911949458
 30
0.0
 11
116.03621819240109
 21
106.74128248771891
 31
0.0
  0
POLYLINE
  5
A55
  8
0
 66
     1
 10
0.0
 20
0.0
 30
0.0
  0
VERTEX
  5
A56
  8
0
 10
116.03621819240109
 20
103.40343454434429
 30
0.0
 42
-0.1837701506072527
 50
90.0
  0
VERTEX
  5
A57
  8
0
 10
115.91120102920991
 20
103.4509893870204
 30
0.0
 42
-0.1023570990015804
 50
90.0
  0
VERTEX
  5
A58
  8
0
 10
115.7710531494529
 20
103.6392921062161
 30
0.0
 42
-0.06139380527182
 70
     2
 50
114.9706150338103
  0
VERTEX
  5
A59
  8
0
 10
115.69243376595919
 20
103.8820615965187
 30
0.0
 42
-0.0476740870733025
 50
90.0
  0
VERTEX
  5
A5A
  8
0
 10
115.6612181923964
 20
104.20870263087519
 30
0.0
 42
-0.0476740870732675
 50
90.0
  0
SEQEND
  5
A5B
  8
0
  0
POLYLINE
  5
A5C
  8
0
 66
     1
 10
0.0
 20
0.0
 30
0.0
  0
VERTEX
  5
A5D
  8
0
 10
115.66121819240119
 20
104.20870263087519
 30
0.0
 42
-0.1453834159301123
 50
90.0
  0
VERTEX
  5
A5E
  8
0
 10
115.6864353216988
 20
104.2935958471365
 30
0.0
 42
-0.1071699662217274
 50
90.0
  0
VERTEX
  5
A5F
  8
0
 10
115.77105314945619
 20
104.3772688010868
 30
0.0
 42
-0.077350332773411
 70
     2
 50
32.444236112090998
  0
VERTEX
  5
A60
  8
0
 10
115.89951770498431
 20
104.43338865934111
 30
0.0
 42
-0.0789475685392101
 50
90.0
  0
VERTEX
  5
A61
  8
0
 10
116.03621819240109
 20
104.44709119494409
 30
0.0
 42
-0.0644571111103437
 50
90.0
  0
SEQEND
  5
A62
  8
0
  0
LINE
  5
A63
  8
0
 10
116.03621819240109
 20
112.75727424247791
 30
0.0
 11
116.03621819240109
 21
115.96180579450839
 31
0.0
  0
LINE
  5
A64
  8
0
 10
116.03621819240109
 20
108.17775263278639
 30
0.0
 11
116.03621819240109
 21
111.0686023092198
 31
0.0
  0
POLYLINE
  5
A65
  8
0
 66
     1
 10
0.0
 20
0.0
 30
0.0
  0
VERTEX
  5
A66
  8
0
 10
116.03621819240109
 20
111.0686023092199
 30
0.0
 42
-0.2055316714992537
 50
90.0
  0
VERTEX
  5
A67
  8
0
 10
115.91602120689031
 20
111.1201901216894
 30
0.0
 42
-0.0965313913509376
 50
90.0
  0
VERTEX
  5
A68
  8
0
 10
115.77105314945599
 20
111.34761248367241
 30
0.0
 42
-0.0533986296957384
 70
     2
 50
111.4875419756076
  0
VERTEX
  5
A69
  8
0
 10
115.6926933510662
 20
111.6325948585645
 30
0.0
 42
-0.0404311354471943
 50
90.0
  0
VERTEX
  5
A6A
  8
0
 10
115.6612181924009
 20
112.02120263087571
 30
0.0
 42
-0.0404311354471791
 50
90.0
  0
SEQEND
  5
A6B
  8
0
  0
POLYLINE
  5
A6C
  8
0
 66
     1
 10
0.0
 20
0.0
 30
0.0
  0
VERTEX
  5
A6D
  8
0
 10
115.66121819240119
 20
112.02120263087571
 30
0.0
 42
-0.0520405140106174
 50
90.0
  0
VERTEX
  5
A6E
  8
0
 10
115.69226003735611
 20
112.3186418236881
 30
0.0
 42
-0.0658985238271168
 50
90.0
  0
VERTEX
  5
A6F
  8
0
 10
115.77105314945619
 20
112.5416838588786
 30
0.0
 42
-0.1046205348859841
 70
     2
 50
63.002918032980951
  0
VERTEX
  5
A70
  8
0
 10
115.916590298679
 20
112.7217780786011
 30
0.0
 42
-0.1996909920929194
 50
90.0
  0
VERTEX
  5
A71
  8
0
 10
116.03621819240109
 20
112.757274242478
 30
0.0
 42
-0.172337143622725
 50
90.0
  0
SEQEND
  5
A72
  8
0
  0
POLYLINE
  5
A73
  8
0
 66
     1
 10
0.0
 20
0.0
 30
0.0
  0
VERTEX
  5
A74
  8
0
 10
115.66121819240119
 20
107.6654486009141
 30
0.0
 42
-0.0737304435607645
 50
90.0
  0
VERTEX
  5
A75
  8
0
 10
115.691226519838
 20
107.8678425875548
 30
0.0
 42
-0.0845717212532976
 50
90.0
  0
VERTEX
  5
A76
  8
0
 10
115.77105314945619
 20
108.0277022558802
 30
0.0
 42
-0.1063921108588694
 70
     2
 50
53.796349352970111
  0
VERTEX
  5
A77
  8
0
 10
115.9083302480277
 20
108.14979868586499
 30
0.0
 42
-0.1510088585334486
 50
90.0
  0
VERTEX
  5
A78
  8
0
 10
116.03621819240109
 20
108.17775263278951
 30
0.0
 42
-0.1294534172461018
 50
90.0
  0
SEQEND
  5
A79
  8
0
  0
POLYLINE
  5
A7A
  8
0
 66
     1
 10
0.0
 20
0.0
 30
0.0
  0
VERTEX
  5
A7B
  8
0
 10
116.03621819240109
 20
106.74128248771891
 30
0.0
 42
-0.2015894264067176
 50
90.0
  0
VERTEX
  5
A7C
  8
0
 10
115.9151511721347
 20
106.79216179860209
 30
0.0
 42
-0.0977170379735125
 50
90.0
  0
VERTEX
  5
A7D
  8
0
 10
115.77105314945619
 20
107.011964475331
 30
0.0
 42
-0.0547927573384048
 70
     2
 50
112.0858977608263
  0
VERTEX
  5
A7E
  8
0
 10
115.6926521155838
 20
107.2887810553576
 30
0.0
 42
-0.0416539519670256
 50
90.0
  0
VERTEX
  5
A7F
  8
0
 10
115.66121819240119
 20
107.6654486009141
 30
0.0
 42
-0.0416539519669881
 50
90.0
  0
SEQEND
  5
A80
  8
0
  0
LINE
  5
A81
  8
0
 10
116.03621819240109
 20
100.8742423555768
 30
0.0
 11
125.78621819240109
 21
100.8742423555768
 31
0.0
  0
LINE
  5
A82
  8
0
 10
116.03621819240109
 20
100.8742423555768
 30
0.0
 11
116.03621819240109
 21
101.3817902919475
 31
0.0
  0
LINE
  5
A83
  8
0
 10
116.03621819240109
 20
101.3817902919474
 30
0.0
 11
125.78621819240109
 21
101.3817902919474
 31
0.0
  0
LINE
  5
A84
  8
0
 10
116.03621819240109
 20
101.9304730635387
 30
0.0
 11
125.78621819240109
 21
101.9304730635387
 31
0.0
  0
LINE
  5
A85
  8
0
 10
116.03621819240109
 20
103.40343454434429
 30
0.0
 11
125.7862191460754
 21
103.40343454434429
 31
0.0
  0
LINE
  5
A86
  8
0
 10
116.03621819240109
 20
104.4470911949458
 30
0.0
 11
125.8366770652179
 21
104.4470911949458
 31
0.0
  0
LINE
  5
A87
  8
0
 10
116.03621819240109
 20
106.74128248771891
 30
0.0
 11
125.7862203248817
 21
106.74128248771891
 31
0.0
  0
LINE
  5
A88
  8
0
 10
116.03621819240109
 20
108.17775263278639
 30
0.0
 11
125.8236594755339
 21
108.17775263278639
 31
0.0
  0
LINE
  5
A89
  8
0
 10
116.03621819240109
 20
111.0686023092199
 30
0.0
 11
125.7862191460754
 21
111.0686023092199
 31
0.0
  0
LINE
  5
A8A
  8
0
 10
116.03621819240109
 20
112.757274242478
 30
0.0
 11
125.8205124888572
 21
112.757274242478
 31
0.0
  0
LINE
  5
A8B
  8
0
 10
116.03621819240109
 20
115.96180579450839
 30
0.0
 11
125.78621819240109
 21
115.96180579450839
 31
0.0
  0
LINE
  5
A8C
  8
0
 10
126.16121819240099
 20
100.84959316798449
 30
0.0
 11
127.03621819240109
 21
100.84959316798449
 31
0.0
  0
LINE
  5
A8D
  8
0
 10
115.6612181924113
 20
101.22459316797431
 30
0.0
 11
115.03621819240109
 21
101.84959316798449
 31
0.0
  0
LINE
  5
A8E
  8
0
 10
115.6612181924113
 20
156.22459316797429
 30
0.0
 11
115.03621819240109
 21
156.84959316798449
 31
0.0
  0
LINE
  5
A8F
  8
0
 10
126.16121819240099
 20
155.84959316798449
 30
0.0
 11
127.03621819240109
 21
155.84959316798449
 31
0.0
  0
LINE
  5
A90
  8
0
 10
116.03621819240119
 20
170.96180579450839
 30
0.0
 11
125.78621819240109
 21
170.96180579450839
 31
0.0
  0
LINE
  5
A91
  8
0
 10
116.03621819240109
 20
167.75727424247799
 30
0.0
 11
125.8205124888572
 21
167.75727424247799
 31
0.0
  0
LINE
  5
A92
  8
0
 10
116.03621819240109
 20
166.0686023092199
 30
0.0
 11
125.7862191460754
 21
166.0686023092199
 31
0.0
  0
LINE
  5
A93
  8
0
 10
116.03621819240109
 20
163.17775263278639
 30
0.0
 11
125.8236594755339
 21
163.17775263278639
 31
0.0
  0
LINE
  5
A94
  8
0
 10
116.03621819240109
 20
161.74128248771891
 30
0.0
 11
125.7862203248817
 21
161.74128248771891
 31
0.0
  0
LINE
  5
A95
  8
0
 10
116.03621819240119
 20
159.44709119494581
 30
0.0
 11
125.8366770652179
 21
159.44709119494581
 31
0.0
  0
LINE
  5
A96
  8
0
 10
116.03621819240109
 20
158.40343454434429
 30
0.0
 11
125.7862191460754
 21
158.40343454434429
 31
0.0
  0
LINE
  5
A97
  8
0
 10
116.03621819240109
 20
156.9304730635387
 30
0.0
 11
125.78621819240109
 21
156.9304730635387
 31
0.0
  0
LINE
  5
A98
  8
0
 10
116.03621819240119
 20
156.3817902919474
 30
0.0
 11
125.78621819240109
 21
156.3817902919474
 31
0.0
  0
LINE
  5
A99
  8
0
 10
116.03621819240109
 20
155.8742423555768
 30
0.0
 11
116.03621819240119
 21
156.3817902919474
 31
0.0
  0
LINE
  5
A9A
  8
0
 10
116.03621819240109
 20
155.8742423555768
 30
0.0
 11
125.78621819240109
 21
155.8742423555768
 31
0.0
  0
POLYLINE
  5
A9B
  8
0
 66
     1
 10
0.0
 20
0.0
 30
0.0
  0
VERTEX
  5
A9C
  8
0
 10
116.03621819240109
 20
161.74128248771891
 30
0.0
 42
-0.2015894264067176
 50
90.0
  0
VERTEX
  5
A9D
  8
0
 10
115.9151511721347
 20
161.79216179860211
 30
0.0
 42
-0.0977170379735125
 50
90.0
  0
VERTEX
  5
A9E
  8
0
 10
115.77105314945631
 20
162.01196447533101
 30
0.0
 42
-0.0547927573384048
 70
     2
 50
112.0858977608263
  0
VERTEX
  5
A9F
  8
0
 10
115.6926521155838
 20
162.28878105535759
 30
0.0
 42
-0.0416539519670256
 50
90.0
  0
VERTEX
  5
AA0
  8
0
 10
115.66121819240119
 20
162.66544860091409
 30
0.0
 42
-0.0416539519669881
 50
90.0
  0
SEQEND
  5
AA1
  8
0
  0
POLYLINE
  5
AA2
  8
0
 66
     1
 10
0.0
 20
0.0
 30
0.0
  0
VERTEX
  5
AA3
  8
0
 10
115.66121819240119
 20
162.66544860091409
 30
0.0
 42
-0.0737304435607645
 50
90.0
  0
VERTEX
  5
AA4
  8
0
 10
115.691226519838
 20
162.8678425875548
 30
0.0
 42
-0.0845717212532976
 50
90.0
  0
VERTEX
  5
AA5
  8
0
 10
115.77105314945619
 20
163.0277022558802
 30
0.0
 42
-0.1063921108588694
 70
     2
 50
53.796349352970111
  0
VERTEX
  5
AA6
  8
0
 10
115.9083302480278
 20
163.14979868586511
 30
0.0
 42
-0.1510088585334486
 50
90.0
  0
VERTEX
  5
AA7
  8
0
 10
116.03621819240109
 20
163.17775263278949
 30
0.0
 42
-0.1294534172461018
 50
90.0
  0
SEQEND
  5
AA8
  8
0
  0
POLYLINE
  5
AA9
  8
0
 66
     1
 10
0.0
 20
0.0
 30
0.0
  0
VERTEX
  5
AAA
  8
0
 10
115.66121819240119
 20
167.02120263087571
 30
0.0
 42
-0.0520405140106174
 50
90.0
  0
VERTEX
  5
AAB
  8
0
 10
115.69226003735611
 20
167.3186418236881
 30
0.0
 42
-0.0658985238271168
 50
90.0
  0
VERTEX
  5
AAC
  8
0
 10
115.77105314945631
 20
167.5416838588786
 30
0.0
 42
-0.1046205348859841
 70
     2
 50
63.002918032980951
  0
VERTEX
  5
AAD
  8
0
 10
115.916590298679
 20
167.72177807860101
 30
0.0
 42
-0.1996909920929194
 50
90.0
  0
VERTEX
  5
AAE
  8
0
 10
116.03621819240109
 20
167.75727424247799
 30
0.0
 42
-0.172337143622725
 50
90.0
  0
SEQEND
  5
AAF
  8
0
  0
POLYLINE
  5
AB0
  8
0
 66
     1
 10
0.0
 20
0.0
 30
0.0
  0
VERTEX
  5
AB1
  8
0
 10
116.03621819240109
 20
166.0686023092199
 30
0.0
 42
-0.2055316714992537
 50
90.0
  0
VERTEX
  5
AB2
  8
0
 10
115.91602120689031
 20
166.1201901216894
 30
0.0
 42
-0.0965313913509376
 50
90.0
  0
VERTEX
  5
AB3
  8
0
 10
115.77105314945609
 20
166.34761248367241
 30
0.0
 42
-0.0533986296957384
 70
     2
 50
111.4875419756076
  0
VERTEX
  5
AB4
  8
0
 10
115.6926933510662
 20
166.63259485856449
 30
0.0
 42
-0.0404311354471943
 50
90.0
  0
VERTEX
  5
AB5
  8
0
 10
115.6612181924009
 20
167.02120263087571
 30
0.0
 42
-0.0404311354471791
 50
90.0
  0
SEQEND
  5
AB6
  8
0
  0
LINE
  5
AB7
  8
0
 10
116.03621819240109
 20
163.17775263278639
 30
0.0
 11
116.03621819240109
 21
166.06860230921981
 31
0.0
  0
LINE
  5
AB8
  8
0
 10
116.03621819240109
 20
167.75727424247791
 30
0.0
 11
116.03621819240109
 21
170.96180579450839
 31
0.0
  0
POLYLINE
  5
AB9
  8
0
 66
     1
 10
0.0
 20
0.0
 30
0.0
  0
VERTEX
  5
ABA
  8
0
 10
115.66121819240119
 20
159.20870263087519
 30
0.0
 42
-0.1453834159301123
 50
90.0
  0
VERTEX
  5
ABB
  8
0
 10
115.6864353216988
 20
159.2935958471366
 30
0.0
 42
-0.1071699662217274
 50
90.0
  0
VERTEX
  5
ABC
  8
0
 10
115.77105314945631
 20
159.37726880108681
 30
0.0
 42
-0.077350332773411
 70
     2
 50
32.444236112090998
  0
VERTEX
  5
ABD
  8
0
 10
115.89951770498431
 20
159.43338865934109
 30
0.0
 42
-0.0789475685392101
 50
90.0
  0
VERTEX
  5
ABE
  8
0
 10
116.03621819240119
 20
159.44709119494411
 30
0.0
 42
-0.0644571111103437
 50
90.0
  0
SEQEND
  5
ABF
  8
0
  0
POLYLINE
  5
AC0
  8
0
 66
     1
 10
0.0
 20
0.0
 30
0.0
  0
VERTEX
  5
AC1
  8
0
 10
116.03621819240109
 20
158.40343454434429
 30
0.0
 42
-0.1837701506072527
 50
90.0
  0
VERTEX
  5
AC2
  8
0
 10
115.91120102920991
 20
158.4509893870204
 30
0.0
 42
-0.1023570990015804
 50
90.0
  0
VERTEX
  5
AC3
  8
0
 10
115.7710531494529
 20
158.63929210621609
 30
0.0
 42
-0.06139380527182
 70
     2
 50
114.9706150338103
  0
VERTEX
  5
AC4
  8
0
 10
115.69243376595919
 20
158.8820615965187
 30
0.0
 42
-0.0476740870733025
 50
90.0
  0
VERTEX
  5
AC5
  8
0
 10
115.6612181923964
 20
159.20870263087519
 30
0.0
 42
-0.0476740870732675
 50
90.0
  0
SEQEND
  5
AC6
  8
0
  0
LINE
  5
AC7
  8
0
 10
116.03621819240109
 20
159.44709119494581
 30
0.0
 11
116.03621819240109
 21
161.74128248771891
 31
0.0
  0
POLYLINE
  5
AC8
  8
0
 66
     1
 10
0.0
 20
0.0
 30
0.0
  0
VERTEX
  5
AC9
  8
0
 10
116.03621819240109
 20
156.3817902919474
 30
0.0
 42
-0.1488470320745859
 50
90.0
  0
VERTEX
  5
ACA
  8
0
 10
115.90344050461481
 20
156.4222130043909
 30
0.0
 42
-0.1070939314374275
 50
90.0
  0
VERTEX
  5
ACB
  8
0
 10
115.77105314945631
 20
156.5597360466067
 30
0.0
 42
-0.0758177480846394
 70
     2
 50
121.6844788417775
  0
VERTEX
  5
ACC
  8
0
 10
115.691787550054
 20
156.74635640343311
 30
0.0
 42
-0.0626584555913342
 50
90.0
  0
VERTEX
  5
ACD
  8
0
 10
115.66121819240119
 20
156.9893351008719
 30
0.0
 42
-0.0626584555913199
 50
90.0
  0
SEQEND
  5
ACE
  8
0
  0
POLYLINE
  5
ACF
  8
0
 66
     1
 10
0.0
 20
0.0
 30
0.0
  0
VERTEX
  5
AD0
  8
0
 10
115.66121819240119
 20
156.9893351008719
 30
0.0
 42
-0.0162328826952284
 50
90.0
  0
VERTEX
  5
AD1
  8
0
 10
115.8161557957969
 20
156.98430360715869
 30
0.0
 42
-0.0226962008047463
 50
90.0
  0
VERTEX
  5
AD2
  8
0
 10
115.92638323534609
 20
156.97209480929141
 30
0.0
 42
-0.0516790455059756
 70
     2
 50
351.07933085030118
  0
VERTEX
  5
AD3
  8
0
 10
116.0286392491935
 20
156.94500620821901
 30
0.0
 50
90.0
  0
VERTEX
  5
AD4
  8
0
 10
116.03621819240119
 20
156.9304730635387
 30
0.0
 50
90.0
  0
SEQEND
  5
AD5
  8
0
  0
LINE
  5
AD6
  8
0
 10
116.03621819240109
 20
156.9304730635387
 30
0.0
 11
116.03621819240109
 21
158.40343454434429
 31
0.0
  0
POLYLINE
  5
AD7
  8
0
 66
     1
 10
0.0
 20
0.0
 30
0.0
  0
VERTEX
  5
AD8
  8
0
 10
115.66121819240119
 20
156.22459316798441
 30
0.0
 42
-0.092572595455409
 50
90.0
  0
VERTEX
  5
AD9
  8
0
 10
115.8058913452207
 20
156.1975761017269
 30
0.0
 42
-0.0958395211622397
 50
90.0
  0
VERTEX
  5
ADA
  8
0
 10
115.92638323534609
 20
156.12197779082439
 30
0.0
 42
-0.1008530118927434
 70
     2
 50
316.94630119341338
  0
VERTEX
  5
ADB
  8
0
 10
116.0148805569592
 20
155.99758033014061
 30
0.0
 42
-0.1236287328816281
 50
90.0
  0
VERTEX
  5
ADC
  8
0
 10
116.0362181923965
 20
155.8742423555768
 30
0.0
 42
-0.1047089114758273
 50
90.0
  0
SEQEND
  5
ADD
  8
0
  0
POLYLINE
  5
ADE
  8
0
 66
     1
 10
0.0
 20
0.0
 30
0.0
  0
VERTEX
  5
ADF
  8
0
 10
126.16121819240099
 20
156.9893351008719
 30
0.0
 42
0.0162328826952284
 50
90.0
  0
VERTEX
  5
AE0
  8
0
 10
126.0062805890053
 20
156.98430360715869
 30
0.0
 42
0.0226962008047463
 50
90.0
  0
VERTEX
  5
AE1
  8
0
 10
125.89605314945609
 20
156.97209480929141
 30
0.0
 42
0.0516790455059756
 70
     2
 50
188.92066914969891
  0
VERTEX
  5
AE2
  8
0
 10
125.7937971356088
 20
156.94500620821901
 30
0.0
 50
90.0
  0
VERTEX
  5
AE3
  8
0
 10
125.78621819240109
 20
156.9304730635387
 30
0.0
 50
90.0
  0
SEQEND
  5
AE4
  8
0
  0
POLYLINE
  5
AE5
  8
0
 66
     1
 10
0.0
 20
0.0
 30
0.0
  0
VERTEX
  5
AE6
  8
0
 10
125.78621819240109
 20
156.3817902919474
 30
0.0
 42
0.1488470320745859
 50
90.0
  0
VERTEX
  5
AE7
  8
0
 10
125.9189958801874
 20
156.4222130043909
 30
0.0
 42
0.1070939314374275
 50
90.0
  0
VERTEX
  5
AE8
  8
0
 10
126.05138323534599
 20
156.5597360466067
 30
0.0
 42
0.0758177480846394
 70
     2
 50
58.315521158222467
  0
VERTEX
  5
AE9
  8
0
 10
126.1306488347482
 20
156.74635640343311
 30
0.0
 42
0.0626584555913342
 50
90.0
  0
VERTEX
  5
AEA
  8
0
 10
126.16121819240099
 20
156.9893351008719
 30
0.0
 42
0.0626584555913199
 50
90.0
  0
SEQEND
  5
AEB
  8
0
  0
POLYLINE
  5
AEC
  8
0
 66
     1
 10
0.0
 20
0.0
 30
0.0
  0
VERTEX
  5
AED
  8
0
 10
125.78621819240109
 20
158.40343454434429
 30
0.0
 42
0.1837701506072527
 50
90.0
  0
VERTEX
  5
AEE
  8
0
 10
125.9112353555924
 20
158.4509893870204
 30
0.0
 42
0.1023570990015804
 50
90.0
  0
VERTEX
  5
AEF
  8
0
 10
126.05138323534941
 20
158.63929210621609
 30
0.0
 42
0.06139380527182
 70
     2
 50
65.029384966189681
  0
VERTEX
  5
AF0
  8
0
 10
126.13000261884299
 20
158.8820615965187
 30
0.0
 42
0.0476740870733025
 50
90.0
  0
VERTEX
  5
AF1
  8
0
 10
126.1612181924058
 20
159.20870263087519
 30
0.0
 42
0.0476740870732675
 50
90.0
  0
SEQEND
  5
AF2
  8
0
  0
POLYLINE
  5
AF3
  8
0
 66
     1
 10
0.0
 20
0.0
 30
0.0
  0
VERTEX
  5
AF4
  8
0
 10
126.16121819240099
 20
159.20870263087519
 30
0.0
 42
0.1453834159301123
 50
90.0
  0
VERTEX
  5
AF5
  8
0
 10
126.13600106310339
 20
159.2935958471366
 30
0.0
 42
0.1071699662217274
 50
90.0
  0
VERTEX
  5
AF6
  8
0
 10
126.05138323534599
 20
159.37726880108681
 30
0.0
 42
0.077350332773411
 70
     2
 50
147.555763887909
  0
VERTEX
  5
AF7
  8
0
 10
125.9229186798179
 20
159.43338865934109
 30
0.0
 42
0.0789475685392101
 50
90.0
  0
VERTEX
  5
AF8
  8
0
 10
125.78621819240109
 20
159.44709119494411
 30
0.0
 42
0.0644571111103437
 50
90.0
  0
SEQEND
  5
AF9
  8
0
  0
POLYLINE
  5
AFA
  8
0
 66
     1
 10
0.0
 20
0.0
 30
0.0
  0
VERTEX
  5
AFB
  8
0
 10
125.78621819240109
 20
166.0686023092199
 30
0.0
 42
0.2055316714992537
 50
90.0
  0
VERTEX
  5
AFC
  8
0
 10
125.9064151779119
 20
166.1201901216894
 30
0.0
 42
0.0965313913509376
 50
90.0
  0
VERTEX
  5
AFD
  8
0
 10
126.05138323534619
 20
166.34761248367241
 30
0.0
 42
0.0533986296957384
 70
     2
 50
68.512458024392416
  0
VERTEX
  5
AFE
  8
0
 10
126.1297430337361
 20
166.63259485856449
 30
0.0
 42
0.0404311354471943
 50
90.0
  0
VERTEX
  5
AFF
  8
0
 10
126.16121819240129
 20
167.02120263087571
 30
0.0
 42
0.0404311354471791
 50
90.0
  0
SEQEND
  5
B00
  8
0
  0
POLYLINE
  5
B01
  8
0
 66
     1
 10
0.0
 20
0.0
 30
0.0
  0
VERTEX
  5
B02
  8
0
 10
126.16121819240099
 20
167.02120263087571
 30
0.0
 42
0.0520405140106174
 50
90.0
  0
VERTEX
  5
B03
  8
0
 10
126.1301763474461
 20
167.3186418236881
 30
0.0
 42
0.0658985238271168
 50
90.0
  0
VERTEX
  5
B04
  8
0
 10
126.05138323534599
 20
167.5416838588786
 30
0.0
 42
0.1046205348859841
 70
     2
 50
116.9970819670191
  0
VERTEX
  5
B05
  8
0
 10
125.9058460861233
 20
167.72177807860101
 30
0.0
 42
0.1996909920929194
 50
90.0
  0
VERTEX
  5
B06
  8
0
 10
125.78621819240109
 20
167.75727424247799
 30
0.0
 42
0.172337143622725
 50
90.0
  0
SEQEND
  5
B07
  8
0
  0
POLYLINE
  5
B08
  8
0
 66
     1
 10
0.0
 20
0.0
 30
0.0
  0
VERTEX
  5
B09
  8
0
 10
126.16121819240099
 20
162.66544860091409
 30
0.0
 42
0.0737304435607645
 50
90.0
  0
VERTEX
  5
B0A
  8
0
 10
126.1312098649643
 20
162.8678425875548
 30
0.0
 42
0.0845717212532976
 50
90.0
  0
VERTEX
  5
B0B
  8
0
 10
126.05138323534599
 20
163.0277022558802
 30
0.0
 42
0.1063921108588694
 70
     2
 50
126.2036506470299
  0
VERTEX
  5
B0C
  8
0
 10
125.91410613677451
 20
163.14979868586511
 30
0.0
 42
0.1510088585334486
 50
90.0
  0
VERTEX
  5
B0D
  8
0
 10
125.78621819240109
 20
163.17775263278949
 30
0.0
 42
0.1294534172461018
 50
90.0
  0
SEQEND
  5
B0E
  8
0
  0
POLYLINE
  5
B0F
  8
0
 66
     1
 10
0.0
 20
0.0
 30
0.0
  0
VERTEX
  5
B10
  8
0
 10
125.78621819240109
 20
161.74128248771891
 30
0.0
 42
0.2015894264067176
 50
90.0
  0
VERTEX
  5
B11
  8
0
 10
125.9072852126676
 20
161.79216179860211
 30
0.0
 42
0.0977170379735125
 50
90.0
  0
VERTEX
  5
B12
  8
0
 10
126.05138323534599
 20
162.01196447533101
 30
0.0
 42
0.0547927573384048
 70
     2
 50
67.914102239173715
  0
VERTEX
  5
B13
  8
0
 10
126.1297842692184
 20
162.28878105535759
 30
0.0
 42
0.0416539519670256
 50
90.0
  0
VERTEX
  5
B14
  8
0
 10
126.16121819240099
 20
162.66544860091409
 30
0.0
 42
0.0416539519669881
 50
90.0
  0
SEQEND
  5
B15
  8
0
  0
POLYLINE
  5
B16
  8
0
 66
     1
 10
0.0
 20
0.0
 30
0.0
  0
VERTEX
  5
B17
  8
0
 10
125.78621819240109
 20
155.8742423555768
 30
0.0
 42
-0.0068051090718327
 50
90.0
  0
VERTEX
  5
B18
  8
0
 10
125.94147890061301
 20
155.87212912560619
 30
0.0
 42
-0.0096044777403865
 50
90.0
  0
VERTEX
  5
B19
  8
0
 10
126.05138323534599
 20
155.8670227756817
 30
0.0
 42
-0.0229390352869734
 70
     2
 50
356.23929148249317
  0
VERTEX
  5
B1A
  8
0
 10
126.15799815822029
 20
155.85508497146441
 30
0.0
 50
90.0
  0
VERTEX
  5
B1B
  8
0
 10
126.16121819240099
 20
155.84959316798449
 30
0.0
 50
90.0
  0
SEQEND
  5
B1C
  8
0
  0
POLYLINE
  5
B1D
  8
0
 66
     1
 10
0.0
 20
0.0
 30
0.0
  0
VERTEX
  5
B1E
  8
0
 10
125.78621819240109
 20
187.82494398039231
 30
0.0
 42
0.0068051090718327
 50
90.0
  0
VERTEX
  5
B1F
  8
0
 10
125.94147890061301
 20
187.8270572103628
 30
0.0
 42
0.0096044777403865
 50
90.0
  0
VERTEX
  5
B20
  8
0
 10
126.05138323534599
 20
187.83216356028731
 30
0.0
 42
0.0229390352869734
 70
     2
 50
3.7607085175068882
  0
VERTEX
  5
B21
  8
0
 10
126.15799815822029
 20
187.8441013645047
 30
0.0
 50
3.7607085175068882
  0
VERTEX
  5
B22
  8
0
 10
126.16121819240099
 20
187.84959316798449
 30
0.0
 50
90.0
  0
SEQEND
  5
B23
  8
0
  0
POLYLINE
  5
B24
  8
0
 66
     1
 10
0.0
 20
0.0
 30
0.0
  0
VERTEX
  5
B25
  8
0
 10
125.78621819240109
 20
181.95790384825011
 30
0.0
 42
-0.2015894264067176
 50
90.0
  0
VERTEX
  5
B26
  8
0
 10
125.9072852126676
 20
181.90702453736691
 30
0.0
 42
-0.0977170379735125
 50
90.0
  0
VERTEX
  5
B27
  8
0
 10
126.05138323534599
 20
181.687221860638
 30
0.0
 42
-0.0547927573384048
 70
     2
 50
292.08589776082619
  0
VERTEX
  5
B28
  8
0
 10
126.1297842692184
 20
181.4104052806114
 30
0.0
 42
-0.0416539519670256
 50
90.0
  0
VERTEX
  5
B29
  8
0
 10
126.16121819240099
 20
181.0337377350549
 30
0.0
 42
-0.0416539519669881
 50
90.0
  0
SEQEND
  5
B2A
  8
0
  0
POLYLINE
  5
B2B
  8
0
 66
     1
 10
0.0
 20
0.0
 30
0.0
  0
VERTEX
  5
B2C
  8
0
 10
126.16121819240099
 20
181.0337377350549
 30
0.0
 42
-0.0737304435607645
 50
90.0
  0
VERTEX
  5
B2D
  8
0
 10
126.1312098649643
 20
180.83134374841421
 30
0.0
 42
-0.0845717212532976
 50
90.0
  0
VERTEX
  5
B2E
  8
0
 10
126.05138323534599
 20
180.6714840800889
 30
0.0
 42
-0.1063921108588694
 70
     2
 50
233.79634935297011
  0
VERTEX
  5
B2F
  8
0
 10
125.91410613677451
 20
180.54938765010399
 30
0.0
 42
-0.1510088585334486
 50
90.0
  0
VERTEX
  5
B30
  8
0
 10
125.78621819240109
 20
180.5214337031795
 30
0.0
 42
-0.1294534172461018
 50
90.0
  0
SEQEND
  5
B31
  8
0
  0
POLYLINE
  5
B32
  8
0
 66
     1
 10
0.0
 20
0.0
 30
0.0
  0
VERTEX
  5
B33
  8
0
 10
126.16121819240099
 20
176.67798370509331
 30
0.0
 42
-0.0520405140106174
 50
90.0
  0
VERTEX
  5
B34
  8
0
 10
126.1301763474461
 20
176.38054451228089
 30
0.0
 42
-0.0658985238271168
 50
90.0
  0
VERTEX
  5
B35
  8
0
 10
126.05138323534599
 20
176.15750247709039
 30
0.0
 42
-0.1046205348859841
 70
     2
 50
243.00291803298089
  0
VERTEX
  5
B36
  8
0
 10
125.9058460861233
 20
175.97740825736801
 30
0.0
 42
-0.1996909920929194
 50
90.0
  0
VERTEX
  5
B37
  8
0
 10
125.78621819240109
 20
175.94191209349111
 30
0.0
 42
-0.172337143622725
 50
90.0
  0
SEQEND
  5
B38
  8
0
  0
POLYLINE
  5
B39
  8
0
 66
     1
 10
0.0
 20
0.0
 30
0.0
  0
VERTEX
  5
B3A
  8
0
 10
125.78621819240109
 20
177.6305840267492
 30
0.0
 42
-0.2055316714992537
 50
90.0
  0
VERTEX
  5
B3B
  8
0
 10
125.9064151779119
 20
177.57899621427961
 30
0.0
 42
-0.0965313913509376
 50
90.0
  0
VERTEX
  5
B3C
  8
0
 10
126.05138323534619
 20
177.35157385229661
 30
0.0
 42
-0.0533986296957384
 70
     2
 50
291.4875419756076
  0
VERTEX
  5
B3D
  8
0
 10
126.1297430337361
 20
177.0665914774045
 30
0.0
 42
-0.0404311354471943
 50
90.0
  0
VERTEX
  5
B3E
  8
0
 10
126.16121819240129
 20
176.67798370509331
 30
0.0
 42
-0.0404311354471791
 50
90.0
  0
SEQEND
  5
B3F
  8
0
  0
POLYLINE
  5
B40
  8
0
 66
     1
 10
0.0
 20
0.0
 30
0.0
  0
VERTEX
  5
B41
  8
0
 10
126.16121819240099
 20
171.84959316798449
 30
0.0
 42
-0.0433295665536456
 50
90.0
  0
VERTEX
  5
B42
  8
0
 10
126.12984250607521
 20
171.4882142933219
 30
0.0
 42
-0.0566743414169658
 50
90.0
  0
VERTEX
  5
B43
  8
0
 10
126.05138323534599
 20
171.2218326959478
 30
0.0
 42
-0.0992025570697266
 70
     2
 50
247.10088003611941
  0
VERTEX
  5
B44
  8
0
 10
125.90097034139789
 20
171.00075446552231
 30
0.0
 42
-0.2280338981645266
 50
90.0
  0
VERTEX
  5
B45
  8
0
 10
125.78621819240109
 20
170.96180579452579
 30
0.0
 42
-0.1963710675046459
 50
90.0
  0
SEQEND
  5
B46
  8
0
  0
POLYLINE
  5
B47
  8
0
 66
     1
 10
0.0
 20
0.0
 30
0.0
  0
VERTEX
  5
B48
  8
0
 10
125.78621819240109
 20
172.7373805414606
 30
0.0
 42
-0.1963710675046226
 50
90.0
  0
VERTEX
  5
B49
  8
0
 10
125.90843931452081
 20
172.68745390627271
 30
0.0
 42
-0.0992025570696904
 50
90.0
  0
VERTEX
  5
B4A
  8
0
 10
126.05138323534599
 20
172.47735364002131
 30
0.0
 42
-0.0566743414169369
 70
     2
 50
292.89911996387622
  0
VERTEX
  5
B4B
  8
0
 10
126.12984250607521
 20
172.21097204264731
 30
0.0
 42
-0.0433295665536664
 50
90.0
  0
VERTEX
  5
B4C
  8
0
 10
126.16121819240099
 20
171.84959316798449
 30
0.0
 42
-0.0433295665536456
 50
90.0
  0
SEQEND
  5
B4D
  8
0
  0
POLYLINE
  5
B4E
  8
0
 66
     1
 10
0.0
 20
0.0
 30
0.0
  0
VERTEX
  5
B4F
  8
0
 10
126.16121819240099
 20
184.49048370509379
 30
0.0
 42
-0.1453834159301123
 50
90.0
  0
VERTEX
  5
B50
  8
0
 10
126.13600106310339
 20
184.4055904888325
 30
0.0
 42
-0.1071699662217274
 50
90.0
  0
VERTEX
  5
B51
  8
0
 10
126.05138323534599
 20
184.3219175348822
 30
0.0
 42
-0.077350332773411
 70
     2
 50
212.444236112091
  0
VERTEX
  5
B52
  8
0
 10
125.9229186798179
 20
184.2657976766279
 30
0.0
 42
-0.0789475685392101
 50
90.0
  0
VERTEX
  5
B53
  8
0
 10
125.78621819240109
 20
184.25209514102491
 30
0.0
 42
-0.0644571111103437
 50
90.0
  0
SEQEND
  5
B54
  8
0
  0
POLYLINE
  5
B55
  8
0
 66
     1
 10
0.0
 20
0.0
 30
0.0
  0
VERTEX
  5
B56
  8
0
 10
125.78621819240109
 20
185.2957517916247
 30
0.0
 42
-0.1837701506072527
 50
90.0
  0
VERTEX
  5
B57
  8
0
 10
125.9112353555924
 20
185.24819694894859
 30
0.0
 42
-0.1023570990015804
 50
90.0
  0
VERTEX
  5
B58
  8
0
 10
126.05138323534941
 20
185.0598942297529
 30
0.0
 42
-0.06139380527182
 70
     2
 50
294.9706150338103
  0
VERTEX
  5
B59
  8
0
 10
126.13000261884299
 20
184.81712473945029
 30
0.0
 42
-0.0476740870733025
 50
90.0
  0
VERTEX
  5
B5A
  8
0
 10
126.1612181924058
 20
184.49048370509379
 30
0.0
 42
-0.0476740870732675
 50
90.0
  0
SEQEND
  5
B5B
  8
0
  0
POLYLINE
  5
B5C
  8
0
 66
     1
 10
0.0
 20
0.0
 30
0.0
  0
VERTEX
  5
B5D
  8
0
 10
125.78621819240109
 20
187.31739604402159
 30
0.0
 42
-0.1488470320745859
 50
90.0
  0
VERTEX
  5
B5E
  8
0
 10
125.9189958801874
 20
187.27697333157809
 30
0.0
 42
-0.1070939314374275
 50
90.0
  0
VERTEX
  5
B5F
  8
0
 10
126.05138323534599
 20
187.13945028936229
 30
0.0
 42
-0.0758177480846394
 70
     2
 50
301.68447884177749
  0
VERTEX
  5
B60
  8
0
 10
126.1306488347482
 20
186.95282993253591
 30
0.0
 42
-0.0626584555913342
 50
90.0
  0
VERTEX
  5
B61
  8
0
 10
126.16121819240099
 20
186.70985123509709
 30
0.0
 42
-0.0626584555913199
 50
90.0
  0
SEQEND
  5
B62
  8
0
  0
POLYLINE
  5
B63
  8
0
 66
     1
 10
0.0
 20
0.0
 30
0.0
  0
VERTEX
  5
B64
  8
0
 10
126.16121819240099
 20
186.70985123509709
 30
0.0
 42
-0.0162328826952284
 50
90.0
  0
VERTEX
  5
B65
  8
0
 10
126.0062805890053
 20
186.71488272881041
 30
0.0
 42
-0.0226962008047463
 50
90.0
  0
VERTEX
  5
B66
  8
0
 10
125.89605314945609
 20
186.72709152667761
 30
0.0
 42
-0.0516790455059756
 70
     2
 50
171.07933085030109
  0
VERTEX
  5
B67
  8
0
 10
125.7937971356088
 20
186.75418012775009
 30
0.0
 50
90.0
  0
VERTEX
  5
B68
  8
0
 10
125.78621819240109
 20
186.76871327243029
 30
0.0
 50
90.0
  0
SEQEND
  5
B69
  8
0
  0
POLYLINE
  5
B6A
  8
0
 66
     1
 10
0.0
 20
0.0
 30
0.0
  0
VERTEX
  5
B6B
  8
0
 10
115.66121819240119
 20
187.47459316798461
 30
0.0
 42
0.092572595455409
 50
90.0
  0
VERTEX
  5
B6C
  8
0
 10
115.8058913452207
 20
187.50161023424209
 30
0.0
 42
0.0958395211622397
 50
90.0
  0
VERTEX
  5
B6D
  8
0
 10
115.92638323534609
 20
187.5772085451446
 30
0.0
 42
0.1008530118927434
 70
     2
 50
43.053698806586652
  0
VERTEX
  5
B6E
  8
0
 10
116.0148805569592
 20
187.70160600582841
 30
0.0
 42
0.1236287328816281
 50
43.053698806586652
  0
VERTEX
  5
B6F
  8
0
 10
116.0362181923965
 20
187.82494398039231
 30
0.0
 42
0.1047089114758273
 50
90.0
  0
SEQEND
  5
B70
  8
0
  0
LINE
  5
B71
  8
0
 10
116.03621819240109
 20
186.76871327243029
 30
0.0
 11
116.03621819240109
 21
185.2957517916247
 31
0.0
  0
POLYLINE
  5
B72
  8
0
 66
     1
 10
0.0
 20
0.0
 30
0.0
  0
VERTEX
  5
B73
  8
0
 10
115.66121819240119
 20
186.70985123509709
 30
0.0
 42
0.0162328826952284
 50
90.0
  0
VERTEX
  5
B74
  8
0
 10
115.8161557957969
 20
186.71488272881041
 30
0.0
 42
0.0226962008047463
 50
90.0
  0
VERTEX
  5
B75
  8
0
 10
115.92638323534609
 20
186.72709152667761
 30
0.0
 42
0.0516790455059756
 70
     2
 50
8.9206691496988508
  0
VERTEX
  5
B76
  8
0
 10
116.0286392491935
 20
186.75418012775009
 30
0.0
 50
8.9206691496988508
  0
VERTEX
  5
B77
  8
0
 10
116.03621819240119
 20
186.76871327243029
 30
0.0
 50
90.0
  0
SEQEND
  5
B78
  8
0
  0
POLYLINE
  5
B79
  8
0
 66
     1
 10
0.0
 20
0.0
 30
0.0
  0
VERTEX
  5
B7A
  8
0
 10
116.03621819240109
 20
187.31739604402159
 30
0.0
 42
0.1488470320745859
 50
90.0
  0
VERTEX
  5
B7B
  8
0
 10
115.90344050461481
 20
187.27697333157809
 30
0.0
 42
0.1070939314374275
 50
90.0
  0
VERTEX
  5
B7C
  8
0
 10
115.77105314945631
 20
187.13945028936229
 30
0.0
 42
0.0758177480846394
 70
     2
 50
238.31552115822251
  0
VERTEX
  5
B7D
  8
0
 10
115.691787550054
 20
186.95282993253591
 30
0.0
 42
0.0626584555913342
 50
238.31552115822251
  0
VERTEX
  5
B7E
  8
0
 10
115.66121819240119
 20
186.70985123509709
 30
0.0
 42
0.0626584555913199
 50
90.0
  0
SEQEND
  5
B7F
  8
0
  0
LINE
  5
B80
  8
0
 10
116.03621819240109
 20
184.25209514102329
 30
0.0
 11
116.03621819240109
 21
181.95790384825011
 31
0.0
  0
POLYLINE
  5
B81
  8
0
 66
     1
 10
0.0
 20
0.0
 30
0.0
  0
VERTEX
  5
B82
  8
0
 10
116.03621819240109
 20
185.2957517916247
 30
0.0
 42
0.1837701506072527
 50
90.0
  0
VERTEX
  5
B83
  8
0
 10
115.91120102920991
 20
185.24819694894859
 30
0.0
 42
0.1023570990015804
 50
90.0
  0
VERTEX
  5
B84
  8
0
 10
115.7710531494529
 20
185.0598942297529
 30
0.0
 42
0.06139380527182
 70
     2
 50
245.0293849661897
  0
VERTEX
  5
B85
  8
0
 10
115.69243376595919
 20
184.81712473945029
 30
0.0
 42
0.0476740870733025
 50
245.0293849661897
  0
VERTEX
  5
B86
  8
0
 10
115.6612181923964
 20
184.49048370509379
 30
0.0
 42
0.0476740870732675
 50
90.0
  0
SEQEND
  5
B87
  8
0
  0
POLYLINE
  5
B88
  8
0
 66
     1
 10
0.0
 20
0.0
 30
0.0
  0
VERTEX
  5
B89
  8
0
 10
115.66121819240119
 20
184.49048370509379
 30
0.0
 42
0.1453834159301123
 50
90.0
  0
VERTEX
  5
B8A
  8
0
 10
115.6864353216988
 20
184.4055904888325
 30
0.0
 42
0.1071699662217274
 50
90.0
  0
VERTEX
  5
B8B
  8
0
 10
115.77105314945631
 20
184.3219175348822
 30
0.0
 42
0.077350332773411
 70
     2
 50
327.55576388790911
  0
VERTEX
  5
B8C
  8
0
 10
115.89951770498431
 20
184.2657976766279
 30
0.0
 42
0.0789475685392101
 50
327.55576388790911
  0
VERTEX
  5
B8D
  8
0
 10
116.03621819240119
 20
184.25209514102491
 30
0.0
 42
0.0644571111103437
 50
90.0
  0
SEQEND
  5
B8E
  8
0
  0
LINE
  5
B8F
  8
0
 10
116.03621819240109
 20
175.94191209349111
 30
0.0
 11
116.03621819240109
 21
172.7373805414606
 31
0.0
  0
LINE
  5
B90
  8
0
 10
116.03621819240109
 20
180.52143370318259
 30
0.0
 11
116.03621819240109
 21
177.6305840267492
 31
0.0
  0
POLYLINE
  5
B91
  8
0
 66
     1
 10
0.0
 20
0.0
 30
0.0
  0
VERTEX
  5
B92
  8
0
 10
116.03621819240109
 20
172.7373805414606
 30
0.0
 42
0.1963710675046226
 50
90.0
  0
VERTEX
  5
B93
  8
0
 10
115.9139970702814
 20
172.68745390627271
 30
0.0
 42
0.0992025570696904
 50
90.0
  0
VERTEX
  5
B94
  8
0
 10
115.77105314945619
 20
172.47735364002131
 30
0.0
 42
0.0566743414169369
 70
     2
 50
247.10088003612381
  0
VERTEX
  5
B95
  8
0
 10
115.6925938787271
 20
172.21097204264731
 30
0.0
 42
0.0433295665536664
 50
247.10088003612381
  0
VERTEX
  5
B96
  8
0
 10
115.66121819240119
 20
171.84959316798449
 30
0.0
 42
0.0433295665536456
 50
90.0
  0
SEQEND
  5
B97
  8
0
  0
POLYLINE
  5
B98
  8
0
 66
     1
 10
0.0
 20
0.0
 30
0.0
  0
VERTEX
  5
B99
  8
0
 10
115.66121819240119
 20
171.84959316798449
 30
0.0
 42
0.0433295665536456
 50
90.0
  0
VERTEX
  5
B9A
  8
0
 10
115.6925938787271
 20
171.4882142933219
 30
0.0
 42
0.0566743414169658
 50
90.0
  0
VERTEX
  5
B9B
  8
0
 10
115.77105314945631
 20
171.2218326959478
 30
0.0
 42
0.0992025570697266
 70
     2
 50
292.89911996388048
  0
VERTEX
  5
B9C
  8
0
 10
115.92146604340429
 20
171.00075446552231
 30
0.0
 42
0.2280338981645266
 50
292.89911996388048
  0
VERTEX
  5
B9D
  8
0
 10
116.03621819240109
 20
170.96180579452579
 30
0.0
 42
0.1963710675046459
 50
90.0
  0
SEQEND
  5
B9E
  8
0
  0
POLYLINE
  5
B9F
  8
0
 66
     1
 10
0.0
 20
0.0
 30
0.0
  0
VERTEX
  5
BA0
  8
0
 10
116.03621819240109
 20
177.6305840267492
 30
0.0
 42
0.2055316714992537
 50
90.0
  0
VERTEX
  5
BA1
  8
0
 10
115.91602120689031
 20
177.57899621427961
 30
0.0
 42
0.0965313913509376
 50
90.0
  0
VERTEX
  5
BA2
  8
0
 10
115.77105314945609
 20
177.35157385229661
 30
0.0
 42
0.0533986296957384
 70
     2
 50
248.5124580243924
  0
VERTEX
  5
BA3
  8
0
 10
115.6926933510662
 20
177.0665914774045
 30
0.0
 42
0.0404311354471943
 50
248.5124580243924
  0
VERTEX
  5
BA4
  8
0
 10
115.6612181924009
 20
176.67798370509331
 30
0.0
 42
0.0404311354471791
 50
90.0
  0
SEQEND
  5
BA5
  8
0
  0
POLYLINE
  5
BA6
  8
0
 66
     1
 10
0.0
 20
0.0
 30
0.0
  0
VERTEX
  5
BA7
  8
0
 10
115.66121819240119
 20
176.67798370509331
 30
0.0
 42
0.0520405140106174
 50
90.0
  0
VERTEX
  5
BA8
  8
0
 10
115.69226003735611
 20
176.38054451228089
 30
0.0
 42
0.0658985238271168
 50
90.0
  0
VERTEX
  5
BA9
  8
0
 10
115.77105314945631
 20
176.15750247709039
 30
0.0
 42
0.1046205348859841
 70
     2
 50
296.99708196701908
  0
VERTEX
  5
BAA
  8
0
 10
115.916590298679
 20
175.97740825736801
 30
0.0
 42
0.1996909920929194
 50
296.99708196701908
  0
VERTEX
  5
BAB
  8
0
 10
116.03621819240109
 20
175.94191209349111
 30
0.0
 42
0.172337143622725
 50
90.0
  0
SEQEND
  5
BAC
  8
0
  0
POLYLINE
  5
BAD
  8
0
 66
     1
 10
0.0
 20
0.0
 30
0.0
  0
VERTEX
  5
BAE
  8
0
 10
115.66121819240119
 20
181.0337377350549
 30
0.0
 42
0.0737304435607645
 50
90.0
  0
VERTEX
  5
BAF
  8
0
 10
115.691226519838
 20
180.83134374841421
 30
0.0
 42
0.0845717212532976
 50
90.0
  0
VERTEX
  5
BB0
  8
0
 10
115.77105314945619
 20
180.6714840800889
 30
0.0
 42
0.1063921108588694
 70
     2
 50
306.20365064702992
  0
VERTEX
  5
BB1
  8
0
 10
115.9083302480278
 20
180.54938765010399
 30
0.0
 42
0.1510088585334486
 50
306.20365064702992
  0
VERTEX
  5
BB2
  8
0
 10
116.03621819240109
 20
180.5214337031795
 30
0.0
 42
0.1294534172461018
 50
90.0
  0
SEQEND
  5
BB3
  8
0
  0
POLYLINE
  5
BB4
  8
0
 66
     1
 10
0.0
 20
0.0
 30
0.0
  0
VERTEX
  5
BB5
  8
0
 10
116.03621819240109
 20
181.95790384825011
 30
0.0
 42
0.2015894264067176
 50
90.0
  0
VERTEX
  5
BB6
  8
0
 10
115.9151511721347
 20
181.90702453736691
 30
0.0
 42
0.0977170379735125
 50
90.0
  0
VERTEX
  5
BB7
  8
0
 10
115.77105314945631
 20
181.687221860638
 30
0.0
 42
0.0547927573384048
 70
     2
 50
247.9141022391737
  0
VERTEX
  5
BB8
  8
0
 10
115.6926521155838
 20
181.4104052806114
 30
0.0
 42
0.0416539519670256
 50
247.9141022391737
  0
VERTEX
  5
BB9
  8
0
 10
115.66121819240119
 20
181.0337377350549
 30
0.0
 42
0.0416539519669881
 50
90.0
  0
SEQEND
  5
BBA
  8
0
  0
LINE
  5
BBB
  8
0
 10
116.03621819240109
 20
187.82494398039231
 30
0.0
 11
125.78621819240109
 21
187.82494398039231
 31
0.0
  0
LINE
  5
BBC
  8
0
 10
116.03621819240109
 20
187.82494398039231
 30
0.0
 11
116.03621819240119
 21
187.31739604402159
 31
0.0
  0
LINE
  5
BBF
  8
0
 10
116.03621819240119
 20
187.31739604402159
 30
0.0
 11
125.78621819240109
 21
187.31739604402159
 31
0.0
  0
LINE
  5
BC0
  8
0
 10
116.03621819240109
 20
186.7687132724304
 30
0.0
 11
125.78621819240109
 21
186.7687132724304
 31
0.0
  0
LINE
  5
BC1
  8
0
 10
116.03621819240109
 20
185.2957517916247
 30
0.0
 11
125.7862191460754
 21
185.2957517916247
 31
0.0
  0
LINE
  5
BC2
  8
0
 10
116.03621819240119
 20
184.25209514102329
 30
0.0
 11
125.8366770652179
 21
184.25209514102329
 31
0.0
  0
LINE
  5
BC3
  8
0
 10
116.03621819240109
 20
181.95790384825011
 30
0.0
 11
125.7862203248817
 21
181.95790384825011
 31
0.0
  0
LINE
  5
BC4
  8
0
 10
116.03621819240109
 20
180.52143370318259
 30
0.0
 11
125.8236594755339
 21
180.52143370318259
 31
0.0
  0
LINE
  5
BC5
  8
0
 10
116.03621819240109
 20
177.6305840267492
 30
0.0
 11
125.7862191460754
 21
177.6305840267492
 31
0.0
  0
LINE
  5
BC6
  8
0
 10
116.03621819240109
 20
175.94191209349111
 30
0.0
 11
125.8205124888572
 21
175.94191209349111
 31
0.0
  0
LINE
  5
BC7
  8
0
 10
116.03621819240119
 20
172.7373805414606
 30
0.0
 11
125.78621819240109
 21
172.7373805414606
 31
0.0
  0
LINE
  5
BC8
  8
0
 10
137.03621819240109
 20
165.84959316798449
 30
0.0
 11
137.03621819240109
 21
177.84959316798449
 31
0.0
  0
LINE
  5
BC9
  8
0
 10
115.03621819240109
 20
156.84959316798449
 30
0.0
 11
115.03621819240109
 21
186.84959316798449
 31
0.0
  0
LINE
  5
BCE
  8
0
 10
137.03621819240109
 20
165.84959316798449
 30
0.0
 11
136.73621819240111
 21
165.84959316798449
 31
0.0
  0
LINE
  5
BCF
  8
0
 10
127.03621819240109
 20
187.84959316798449
 30
0.0
 11
127.03621819240109
 21
155.84959316798449
 31
0.0
  0
LINE
  5
BD0
  8
0
 10
135.7362181924012
 20
180.34959316798449
 30
0.0
 11
135.7362181924012
 21
163.34959316798449
 31
0.0
  0
LINE
  5
BD1
  8
0
 10
126.16121819240099
 20
187.84959316798449
 30
0.0
 11
127.03621819240109
 21
187.84959316798449
 31
0.0
  0
LINE
  5
BD2
  8
0
 10
128.03621819240121
 20
186.84959316798449
 30
0.0
 11
128.03621819240121
 21
156.84959316798449
 31
0.0
  0
LINE
  5
BD3
  8
0
 10
128.03621819240121
 20
180.34959316798449
 30
0.0
 11
135.7362181924012
 21
180.34959316798449
 31
0.0
  0
LINE
  5
BD4
  8
0
 10
136.73621819240111
 20
179.34959316798449
 30
0.0
 11
136.73621819240111
 21
164.34959316798449
 31
0.0
  0
LINE
  5
BD5
  8
0
 10
136.73621819240111
 20
177.84959316798449
 30
0.0
 11
137.03621819240109
 21
177.84959316798449
 31
0.0
  0
LINE
  5
BD6
  8
0
 10
115.6612181924113
 20
187.4745931679947
 30
0.0
 11
115.03621819240109
 21
186.84959316798449
 31
0.0
  0
LINE
  5
BD7
  8
0
 10
127.03621819240109
 20
187.84959316798449
 30
0.0
 11
128.03621819240121
 21
186.84959316798449
 31
0.0
  0
LINE
  5
BD8
  8
0
 10
135.7362181924012
 20
180.34959316798449
 30
0.0
 11
136.73621819240111
 21
179.34959316798449
 31
0.0
  0
LINE
  5
BD9
  8
0
 10
135.7362181924012
 20
163.34959316798449
 30
0.0
 11
136.73621819240111
 21
164.34959316798449
 31
0.0
  0
LINE
  5
BDA
  8
0
 10
127.03621819240109
 20
155.84959316798449
 30
0.0
 11
128.03621819240121
 21
156.84959316798449
 31
0.0
  0
LINE
  5
BDB
  8
0
 10
128.03621819240109
 20
163.34959316798449
 30
0.0
 11
135.7362181924012
 21
163.34959316798449
 31
0.0
  0
LINE
  5
BDC
  8
1
 10
142.03621819240109
 20
171.84959316798449
 30
0.0
 11
110.03621819240109
 21
171.84959316798449
 31
0.0
  0
LINE
  5
BDD
  8
0
 10
115.6612181924113
 20
46.224593167974341
 30
0.0
 11
115.03621819240109
 21
46.849593167984523
 31
0.0
  0
LINE
  5
BDE
  8
0
 10
126.16121819240099
 20
45.849593167984523
 30
0.0
 11
127.03621819240109
 21
45.849593167984523
 31
0.0
  0
LINE
  5
BDF
  8
0
 10
116.03621819240109
 20
60.96180579450845
 30
0.0
 11
125.78621819240109
 21
60.96180579450845
 31
0.0
  0
LINE
  5
BE0
  8
0
 10
116.03621819240109
 20
57.75727424247799
 30
0.0
 11
125.8205124888572
 21
57.75727424247799
 31
0.0
  0
LINE
  5
BE1
  8
0
 10
116.03621819240109
 20
56.068602309219898
 30
0.0
 11
125.7862191460754
 21
56.068602309219898
 31
0.0
  0
LINE
  5
BE2
  8
0
 10
116.03621819240109
 20
53.177752632786422
 30
0.0
 11
125.8236594755339
 21
53.177752632786422
 31
0.0
  0
LINE
  5
BE3
  8
0
 10
116.03621819240109
 20
51.741282487718962
 30
0.0
 11
125.7862203248817
 21
51.741282487718962
 31
0.0
  0
LINE
  5
BE4
  8
0
 10
116.03621819240109
 20
49.447091194945791
 30
0.0
 11
125.8366770652179
 21
49.447091194945791
 31
0.0
  0
LINE
  5
BE5
  8
0
 10
116.03621819240109
 20
48.403434544344321
 30
0.0
 11
125.7862191460754
 21
48.403434544344321
 31
0.0
  0
LINE
  5
BE6
  8
0
 10
116.03621819240109
 20
46.930473063538699
 30
0.0
 11
125.78621819240109
 21
46.930473063538699
 31
0.0
  0
LINE
  5
BE7
  8
0
 10
116.03621819240109
 20
46.381790291947453
 30
0.0
 11
125.78621819240109
 21
46.381790291947453
 31
0.0
  0
LINE
  5
BE8
  8
0
 10
116.03621819240109
 20
45.87424235557679
 30
0.0
 11
116.03621819240109
 21
46.381790291947482
 31
0.0
  0
LINE
  5
BE9
  8
0
 10
116.03621819240109
 20
45.87424235557679
 30
0.0
 11
125.78621819240109
 21
45.87424235557679
 31
0.0
  0
POLYLINE
  5
BEA
  8
0
 66
     1
 10
0.0
 20
0.0
 30
0.0
  0
VERTEX
  5
BEB
  8
0
 10
116.03621819240109
 20
51.741282487718962
 30
0.0
 42
-0.2015894264067176
 50
90.0
  0
VERTEX
  5
BEC
  8
0
 10
115.9151511721347
 20
51.792161798602159
 30
0.0
 42
-0.0977170379735125
 50
90.0
  0
VERTEX
  5
BED
  8
0
 10
115.77105314945619
 20
52.011964475331013
 30
0.0
 42
-0.0547927573384048
 70
     2
 50
112.0858977608263
  0
VERTEX
  5
BEE
  8
0
 10
115.6926521155838
 20
52.288781055357639
 30
0.0
 42
-0.0416539519670256
 50
90.0
  0
VERTEX
  5
BEF
  8
0
 10
115.66121819240119
 20
52.665448600914111
 30
0.0
 42
-0.0416539519669881
 50
90.0
  0
SEQEND
  5
BF0
  8
0
  0
POLYLINE
  5
BF1
  8
0
 66
     1
 10
0.0
 20
0.0
 30
0.0
  0
VERTEX
  5
BF2
  8
0
 10
115.66121819240119
 20
52.66544860091409
 30
0.0
 42
-0.0737304435607645
 50
90.0
  0
VERTEX
  5
BF3
  8
0
 10
115.691226519838
 20
52.867842587554861
 30
0.0
 42
-0.0845717212532976
 50
90.0
  0
VERTEX
  5
BF4
  8
0
 10
115.77105314945619
 20
53.0277022558802
 30
0.0
 42
-0.1063921108588694
 70
     2
 50
53.796349352970111
  0
VERTEX
  5
BF5
  8
0
 10
115.9083302480277
 20
53.149798685865079
 30
0.0
 42
-0.1510088585334486
 50
90.0
  0
VERTEX
  5
BF6
  8
0
 10
116.03621819240109
 20
53.17775263278957
 30
0.0
 42
-0.1294534172461018
 50
90.0
  0
SEQEND
  5
BF7
  8
0
  0
POLYLINE
  5
BF8
  8
0
 66
     1
 10
0.0
 20
0.0
 30
0.0
  0
VERTEX
  5
BF9
  8
0
 10
115.66121819240119
 20
57.021202630875727
 30
0.0
 42
-0.0520405140106174
 50
90.0
  0
VERTEX
  5
BFA
  8
0
 10
115.69226003735611
 20
57.318641823688132
 30
0.0
 42
-0.0658985238271168
 50
90.0
  0
VERTEX
  5
BFB
  8
0
 10
115.77105314945619
 20
57.541683858878599
 30
0.0
 42
-0.1046205348859841
 70
     2
 50
63.002918032980951
  0
VERTEX
  5
BFC
  8
0
 10
115.916590298679
 20
57.721778078601062
 30
0.0
 42
-0.1996909920929194
 50
90.0
  0
VERTEX
  5
BFD
  8
0
 10
116.03621819240109
 20
57.75727424247799
 30
0.0
 42
-0.172337143622725
 50
90.0
  0
SEQEND
  5
BFE
  8
0
  0
POLYLINE
  5
BFF
  8
0
 66
     1
 10
0.0
 20
0.0
 30
0.0
  0
VERTEX
  5
C00
  8
0
 10
116.03621819240109
 20
56.068602309219898
 30
0.0
 42
-0.2055316714992537
 50
90.0
  0
VERTEX
  5
C01
  8
0
 10
115.91602120689031
 20
56.120190121689461
 30
0.0
 42
-0.0965313913509376
 50
90.0
  0
VERTEX
  5
C02
  8
0
 10
115.77105314945599
 20
56.347612483672378
 30
0.0
 42
-0.0533986296957384
 70
     2
 50
111.4875419756076
  0
VERTEX
  5
C03
  8
0
 10
115.6926933510662
 20
56.632594858564538
 30
0.0
 42
-0.0404311354471943
 50
90.0
  0
VERTEX
  5
C04
  8
0
 10
115.6612181924009
 20
57.021202630875727
 30
0.0
 42
-0.0404311354471791
 50
90.0
  0
SEQEND
  5
C05
  8
0
  0
LINE
  5
C06
  8
0
 10
116.03621819240109
 20
53.177752632786422
 30
0.0
 11
116.03621819240109
 21
56.06860230921987
 31
0.0
  0
LINE
  5
C07
  8
0
 10
116.03621819240109
 20
57.757274242477962
 30
0.0
 11
116.03621819240109
 21
60.961805794508422
 31
0.0
  0
POLYLINE
  5
C08
  8
0
 66
     1
 10
0.0
 20
0.0
 30
0.0
  0
VERTEX
  5
C09
  8
0
 10
115.66121819240119
 20
49.208702630875251
 30
0.0
 42
-0.1453834159301123
 50
90.0
  0
VERTEX
  5
C0A
  8
0
 10
115.6864353216988
 20
49.293595847136572
 30
0.0
 42
-0.1071699662217274
 50
90.0
  0
VERTEX
  5
C0B
  8
0
 10
115.77105314945619
 20
49.377268801086842
 30
0.0
 42
-0.077350332773411
 70
     2
 50
32.444236112090998
  0
VERTEX
  5
C0C
  8
0
 10
115.89951770498431
 20
49.433388659341148
 30
0.0
 42
-0.0789475685392101
 50
90.0
  0
VERTEX
  5
C0D
  8
0
 10
116.03621819240109
 20
49.447091194944129
 30
0.0
 42
-0.0644571111103437
 50
90.0
  0
SEQEND
  5
C0E
  8
0
  0
POLYLINE
  5
C0F
  8
0
 66
     1
 10
0.0
 20
0.0
 30
0.0
  0
VERTEX
  5
C10
  8
0
 10
116.03621819240109
 20
48.403434544344321
 30
0.0
 42
-0.1837701506072527
 50
90.0
  0
VERTEX
  5
C11
  8
0
 10
115.91120102920991
 20
48.4509893870204
 30
0.0
 42
-0.1023570990015804
 50
90.0
  0
VERTEX
  5
C12
  8
0
 10
115.7710531494529
 20
48.639292106216118
 30
0.0
 42
-0.06139380527182
 70
     2
 50
114.9706150338103
  0
VERTEX
  5
C13
  8
0
 10
115.69243376595919
 20
48.882061596518753
 30
0.0
 42
-0.0476740870733025
 50
90.0
  0
VERTEX
  5
C14
  8
0
 10
115.6612181923964
 20
49.208702630875251
 30
0.0
 42
-0.0476740870732675
 50
90.0
  0
SEQEND
  5
C15
  8
0
  0
LINE
  5
C16
  8
0
 10
116.03621819240109
 20
49.447091194945791
 30
0.0
 11
116.03621819240109
 21
51.741282487718962
 31
0.0
  0
POLYLINE
  5
C17
  8
0
 66
     1
 10
0.0
 20
0.0
 30
0.0
  0
VERTEX
  5
C18
  8
0
 10
116.03621819240109
 20
46.381790291947482
 30
0.0
 42
-0.1488470320745859
 50
90.0
  0
VERTEX
  5
C19
  8
0
 10
115.90344050461481
 20
46.422213004390947
 30
0.0
 42
-0.1070939314374275
 50
90.0
  0
VERTEX
  5
C1A
  8
0
 10
115.77105314945619
 20
46.559736046606751
 30
0.0
 42
-0.0758177480846394
 70
     2
 50
121.6844788417775
  0
VERTEX
  5
C1B
  8
0
 10
115.691787550054
 20
46.746356403433111
 30
0.0
 42
-0.0626584555913342
 50
90.0
  0
VERTEX
  5
C1C
  8
0
 10
115.66121819240119
 20
46.989335100871891
 30
0.0
 42
-0.0626584555913199
 50
90.0
  0
SEQEND
  5
C1D
  8
0
  0
POLYLINE
  5
C1E
  8
0
 66
     1
 10
0.0
 20
0.0
 30
0.0
  0
VERTEX
  5
C1F
  8
0
 10
115.66121819240119
 20
46.989335100871891
 30
0.0
 42
-0.0162328826952284
 50
90.0
  0
VERTEX
  5
C20
  8
0
 10
115.8161557957969
 20
46.984303607158687
 30
0.0
 42
-0.0226962008047463
 50
90.0
  0
VERTEX
  5
C21
  8
0
 10
115.92638323534609
 20
46.972094809291463
 30
0.0
 42
-0.0516790455059756
 70
     2
 50
351.07933085030118
  0
VERTEX
  5
C22
  8
0
 10
116.0286392491935
 20
46.945006208218977
 30
0.0
 50
90.0
  0
VERTEX
  5
C23
  8
0
 10
116.03621819240109
 20
46.93047306353872
 30
0.0
 50
90.0
  0
SEQEND
  5
C24
  8
0
  0
LINE
  5
C25
  8
0
 10
116.03621819240109
 20
46.93047306353872
 30
0.0
 11
116.03621819240109
 21
48.403434544344321
 31
0.0
  0
POLYLINE
  5
C26
  8
0
 66
     1
 10
0.0
 20
0.0
 30
0.0
  0
VERTEX
  5
C27
  8
0
 10
115.66121819240119
 20
46.224593167984402
 30
0.0
 42
-0.092572595455409
 50
90.0
  0
VERTEX
  5
C28
  8
0
 10
115.8058913452207
 20
46.197576101726924
 30
0.0
 42
-0.0958395211622397
 50
90.0
  0
VERTEX
  5
C29
  8
0
 10
115.92638323534609
 20
46.121977790824438
 30
0.0
 42
-0.1008530118927434
 70
     2
 50
316.94630119341338
  0
VERTEX
  5
C2A
  8
0
 10
116.0148805569592
 20
45.997580330140657
 30
0.0
 42
-0.1236287328816281
 50
90.0
  0
VERTEX
  5
C2B
  8
0
 10
116.0362181923965
 20
45.87424235557679
 30
0.0
 42
-0.1047089114758273
 50
90.0
  0
SEQEND
  5
C2C
  8
0
  0
POLYLINE
  5
C2D
  8
0
 66
     1
 10
0.0
 20
0.0
 30
0.0
  0
VERTEX
  5
C2E
  8
0
 10
126.16121819240099
 20
46.989335100871891
 30
0.0
 42
0.0162328826952284
 50
90.0
  0
VERTEX
  5
C2F
  8
0
 10
126.0062805890053
 20
46.984303607158687
 30
0.0
 42
0.0226962008047463
 50
90.0
  0
VERTEX
  5
C30
  8
0
 10
125.89605314945609
 20
46.972094809291463
 30
0.0
 42
0.0516790455059756
 70
     2
 50
188.92066914969891
  0
VERTEX
  5
C31
  8
0
 10
125.7937971356087
 20
46.945006208218977
 30
0.0
 50
90.0
  0
VERTEX
  5
C32
  8
0
 10
125.78621819240109
 20
46.93047306353872
 30
0.0
 50
90.0
  0
SEQEND
  5
C33
  8
0
  0
POLYLINE
  5
C34
  8
0
 66
     1
 10
0.0
 20
0.0
 30
0.0
  0
VERTEX
  5
C35
  8
0
 10
125.78621819240109
 20
46.381790291947482
 30
0.0
 42
0.1488470320745859
 50
90.0
  0
VERTEX
  5
C36
  8
0
 10
125.9189958801874
 20
46.422213004390947
 30
0.0
 42
0.1070939314374275
 50
90.0
  0
VERTEX
  5
C37
  8
0
 10
126.05138323534599
 20
46.559736046606751
 30
0.0
 42
0.0758177480846394
 70
     2
 50
58.315521158222467
  0
VERTEX
  5
C38
  8
0
 10
126.1306488347482
 20
46.746356403433111
 30
0.0
 42
0.0626584555913342
 50
90.0
  0
VERTEX
  5
C39
  8
0
 10
126.16121819240099
 20
46.989335100871891
 30
0.0
 42
0.0626584555913199
 50
90.0
  0
SEQEND
  5
C3A
  8
0
  0
POLYLINE
  5
C3B
  8
0
 66
     1
 10
0.0
 20
0.0
 30
0.0
  0
VERTEX
  5
C3C
  8
0
 10
125.78621819240109
 20
48.403434544344321
 30
0.0
 42
0.1837701506072527
 50
90.0
  0
VERTEX
  5
C3D
  8
0
 10
125.9112353555924
 20
48.4509893870204
 30
0.0
 42
0.1023570990015804
 50
90.0
  0
VERTEX
  5
C3E
  8
0
 10
126.05138323534941
 20
48.639292106216118
 30
0.0
 42
0.06139380527182
 70
     2
 50
65.029384966189681
  0
VERTEX
  5
C3F
  8
0
 10
126.13000261884299
 20
48.882061596518753
 30
0.0
 42
0.0476740870733025
 50
90.0
  0
VERTEX
  5
C40
  8
0
 10
126.1612181924058
 20
49.208702630875251
 30
0.0
 42
0.0476740870732675
 50
90.0
  0
SEQEND
  5
C41
  8
0
  0
POLYLINE
  5
C42
  8
0
 66
     1
 10
0.0
 20
0.0
 30
0.0
  0
VERTEX
  5
C43
  8
0
 10
126.16121819240099
 20
49.208702630875251
 30
0.0
 42
0.1453834159301123
 50
90.0
  0
VERTEX
  5
C44
  8
0
 10
126.13600106310339
 20
49.293595847136572
 30
0.0
 42
0.1071699662217274
 50
90.0
  0
VERTEX
  5
C45
  8
0
 10
126.05138323534599
 20
49.377268801086842
 30
0.0
 42
0.077350332773411
 70
     2
 50
147.555763887909
  0
VERTEX
  5
C46
  8
0
 10
125.9229186798179
 20
49.433388659341148
 30
0.0
 42
0.0789475685392101
 50
90.0
  0
VERTEX
  5
C47
  8
0
 10
125.78621819240109
 20
49.447091194944129
 30
0.0
 42
0.0644571111103437
 50
90.0
  0
SEQEND
  5
C48
  8
0
  0
POLYLINE
  5
C49
  8
0
 66
     1
 10
0.0
 20
0.0
 30
0.0
  0
VERTEX
  5
C4A
  8
0
 10
125.78621819240109
 20
56.068602309219898
 30
0.0
 42
0.2055316714992537
 50
90.0
  0
VERTEX
  5
C4B
  8
0
 10
125.9064151779119
 20
56.120190121689461
 30
0.0
 42
0.0965313913509376
 50
90.0
  0
VERTEX
  5
C4C
  8
0
 10
126.05138323534619
 20
56.347612483672378
 30
0.0
 42
0.0533986296957384
 70
     2
 50
68.512458024392416
  0
VERTEX
  5
C4D
  8
0
 10
126.1297430337361
 20
56.632594858564538
 30
0.0
 42
0.0404311354471943
 50
90.0
  0
VERTEX
  5
C4E
  8
0
 10
126.16121819240129
 20
57.021202630875727
 30
0.0
 42
0.0404311354471791
 50
90.0
  0
SEQEND
  5
C4F
  8
0
  0
POLYLINE
  5
C50
  8
0
 66
     1
 10
0.0
 20
0.0
 30
0.0
  0
VERTEX
  5
C51
  8
0
 10
126.16121819240099
 20
57.021202630875727
 30
0.0
 42
0.0520405140106174
 50
90.0
  0
VERTEX
  5
C52
  8
0
 10
126.1301763474461
 20
57.318641823688132
 30
0.0
 42
0.0658985238271168
 50
90.0
  0
VERTEX
  5
C53
  8
0
 10
126.05138323534599
 20
57.541683858878599
 30
0.0
 42
0.1046205348859841
 70
     2
 50
116.9970819670191
  0
VERTEX
  5
C54
  8
0
 10
125.9058460861232
 20
57.721778078601062
 30
0.0
 42
0.1996909920929194
 50
90.0
  0
VERTEX
  5
C55
  8
0
 10
125.78621819240109
 20
57.75727424247799
 30
0.0
 42
0.172337143622725
 50
90.0
  0
SEQEND
  5
C56
  8
0
  0
POLYLINE
  5
C57
  8
0
 66
     1
 10
0.0
 20
0.0
 30
0.0
  0
VERTEX
  5
C58
  8
0
 10
126.16121819240099
 20
52.66544860091409
 30
0.0
 42
0.0737304435607645
 50
90.0
  0
VERTEX
  5
C59
  8
0
 10
126.13120986496421
 20
52.867842587554861
 30
0.0
 42
0.0845717212532976
 50
90.0
  0
VERTEX
  5
C5A
  8
0
 10
126.05138323534599
 20
53.0277022558802
 30
0.0
 42
0.1063921108588694
 70
     2
 50
126.2036506470299
  0
VERTEX
  5
C5B
  8
0
 10
125.91410613677451
 20
53.149798685865079
 30
0.0
 42
0.1510088585334486
 50
90.0
  0
VERTEX
  5
C5C
  8
0
 10
125.78621819240109
 20
53.17775263278957
 30
0.0
 42
0.1294534172461018
 50
90.0
  0
SEQEND
  5
C5D
  8
0
  0
POLYLINE
  5
C5E
  8
0
 66
     1
 10
0.0
 20
0.0
 30
0.0
  0
VERTEX
  5
C5F
  8
0
 10
125.78621819240109
 20
51.741282487718962
 30
0.0
 42
0.2015894264067176
 50
90.0
  0
VERTEX
  5
C60
  8
0
 10
125.9072852126676
 20
51.792161798602159
 30
0.0
 42
0.0977170379735125
 50
90.0
  0
VERTEX
  5
C61
  8
0
 10
126.05138323534599
 20
52.011964475331013
 30
0.0
 42
0.0547927573384048
 70
     2
 50
67.914102239173715
  0
VERTEX
  5
C62
  8
0
 10
126.1297842692184
 20
52.288781055357639
 30
0.0
 42
0.0416539519670256
 50
90.0
  0
VERTEX
  5
C63
  8
0
 10
126.16121819240099
 20
52.665448600914111
 30
0.0
 42
0.0416539519669881
 50
90.0
  0
SEQEND
  5
C64
  8
0
  0
POLYLINE
  5
C65
  8
0
 66
     1
 10
0.0
 20
0.0
 30
0.0
  0
VERTEX
  5
C66
  8
0
 10
125.78621819240109
 20
45.87424235557679
 30
0.0
 42
-0.0068051090718327
 50
90.0
  0
VERTEX
  5
C67
  8
0
 10
125.94147890061301
 20
45.87212912560625
 30
0.0
 42
-0.0096044777403865
 50
90.0
  0
VERTEX
  5
C68
  8
0
 10
126.05138323534599
 20
45.867022775681761
 30
0.0
 42
-0.0229390352869734
 70
     2
 50
356.23929148249317
  0
VERTEX
  5
C69
  8
0
 10
126.15799815822029
 20
45.855084971464372
 30
0.0
 50
90.0
  0
VERTEX
  5
C6A
  8
0
 10
126.16121819240099
 20
45.849593167984523
 30
0.0
 50
90.0
  0
SEQEND
  5
C6B
  8
0
  0
POLYLINE
  5
C6C
  8
0
 66
     1
 10
0.0
 20
0.0
 30
0.0
  0
VERTEX
  5
C6D
  8
0
 10
125.78621819240109
 20
77.824943980392277
 30
0.0
 42
0.0068051090718327
 50
90.0
  0
VERTEX
  5
C6E
  8
0
 10
125.94147890061301
 20
77.827057210362824
 30
0.0
 42
0.0096044777403865
 50
90.0
  0
VERTEX
  5
C6F
  8
0
 10
126.05138323534599
 20
77.832163560287313
 30
0.0
 42
0.0229390352869734
 70
     2
 50
3.7607085175068882
  0
VERTEX
  5
C70
  8
0
 10
126.15799815822029
 20
77.844101364504695
 30
0.0
 50
3.7607085175068882
  0
VERTEX
  5
C71
  8
0
 10
126.16121819240099
 20
77.849593167984551
 30
0.0
 50
90.0
  0
SEQEND
  5
C72
  8
0
  0
POLYLINE
  5
C73
  8
0
 66
     1
 10
0.0
 20
0.0
 30
0.0
  0
VERTEX
  5
C74
  8
0
 10
125.78621819240109
 20
71.957903848250112
 30
0.0
 42
-0.2015894264067176
 50
90.0
  0
VERTEX
  5
C75
  8
0
 10
125.9072852126676
 20
71.907024537366894
 30
0.0
 42
-0.0977170379735125
 50
90.0
  0
VERTEX
  5
C76
  8
0
 10
126.05138323534599
 20
71.687221860638061
 30
0.0
 42
-0.0547927573384048
 70
     2
 50
292.08589776082619
  0
VERTEX
  5
C77
  8
0
 10
126.1297842692184
 20
71.410405280611428
 30
0.0
 42
-0.0416539519670256
 50
90.0
  0
VERTEX
  5
C78
  8
0
 10
126.16121819240099
 20
71.033737735054956
 30
0.0
 42
-0.0416539519669881
 50
90.0
  0
SEQEND
  5
C79
  8
0
  0
POLYLINE
  5
C7A
  8
0
 66
     1
 10
0.0
 20
0.0
 30
0.0
  0
VERTEX
  5
C7B
  8
0
 10
126.16121819240099
 20
71.033737735054984
 30
0.0
 42
-0.0737304435607645
 50
90.0
  0
VERTEX
  5
C7C
  8
0
 10
126.13120986496421
 20
70.831343748414213
 30
0.0
 42
-0.0845717212532976
 50
90.0
  0
VERTEX
  5
C7D
  8
0
 10
126.05138323534599
 20
70.671484080088874
 30
0.0
 42
-0.1063921108588694
 70
     2
 50
233.79634935297011
  0
VERTEX
  5
C7E
  8
0
 10
125.91410613677451
 20
70.549387650103995
 30
0.0
 42
-0.1510088585334486
 50
90.0
  0
VERTEX
  5
C7F
  8
0
 10
125.78621819240109
 20
70.521433703179497
 30
0.0
 42
-0.1294534172461018
 50
90.0
  0
SEQEND
  5
C80
  8
0
  0
POLYLINE
  5
C81
  8
0
 66
     1
 10
0.0
 20
0.0
 30
0.0
  0
VERTEX
  5
C82
  8
0
 10
126.16121819240099
 20
66.677983705093368
 30
0.0
 42
-0.0520405140106174
 50
90.0
  0
VERTEX
  5
C83
  8
0
 10
126.1301763474461
 20
66.380544512280949
 30
0.0
 42
-0.0658985238271168
 50
90.0
  0
VERTEX
  5
C84
  8
0
 10
126.05138323534599
 20
66.157502477090475
 30
0.0
 42
-0.1046205348859841
 70
     2
 50
243.00291803298089
  0
VERTEX
  5
C85
  8
0
 10
125.9058460861232
 20
65.977408257368012
 30
0.0
 42
-0.1996909920929194
 50
90.0
  0
VERTEX
  5
C86
  8
0
 10
125.78621819240109
 20
65.941912093491084
 30
0.0
 42
-0.172337143622725
 50
90.0
  0
SEQEND
  5
C87
  8
0
  0
POLYLINE
  5
C88
  8
0
 66
     1
 10
0.0
 20
0.0
 30
0.0
  0
VERTEX
  5
C89
  8
0
 10
125.78621819240109
 20
67.630584026749204
 30
0.0
 42
-0.2055316714992537
 50
90.0
  0
VERTEX
  5
C8A
  8
0
 10
125.9064151779119
 20
67.578996214279641
 30
0.0
 42
-0.0965313913509376
 50
90.0
  0
VERTEX
  5
C8B
  8
0
 10
126.05138323534619
 20
67.351573852296696
 30
0.0
 42
-0.0533986296957384
 70
     2
 50
291.4875419756076
  0
VERTEX
  5
C8C
  8
0
 10
126.1297430337361
 20
67.066591477404515
 30
0.0
 42
-0.0404311354471943
 50
90.0
  0
VERTEX
  5
C8D
  8
0
 10
126.16121819240129
 20
66.677983705093368
 30
0.0
 42
-0.0404311354471791
 50
90.0
  0
SEQEND
  5
C8E
  8
0
  0
POLYLINE
  5
C8F
  8
0
 66
     1
 10
0.0
 20
0.0
 30
0.0
  0
VERTEX
  5
C90
  8
0
 10
126.16121819240099
 20
61.849593167984551
 30
0.0
 42
-0.0433295665536456
 50
90.0
  0
VERTEX
  5
C91
  8
0
 10
126.12984250607521
 20
61.48821429332191
 30
0.0
 42
-0.0566743414169658
 50
90.0
  0
VERTEX
  5
C92
  8
0
 10
126.05138323534599
 20
61.221832695947789
 30
0.0
 42
-0.0992025570697266
 70
     2
 50
247.10088003611941
  0
VERTEX
  5
C93
  8
0
 10
125.90097034139789
 20
61.000754465522277
 30
0.0
 42
-0.2280338981645266
 50
90.0
  0
VERTEX
  5
C94
  8
0
 10
125.78621819240109
 20
60.961805794525837
 30
0.0
 42
-0.1963710675046459
 50
90.0
  0
SEQEND
  5
C95
  8
0
  0
POLYLINE
  5
C96
  8
0
 66
     1
 10
0.0
 20
0.0
 30
0.0
  0
VERTEX
  5
C97
  8
0
 10
125.78621819240109
 20
62.737380541460652
 30
0.0
 42
-0.1963710675046226
 50
90.0
  0
VERTEX
  5
C98
  8
0
 10
125.90843931452081
 20
62.687453906272729
 30
0.0
 42
-0.0992025570696904
 50
90.0
  0
VERTEX
  5
C99
  8
0
 10
126.05138323534599
 20
62.477353640021278
 30
0.0
 42
-0.0566743414169369
 70
     2
 50
292.89911996387622
  0
VERTEX
  5
C9A
  8
0
 10
126.12984250607521
 20
62.210972042647313
 30
0.0
 42
-0.0433295665536664
 50
90.0
  0
VERTEX
  5
C9B
  8
0
 10
126.16121819240099
 20
61.849593167984551
 30
0.0
 42
-0.0433295665536456
 50
90.0
  0
SEQEND
  5
C9C
  8
0
  0
POLYLINE
  5
C9D
  8
0
 66
     1
 10
0.0
 20
0.0
 30
0.0
  0
VERTEX
  5
C9E
  8
0
 10
126.16121819240099
 20
74.490483705093823
 30
0.0
 42
-0.1453834159301123
 50
90.0
  0
VERTEX
  5
C9F
  8
0
 10
126.13600106310339
 20
74.405590488832502
 30
0.0
 42
-0.1071699662217274
 50
90.0
  0
VERTEX
  5
CA0
  8
0
 10
126.05138323534599
 20
74.321917534882232
 30
0.0
 42
-0.077350332773411
 70
     2
 50
212.444236112091
  0
VERTEX
  5
CA1
  8
0
 10
125.9229186798179
 20
74.265797676627926
 30
0.0
 42
-0.0789475685392101
 50
90.0
  0
VERTEX
  5
CA2
  8
0
 10
125.78621819240109
 20
74.252095141024938
 30
0.0
 42
-0.0644571111103437
 50
90.0
  0
SEQEND
  5
CA3
  8
0
  0
POLYLINE
  5
CA4
  8
0
 66
     1
 10
0.0
 20
0.0
 30
0.0
  0
VERTEX
  5
CA5
  8
0
 10
125.78621819240109
 20
75.295751791624753
 30
0.0
 42
-0.1837701506072527
 50
90.0
  0
VERTEX
  5
CA6
  8
0
 10
125.9112353555924
 20
75.248196948948674
 30
0.0
 42
-0.1023570990015804
 50
90.0
  0
VERTEX
  5
CA7
  8
0
 10
126.05138323534941
 20
75.059894229752956
 30
0.0
 42
-0.06139380527182
 70
     2
 50
294.9706150338103
  0
VERTEX
  5
CA8
  8
0
 10
126.13000261884299
 20
74.817124739450321
 30
0.0
 42
-0.0476740870733025
 50
90.0
  0
VERTEX
  5
CA9
  8
0
 10
126.1612181924058
 20
74.490483705093823
 30
0.0
 42
-0.0476740870732675
 50
90.0
  0
SEQEND
  5
CAA
  8
0
  0
POLYLINE
  5
CAB
  8
0
 66
     1
 10
0.0
 20
0.0
 30
0.0
  0
VERTEX
  5
CAC
  8
0
 10
125.78621819240109
 20
77.317396044021592
 30
0.0
 42
-0.1488470320745859
 50
90.0
  0
VERTEX
  5
CAD
  8
0
 10
125.9189958801874
 20
77.27697333157812
 30
0.0
 42
-0.1070939314374275
 50
90.0
  0
VERTEX
  5
CAE
  8
0
 10
126.05138323534599
 20
77.139450289362316
 30
0.0
 42
-0.0758177480846394
 70
     2
 50
301.68447884177749
  0
VERTEX
  5
CAF
  8
0
 10
126.1306488347482
 20
76.952829932535963
 30
0.0
 42
-0.0626584555913342
 50
90.0
  0
VERTEX
  5
CB0
  8
0
 10
126.16121819240099
 20
76.709851235097176
 30
0.0
 42
-0.0626584555913199
 50
90.0
  0
SEQEND
  5
CB1
  8
0
  0
POLYLINE
  5
CB2
  8
0
 66
     1
 10
0.0
 20
0.0
 30
0.0
  0
VERTEX
  5
CB3
  8
0
 10
126.16121819240099
 20
76.709851235097176
 30
0.0
 42
-0.0162328826952284
 50
90.0
  0
VERTEX
  5
CB4
  8
0
 10
126.0062805890053
 20
76.71488272881038
 30
0.0
 42
-0.0226962008047463
 50
90.0
  0
VERTEX
  5
CB5
  8
0
 10
125.89605314945609
 20
76.727091526677611
 30
0.0
 42
-0.0516790455059756
 70
     2
 50
171.07933085030109
  0
VERTEX
  5
CB6
  8
0
 10
125.7937971356087
 20
76.754180127750089
 30
0.0
 50
90.0
  0
VERTEX
  5
CB7
  8
0
 10
125.78621819240109
 20
76.768713272430347
 30
0.0
 50
90.0
  0
SEQEND
  5
CB8
  8
0
  0
POLYLINE
  5
CB9
  8
0
 66
     1
 10
0.0
 20
0.0
 30
0.0
  0
VERTEX
  5
CBA
  8
0
 10
115.66121819240119
 20
77.474593167984665
 30
0.0
 42
0.092572595455409
 50
90.0
  0
VERTEX
  5
CBB
  8
0
 10
115.8058913452207
 20
77.50161023424215
 30
0.0
 42
0.0958395211622397
 50
90.0
  0
VERTEX
  5
CBC
  8
0
 10
115.92638323534609
 20
77.577208545144629
 30
0.0
 42
0.1008530118927434
 70
     2
 50
43.053698806586652
  0
VERTEX
  5
CBD
  8
0
 10
116.0148805569592
 20
77.701606005828395
 30
0.0
 42
0.1236287328816281
 50
43.053698806586652
  0
VERTEX
  5
CBE
  8
0
 10
116.0362181923965
 20
77.824943980392277
 30
0.0
 42
0.1047089114758273
 50
90.0
  0
SEQEND
  5
CBF
  8
0
  0
LINE
  5
CC0
  8
0
 10
116.03621819240109
 20
76.768713272430347
 30
0.0
 11
116.03621819240109
 21
75.295751791624753
 31
0.0
  0
POLYLINE
  5
CC1
  8
0
 66
     1
 10
0.0
 20
0.0
 30
0.0
  0
VERTEX
  5
CC2
  8
0
 10
115.66121819240119
 20
76.709851235097176
 30
0.0
 42
0.0162328826952284
 50
90.0
  0
VERTEX
  5
CC3
  8
0
 10
115.8161557957969
 20
76.71488272881038
 30
0.0
 42
0.0226962008047463
 50
90.0
  0
VERTEX
  5
CC4
  8
0
 10
115.92638323534609
 20
76.727091526677611
 30
0.0
 42
0.0516790455059756
 70
     2
 50
8.9206691496988508
  0
VERTEX
  5
CC5
  8
0
 10
116.0286392491935
 20
76.754180127750089
 30
0.0
 50
8.9206691496988508
  0
VERTEX
  5
CC6
  8
0
 10
116.03621819240109
 20
76.768713272430347
 30
0.0
 50
90.0
  0
SEQEND
  5
CC7
  8
0
  0
POLYLINE
  5
CC8
  8
0
 66
     1
 10
0.0
 20
0.0
 30
0.0
  0
VERTEX
  5
CC9
  8
0
 10
116.03621819240109
 20
77.317396044021592
 30
0.0
 42
0.1488470320745859
 50
90.0
  0
VERTEX
  5
CCA
  8
0
 10
115.90344050461481
 20
77.27697333157812
 30
0.0
 42
0.1070939314374275
 50
90.0
  0
VERTEX
  5
CCB
  8
0
 10
115.77105314945619
 20
77.139450289362316
 30
0.0
 42
0.0758177480846394
 70
     2
 50
238.31552115822251
  0
VERTEX
  5
CCC
  8
0
 10
115.691787550054
 20
76.952829932535963
 30
0.0
 42
0.0626584555913342
 50
238.31552115822251
  0
VERTEX
  5
CCD
  8
0
 10
115.66121819240119
 20
76.709851235097176
 30
0.0
 42
0.0626584555913199
 50
90.0
  0
SEQEND
  5
CCE
  8
0
  0
LINE
  5
CCF
  8
0
 10
116.03621819240109
 20
74.25209514102329
 30
0.0
 11
116.03621819240109
 21
71.957903848250112
 31
0.0
  0
POLYLINE
  5
CD0
  8
0
 66
     1
 10
0.0
 20
0.0
 30
0.0
  0
VERTEX
  5
CD1
  8
0
 10
116.03621819240109
 20
75.295751791624753
 30
0.0
 42
0.1837701506072527
 50
90.0
  0
VERTEX
  5
CD2
  8
0
 10
115.91120102920991
 20
75.248196948948674
 30
0.0
 42
0.1023570990015804
 50
90.0
  0
VERTEX
  5
CD3
  8
0
 10
115.7710531494529
 20
75.059894229752956
 30
0.0
 42
0.06139380527182
 70
     2
 50
245.0293849661897
  0
VERTEX
  5
CD4
  8
0
 10
115.69243376595919
 20
74.817124739450321
 30
0.0
 42
0.0476740870733025
 50
245.0293849661897
  0
VERTEX
  5
CD5
  8
0
 10
115.6612181923964
 20
74.490483705093823
 30
0.0
 42
0.0476740870732675
 50
90.0
  0
SEQEND
  5
CD6
  8
0
  0
POLYLINE
  5
CD7
  8
0
 66
     1
 10
0.0
 20
0.0
 30
0.0
  0
VERTEX
  5
CD8
  8
0
 10
115.66121819240119
 20
74.490483705093823
 30
0.0
 42
0.1453834159301123
 50
90.0
  0
VERTEX
  5
CD9
  8
0
 10
115.6864353216988
 20
74.405590488832502
 30
0.0
 42
0.1071699662217274
 50
90.0
  0
VERTEX
  5
CDA
  8
0
 10
115.77105314945619
 20
74.321917534882232
 30
0.0
 42
0.077350332773411
 70
     2
 50
327.55576388790911
  0
VERTEX
  5
CDB
  8
0
 10
115.89951770498431
 20
74.265797676627926
 30
0.0
 42
0.0789475685392101
 50
327.55576388790911
  0
VERTEX
  5
CDC
  8
0
 10
116.03621819240109
 20
74.252095141024938
 30
0.0
 42
0.0644571111103437
 50
90.0
  0
SEQEND
  5
CDD
  8
0
  0
LINE
  5
CDE
  8
0
 10
116.03621819240109
 20
65.941912093491112
 30
0.0
 11
116.03621819240109
 21
62.737380541460652
 31
0.0
  0
LINE
  5
CDF
  8
0
 10
116.03621819240109
 20
70.521433703182652
 30
0.0
 11
116.03621819240109
 21
67.630584026749204
 31
0.0
  0
POLYLINE
  5
CE0
  8
0
 66
     1
 10
0.0
 20
0.0
 30
0.0
  0
VERTEX
  5
CE1
  8
0
 10
116.03621819240109
 20
62.737380541460652
 30
0.0
 42
0.1963710675046226
 50
90.0
  0
VERTEX
  5
CE2
  8
0
 10
115.9139970702814
 20
62.687453906272729
 30
0.0
 42
0.0992025570696904
 50
90.0
  0
VERTEX
  5
CE3
  8
0
 10
115.77105314945619
 20
62.477353640021278
 30
0.0
 42
0.0566743414169369
 70
     2
 50
247.10088003612381
  0
VERTEX
  5
CE4
  8
0
 10
115.6925938787271
 20
62.210972042647313
 30
0.0
 42
0.0433295665536664
 50
247.10088003612381
  0
VERTEX
  5
CE5
  8
0
 10
115.66121819240119
 20
61.849593167984551
 30
0.0
 42
0.0433295665536456
 50
90.0
  0
SEQEND
  5
CE6
  8
0
  0
POLYLINE
  5
CE7
  8
0
 66
     1
 10
0.0
 20
0.0
 30
0.0
  0
VERTEX
  5
CE8
  8
0
 10
115.66121819240119
 20
61.849593167984551
 30
0.0
 42
0.0433295665536456
 50
90.0
  0
VERTEX
  5
CE9
  8
0
 10
115.6925938787271
 20
61.48821429332191
 30
0.0
 42
0.0566743414169658
 50
90.0
  0
VERTEX
  5
CEA
  8
0
 10
115.77105314945631
 20
61.221832695947789
 30
0.0
 42
0.0992025570697266
 70
     2
 50
292.89911996388048
  0
VERTEX
  5
CEB
  8
0
 10
115.92146604340429
 20
61.000754465522277
 30
0.0
 42
0.2280338981645266
 50
292.89911996388048
  0
VERTEX
  5
CEC
  8
0
 10
116.03621819240109
 20
60.961805794525837
 30
0.0
 42
0.1963710675046459
 50
90.0
  0
SEQEND
  5
CED
  8
0
  0
POLYLINE
  5
CEE
  8
0
 66
     1
 10
0.0
 20
0.0
 30
0.0
  0
VERTEX
  5
CEF
  8
0
 10
116.03621819240109
 20
67.630584026749204
 30
0.0
 42
0.2055316714992537
 50
90.0
  0
VERTEX
  5
CF0
  8
0
 10
115.91602120689031
 20
67.578996214279641
 30
0.0
 42
0.0965313913509376
 50
90.0
  0
VERTEX
  5
CF1
  8
0
 10
115.77105314945599
 20
67.351573852296696
 30
0.0
 42
0.0533986296957384
 70
     2
 50
248.5124580243924
  0
VERTEX
  5
CF2
  8
0
 10
115.6926933510662
 20
67.066591477404515
 30
0.0
 42
0.0404311354471943
 50
248.5124580243924
  0
VERTEX
  5
CF3
  8
0
 10
115.6612181924009
 20
66.677983705093368
 30
0.0
 42
0.0404311354471791
 50
90.0
  0
SEQEND
  5
CF4
  8
0
  0
POLYLINE
  5
CF5
  8
0
 66
     1
 10
0.0
 20
0.0
 30
0.0
  0
VERTEX
  5
CF6
  8
0
 10
115.66121819240119
 20
66.677983705093368
 30
0.0
 42
0.0520405140106174
 50
90.0
  0
VERTEX
  5
CF7
  8
0
 10
115.69226003735611
 20
66.380544512280949
 30
0.0
 42
0.0658985238271168
 50
90.0
  0
VERTEX
  5
CF8
  8
0
 10
115.77105314945619
 20
66.157502477090475
 30
0.0
 42
0.1046205348859841
 70
     2
 50
296.99708196701908
  0
VERTEX
  5
CF9
  8
0
 10
115.916590298679
 20
65.977408257368012
 30
0.0
 42
0.1996909920929194
 50
296.99708196701908
  0
VERTEX
  5
CFA
  8
0
 10
116.03621819240109
 20
65.941912093491084
 30
0.0
 42
0.172337143622725
 50
90.0
  0
SEQEND
  5
CFB
  8
0
  0
POLYLINE
  5
CFC
  8
0
 66
     1
 10
0.0
 20
0.0
 30
0.0
  0
VERTEX
  5
CFD
  8
0
 10
115.66121819240119
 20
71.033737735054984
 30
0.0
 42
0.0737304435607645
 50
90.0
  0
VERTEX
  5
CFE
  8
0
 10
115.691226519838
 20
70.831343748414213
 30
0.0
 42
0.0845717212532976
 50
90.0
  0
VERTEX
  5
CFF
  8
0
 10
115.77105314945619
 20
70.671484080088874
 30
0.0
 42
0.1063921108588694
 70
     2
 50
306.20365064702992
  0
VERTEX
  5
D00
  8
0
 10
115.9083302480277
 20
70.549387650103995
 30
0.0
 42
0.1510088585334486
 50
306.20365064702992
  0
VERTEX
  5
D01
  8
0
 10
116.03621819240109
 20
70.521433703179497
 30
0.0
 42
0.1294534172461018
 50
90.0
  0
SEQEND
  5
D02
  8
0
  0
POLYLINE
  5
D03
  8
0
 66
     1
 10
0.0
 20
0.0
 30
0.0
  0
VERTEX
  5
D04
  8
0
 10
116.03621819240109
 20
71.957903848250112
 30
0.0
 42
0.2015894264067176
 50
90.0
  0
VERTEX
  5
D05
  8
0
 10
115.9151511721347
 20
71.907024537366894
 30
0.0
 42
0.0977170379735125
 50
90.0
  0
VERTEX
  5
D06
  8
0
 10
115.77105314945619
 20
71.687221860638061
 30
0.0
 42
0.0547927573384048
 70
     2
 50
247.9141022391737
  0
VERTEX
  5
D07
  8
0
 10
115.6926521155838
 20
71.410405280611428
 30
0.0
 42
0.0416539519670256
 50
247.9141022391737
  0
VERTEX
  5
D08
  8
0
 10
115.66121819240119
 20
71.033737735054956
 30
0.0
 42
0.0416539519669881
 50
90.0
  0
SEQEND
  5
D09
  8
0
  0
LINE
  5
D0A
  8
0
 10
116.03621819240109
 20
77.824943980392277
 30
0.0
 11
125.78621819240109
 21
77.824943980392277
 31
0.0
  0
LINE
  5
D0B
  8
0
 10
116.03621819240109
 20
77.824943980392277
 30
0.0
 11
116.03621819240109
 21
77.317396044021592
 31
0.0
  0
LINE
  5
D0E
  8
0
 10
116.03621819240109
 20
77.317396044021621
 30
0.0
 11
125.78621819240109
 21
77.317396044021621
 31
0.0
  0
LINE
  5
D0F
  8
0
 10
116.03621819240109
 20
76.768713272430375
 30
0.0
 11
125.78621819240109
 21
76.768713272430375
 31
0.0
  0
LINE
  5
D10
  8
0
 10
116.03621819240109
 20
75.295751791624753
 30
0.0
 11
125.7862191460754
 21
75.295751791624753
 31
0.0
  0
LINE
  5
D11
  8
0
 10
116.03621819240109
 20
74.25209514102329
 30
0.0
 11
125.8366770652179
 21
74.25209514102329
 31
0.0
  0
LINE
  5
D12
  8
0
 10
116.03621819240109
 20
71.957903848250112
 30
0.0
 11
125.7862203248817
 21
71.957903848250112
 31
0.0
  0
LINE
  5
D13
  8
0
 10
116.03621819240109
 20
70.521433703182652
 30
0.0
 11
125.8236594755339
 21
70.521433703182652
 31
0.0
  0
LINE
  5
D14
  8
0
 10
116.03621819240109
 20
67.630584026749204
 30
0.0
 11
125.7862191460754
 21
67.630584026749204
 31
0.0
  0
LINE
  5
D15
  8
0
 10
116.03621819240109
 20
65.941912093491084
 30
0.0
 11
125.8205124888572
 21
65.941912093491084
 31
0.0
  0
LINE
  5
D16
  8
0
 10
116.03621819240109
 20
62.737380541460652
 30
0.0
 11
125.78621819240109
 21
62.737380541460617
 31
0.0
  0
LINE
  5
D17
  8
0
 10
115.03621819240109
 20
46.849593167984523
 30
0.0
 11
115.03621819240109
 21
76.849593167984551
 31
0.0
  0
LINE
  5
D1C
  8
0
 10
127.03621819240109
 20
77.849593167984551
 30
0.0
 11
127.03621819240109
 21
45.849593167984551
 31
0.0
  0
LINE
  5
D1D
  8
0
 10
135.7362181924012
 20
70.349593167984523
 30
0.0
 11
135.7362181924012
 21
53.349593167984551
 31
0.0
  0
LINE
  5
D1E
  8
0
 10
126.16121819240099
 20
77.849593167984551
 30
0.0
 11
127.03621819240109
 21
77.849593167984551
 31
0.0
  0
LINE
  5
D1F
  8
0
 10
128.03621819240109
 20
76.849593167984551
 30
0.0
 11
128.03621819240109
 21
46.849593167984551
 31
0.0
  0
LINE
  5
D20
  8
0
 10
128.03621819240109
 20
70.349593167984551
 30
0.0
 11
135.73621819240111
 21
70.349593167984523
 31
0.0
  0
LINE
  5
D21
  8
0
 10
136.73621819240111
 20
69.349593167984523
 30
0.0
 11
136.73621819240111
 21
54.349593167984551
 31
0.0
  0
LINE
  5
D22
  8
0
 10
115.6612181924113
 20
77.474593167994726
 30
0.0
 11
115.03621819240109
 21
76.849593167984551
 31
0.0
  0
LINE
  5
D23
  8
0
 10
127.03621819240109
 20
77.849593167984551
 30
0.0
 11
128.03621819240109
 21
76.849593167984551
 31
0.0
  0
LINE
  5
D24
  8
0
 10
135.73621819240111
 20
70.349593167984523
 30
0.0
 11
136.73621819240111
 21
69.349593167984523
 31
0.0
  0
LINE
  5
D25
  8
0
 10
135.73621819240111
 20
53.349593167984523
 30
0.0
 11
136.73621819240111
 21
54.349593167984551
 31
0.0
  0
LINE
  5
D26
  8
0
 10
127.03621819240109
 20
45.849593167984551
 30
0.0
 11
128.03621819240109
 21
46.849593167984551
 31
0.0
  0
LINE
  5
D27
  8
0
 10
128.03621819240109
 20
53.349593167984523
 30
0.0
 11
135.73621819240111
 21
53.349593167984523
 31
0.0
  0
LINE
  5
D28
  8
1
 10
142.03621819240109
 20
61.849593167984551
 30
0.0
 11
110.03621819240099
 21
61.849593167984551
 31
0.0
  0
CIRCLE
  5
D29
  8
0
 10
185.97401777661861
 20
116.84959316798449
 30
0.0
 40
16.0
  0
LINE
  5
D2A
  8
1
 10
185.97401777661861
 20
95.849593167984551
 30
0.0
 11
185.97401777661861
 21
137.84959316798449
 31
0.0
  0
LINE
  5
D2B
  8
1
 10
206.97401777661869
 20
116.84959316798449
 30
0.0
 11
164.97401777661861
 21
116.84959316798449
 31
0.0
  0
CIRCLE
  5
D2C
  8
0
 10
185.97401777661861
 20
116.84959316798449
 30
0.0
 40
15.0
  0
CIRCLE
  5
D2D
  8
0
 10
185.97401777661861
 20
116.84959316798449
 30
0.0
 40
8.4999999999999858
  0
CIRCLE
  5
D2E
  8
0
 10
185.97401777661861
 20
116.84959316798449
 30
0.0
 40
7.4999999999999707
  0
LINE
  5
D2F
  8
0
 10
137.03621819240109
 20
55.84959316798453
 30
0.0
 11
137.03621819240109
 21
67.849593167984551
 31
0.0
  0
LINE
  5
D30
  8
0
 10
137.03621819240109
 20
55.849593167984551
 30
0.0
 11
136.73621819240111
 21
55.84959316798453
 31
0.0
  0
LINE
  5
D31
  8
0
 10
136.73621819240111
 20
67.849593167984537
 30
0.0
 11
137.03621819240109
 21
67.849593167984537
 31
0.0
  0
CIRCLE
  5
D32
  8
0
 10
185.97401777661861
 20
116.84959316798449
 30
0.0
 40
5.9999999999999849
  0
LINE
  5
DA5
  8
2
 10
127.1362181924011
 20
165.84959316798449
 30
0.0
 11
127.1362181924011
 21
164.84959316798449
 31
0.0
  0
LINE
  5
DA6
  8
2
 10
121.03621819240119
 20
166.34959316798449
 30
0.0
 11
120.4362181924012
 21
166.34959316798449
 31
0.0
  0
LINE
  5
DA7
  8
2
 10
127.1362181924011
 20
164.84959316798449
 30
0.0
 11
121.9022441924011
 21
164.84959316798449
 31
0.0
  0
LINE
  5
DA8
  8
2
 10
121.03621819240119
 20
166.34959316798449
 30
0.0
 11
121.9022441924012
 21
164.84959316798449
 31
0.0
  0
LINE
  5
DA9
  8
2
 10
121.8030121924012
 20
167.6163871679845
 30
0.0
 11
121.03621819240119
 21
166.84959316798449
 31
0.0
  0
LINE
  5
DAA
  8
2
 10
121.8030121924012
 20
176.08279916798449
 30
0.0
 11
121.8030121924012
 21
167.6163871679845
 31
0.0
  0
LINE
  5
DAB
  8
2
 10
121.03621819240119
 20
166.34959316798449
 30
0.0
 11
121.03621819240119
 21
177.34959316798449
 31
0.0
  0
LINE
  5
DAC
  8
2
 10
121.03621819240119
 20
176.84959316798449
 30
0.0
 11
121.8030121924012
 21
176.08279916798449
 31
0.0
  0
LINE
  5
DAD
  8
2
 10
121.03621819240119
 20
177.34959316798449
 30
0.0
 11
120.4362181924012
 21
177.34959316798449
 31
0.0
  0
LINE
  5
DAE
  8
2
 10
127.1362181924011
 20
178.84959316798449
 30
0.0
 11
121.9022441924011
 21
178.84959316798449
 31
0.0
  0
LINE
  5
DAF
  8
2
 10
121.03621819240119
 20
177.34959316798449
 30
0.0
 11
121.9022441924012
 21
178.84959316798449
 31
0.0
  0
LINE
  5
DB0
  8
2
 10
127.1362181924011
 20
177.84959316798449
 30
0.0
 11
127.1362181924011
 21
178.84959316798449
 31
0.0
  0
LINE
  5
DB1
  8
2
 10
136.26942519240109
 20
167.6163871679845
 30
0.0
 11
121.8030121924012
 21
167.6163871679845
 31
0.0
  0
LINE
  5
DB2
  8
2
 10
137.03621819240109
 20
166.84959316798449
 30
0.0
 11
121.03621819240119
 21
166.84959316798449
 31
0.0
  0
LINE
  5
DB3
  8
2
 10
134.1362181924012
 20
164.84959316798449
 30
0.0
 11
130.13621819240109
 21
164.84959316798449
 31
0.0
  0
LINE
  5
DB4
  8
2
 10
134.1362181924012
 20
165.84959316798449
 30
0.0
 11
134.1362181924012
 21
164.84959316798449
 31
0.0
  0
LINE
  5
DB5
  8
2
 10
136.73621819240111
 20
165.84959316798449
 30
0.0
 11
134.1362181924012
 21
165.84959316798449
 31
0.0
  0
LINE
  5
DB6
  8
2
 10
130.13621819240109
 20
164.84959316798449
 30
0.0
 11
130.13621819240109
 21
165.84959316798449
 31
0.0
  0
LINE
  5
DB7
  8
2
 10
130.13621819240109
 20
165.84959316798449
 30
0.0
 11
127.1362181924011
 21
165.84959316798449
 31
0.0
  0
LINE
  5
DB8
  8
2
 10
136.26942519240109
 20
167.6163871679845
 30
0.0
 11
137.03621819240109
 21
166.84959316798449
 31
0.0
  0
LINE
  5
DB9
  8
2
 10
136.26942519240109
 20
176.08279916798449
 30
0.0
 11
136.26942519240109
 21
167.6163871679845
 31
0.0
  0
LINE
  5
DBA
  8
2
 10
137.03621819240109
 20
176.84959316798449
 30
0.0
 11
136.26942519240109
 21
176.08279916798449
 31
0.0
  0
LINE
  5
DBB
  8
2
 10
136.26942519240109
 20
176.08279916798449
 30
0.0
 11
121.8030121924012
 21
176.08279916798449
 31
0.0
  0
LINE
  5
DBC
  8
2
 10
137.03621819240109
 20
176.84959316798449
 30
0.0
 11
121.03621819240119
 21
176.84959316798449
 31
0.0
  0
LINE
  5
DBD
  8
2
 10
134.1362181924012
 20
178.84959316798449
 30
0.0
 11
130.13621819240109
 21
178.84959316798449
 31
0.0
  0
LINE
  5
DBE
  8
2
 10
134.1362181924012
 20
177.84959316798449
 30
0.0
 11
134.1362181924012
 21
178.84959316798449
 31
0.0
  0
LINE
  5
DBF
  8
2
 10
136.73621819240111
 20
177.84959316798449
 30
0.0
 11
134.1362181924012
 21
177.84959316798449
 31
0.0
  0
LINE
  5
DC0
  8
2
 10
130.13621819240109
 20
177.84959316798449
 30
0.0
 11
127.1362181924011
 21
177.84959316798449
 31
0.0
  0
LINE
  5
DC1
  8
2
 10
130.13621819240109
 20
178.84959316798449
 30
0.0
 11
130.13621819240109
 21
177.84959316798449
 31
0.0
  0
LINE
  5
DC2
  8
2
 10
120.4362181924011
 20
182.34959316798449
 30
0.0
 11
119.9362181924011
 21
182.34959316798449
 31
0.0
  0
LINE
  5
DC3
  8
2
 10
115.03621819240109
 20
185.34959316798449
 30
0.0
 11
119.9362181924011
 21
182.34959316798449
 31
0.0
  0
LINE
  5
DC4
  8
2
 10
115.03621819240109
 20
158.34959316798449
 30
0.0
 11
119.9362181924011
 21
161.34959316798449
 31
0.0
  0
LINE
  5
DC5
  8
2
 10
119.9362181924011
 20
161.34959316798449
 30
0.0
 11
119.9362181924011
 21
182.34959316798449
 31
0.0
  0
LINE
  5
DC6
  8
2
 10
120.4362181924011
 20
161.34959316798449
 30
0.0
 11
119.9362181924011
 21
161.34959316798449
 31
0.0
  0
LINE
  5
DC7
  8
2
 10
120.4362181924011
 20
182.34959316798449
 30
0.0
 11
120.4362181924011
 21
161.34959316798449
 31
0.0
  0
LINE
  5
DC8
  8
2
 10
127.1362181924011
 20
110.84959316798449
 30
0.0
 11
127.1362181924011
 21
109.84959316798449
 31
0.0
  0
LINE
  5
DC9
  8
2
 10
121.03621819240109
 20
111.34959316798449
 30
0.0
 11
120.4362181924011
 21
111.34959316798449
 31
0.0
  0
LINE
  5
DCA
  8
2
 10
127.1362181924011
 20
109.84959316798449
 30
0.0
 11
121.9022441924011
 21
109.84959316798449
 31
0.0
  0
LINE
  5
DCB
  8
2
 10
121.03621819240109
 20
111.34959316798449
 30
0.0
 11
121.9022441924011
 21
109.84959316798449
 31
0.0
  0
LINE
  5
DCC
  8
2
 10
121.8030121924011
 20
112.6163871679845
 30
0.0
 11
121.03621819240109
 21
111.84959316798449
 31
0.0
  0
LINE
  5
DCD
  8
2
 10
121.8030121924011
 20
121.0827991679845
 30
0.0
 11
121.8030121924011
 21
112.6163871679845
 31
0.0
  0
LINE
  5
DCE
  8
2
 10
121.03621819240109
 20
111.34959316798449
 30
0.0
 11
121.03621819240109
 21
122.34959316798449
 31
0.0
  0
LINE
  5
DCF
  8
2
 10
121.03621819240109
 20
121.84959316798449
 30
0.0
 11
121.8030121924011
 21
121.0827991679845
 31
0.0
  0
LINE
  5
DD0
  8
2
 10
121.03621819240109
 20
122.34959316798449
 30
0.0
 11
120.4362181924011
 21
122.34959316798449
 31
0.0
  0
LINE
  5
DD1
  8
2
 10
127.1362181924011
 20
123.84959316798449
 30
0.0
 11
121.9022441924011
 21
123.84959316798449
 31
0.0
  0
LINE
  5
DD2
  8
2
 10
121.03621819240109
 20
122.34959316798449
 30
0.0
 11
121.9022441924011
 21
123.84959316798449
 31
0.0
  0
LINE
  5
DD3
  8
2
 10
127.1362181924011
 20
122.84959316798449
 30
0.0
 11
127.1362181924011
 21
123.84959316798449
 31
0.0
  0
LINE
  5
DD4
  8
2
 10
136.26942519240109
 20
112.6163871679845
 30
0.0
 11
121.8030121924011
 21
112.6163871679845
 31
0.0
  0
LINE
  5
DD5
  8
2
 10
137.03621819240109
 20
111.84959316798449
 30
0.0
 11
121.03621819240109
 21
111.84959316798449
 31
0.0
  0
LINE
  5
DD6
  8
2
 10
134.13621819240109
 20
109.84959316798449
 30
0.0
 11
130.13621819240109
 21
109.84959316798449
 31
0.0
  0
LINE
  5
DD7
  8
2
 10
134.13621819240109
 20
110.84959316798449
 30
0.0
 11
134.13621819240109
 21
109.84959316798449
 31
0.0
  0
LINE
  5
DD8
  8
2
 10
136.73621819240111
 20
110.84959316798449
 30
0.0
 11
134.13621819240109
 21
110.84959316798449
 31
0.0
  0
LINE
  5
DD9
  8
2
 10
130.13621819240109
 20
109.84959316798449
 30
0.0
 11
130.13621819240109
 21
110.84959316798449
 31
0.0
  0
LINE
  5
DDA
  8
2
 10
130.13621819240109
 20
110.84959316798449
 30
0.0
 11
127.1362181924011
 21
110.84959316798449
 31
0.0
  0
LINE
  5
DDB
  8
2
 10
136.26942519240109
 20
112.6163871679845
 30
0.0
 11
137.03621819240109
 21
111.84959316798449
 31
0.0
  0
LINE
  5
DDC
  8
2
 10
136.26942519240109
 20
121.0827991679845
 30
0.0
 11
136.26942519240109
 21
112.6163871679845
 31
0.0
  0
LINE
  5
DDD
  8
2
 10
137.03621819240109
 20
121.84959316798449
 30
0.0
 11
136.26942519240109
 21
121.0827991679845
 31
0.0
  0
LINE
  5
DDE
  8
2
 10
136.26942519240109
 20
121.0827991679845
 30
0.0
 11
121.8030121924011
 21
121.0827991679845
 31
0.0
  0
LINE
  5
DDF
  8
2
 10
137.03621819240109
 20
121.84959316798449
 30
0.0
 11
121.03621819240109
 21
121.84959316798449
 31
0.0
  0
LINE
  5
DE0
  8
2
 10
134.13621819240109
 20
123.84959316798449
 30
0.0
 11
130.13621819240109
 21
123.84959316798449
 31
0.0
  0
LINE
  5
DE1
  8
2
 10
134.13621819240109
 20
122.84959316798449
 30
0.0
 11
134.13621819240109
 21
123.84959316798449
 31
0.0
  0
LINE
  5
DE2
  8
2
 10
136.73621819240111
 20
122.84959316798449
 30
0.0
 11
134.13621819240109
 21
122.84959316798449
 31
0.0
  0
LINE
  5
DE3
  8
2
 10
130.13621819240109
 20
122.84959316798449
 30
0.0
 11
127.1362181924011
 21
122.84959316798449
 31
0.0
  0
LINE
  5
DE4
  8
2
 10
130.13621819240109
 20
123.84959316798449
 30
0.0
 11
130.13621819240109
 21
122.84959316798449
 31
0.0
  0
LINE
  5
DE5
  8
2
 10
120.4362181924011
 20
127.34959316798449
 30
0.0
 11
119.9362181924011
 21
127.34959316798449
 31
0.0
  0
LINE
  5
DE6
  8
2
 10
115.03621819240109
 20
130.34959316798449
 30
0.0
 11
119.9362181924011
 21
127.34959316798449
 31
0.0
  0
LINE
  5
DE7
  8
2
 10
115.03621819240109
 20
103.34959316798449
 30
0.0
 11
119.9362181924011
 21
106.34959316798449
 31
0.0
  0
LINE
  5
DE8
  8
2
 10
119.9362181924011
 20
106.34959316798449
 30
0.0
 11
119.9362181924011
 21
127.34959316798449
 31
0.0
  0
LINE
  5
DE9
  8
2
 10
120.4362181924011
 20
106.34959316798449
 30
0.0
 11
119.9362181924011
 21
106.34959316798449
 31
0.0
  0
LINE
  5
DEA
  8
2
 10
120.4362181924011
 20
127.34959316798449
 30
0.0
 11
120.4362181924011
 21
106.34959316798449
 31
0.0
  0
LINE
  5
DEB
  8
2
 10
127.1362181924011
 20
55.849593167984551
 30
0.0
 11
127.1362181924011
 21
54.849593167984551
 31
0.0
  0
LINE
  5
DEC
  8
2
 10
121.03621819240109
 20
56.349593167984551
 30
0.0
 11
120.4362181924011
 21
56.349593167984551
 31
0.0
  0
LINE
  5
DED
  8
2
 10
127.1362181924011
 20
54.849593167984551
 30
0.0
 11
121.9022441924011
 21
54.849593167984551
 31
0.0
  0
LINE
  5
DEE
  8
2
 10
121.03621819240109
 20
56.349593167984551
 30
0.0
 11
121.9022441924011
 21
54.849593167984551
 31
0.0
  0
LINE
  5
DEF
  8
2
 10
121.8030121924011
 20
57.616387167984549
 30
0.0
 11
121.03621819240109
 21
56.849593167984551
 31
0.0
  0
LINE
  5
DF0
  8
2
 10
121.8030121924011
 20
66.082799167984547
 30
0.0
 11
121.8030121924011
 21
57.616387167984549
 31
0.0
  0
LINE
  5
DF1
  8
2
 10
121.03621819240109
 20
56.349593167984551
 30
0.0
 11
121.03621819240109
 21
67.349593167984551
 31
0.0
  0
LINE
  5
DF2
  8
2
 10
121.03621819240109
 20
66.849593167984551
 30
0.0
 11
121.8030121924011
 21
66.082799167984547
 31
0.0
  0
LINE
  5
DF3
  8
2
 10
121.03621819240109
 20
67.34959316798458
 30
0.0
 11
120.4362181924011
 21
67.349593167984551
 31
0.0
  0
LINE
  5
DF4
  8
2
 10
127.1362181924011
 20
68.849593167984551
 30
0.0
 11
121.9022441924011
 21
68.849593167984551
 31
0.0
  0
LINE
  5
DF5
  8
2
 10
121.03621819240109
 20
67.349593167984551
 30
0.0
 11
121.9022441924011
 21
68.849593167984551
 31
0.0
  0
LINE
  5
DF6
  8
2
 10
127.1362181924011
 20
67.849593167984551
 30
0.0
 11
127.1362181924011
 21
68.849593167984551
 31
0.0
  0
LINE
  5
DF7
  8
2
 10
136.26942519240109
 20
57.616387167984549
 30
0.0
 11
121.8030121924011
 21
57.616387167984549
 31
0.0
  0
LINE
  5
DF8
  8
2
 10
137.03621819240109
 20
56.849593167984551
 30
0.0
 11
121.03621819240109
 21
56.849593167984551
 31
0.0
  0
LINE
  5
DF9
  8
2
 10
134.13621819240109
 20
54.849593167984551
 30
0.0
 11
130.13621819240109
 21
54.849593167984551
 31
0.0
  0
LINE
  5
DFA
  8
2
 10
134.13621819240109
 20
55.849593167984551
 30
0.0
 11
134.13621819240109
 21
54.849593167984551
 31
0.0
  0
LINE
  5
DFB
  8
2
 10
136.73621819240111
 20
55.849593167984551
 30
0.0
 11
134.13621819240109
 21
55.849593167984551
 31
0.0
  0
LINE
  5
DFC
  8
2
 10
130.13621819240109
 20
54.849593167984551
 30
0.0
 11
130.13621819240109
 21
55.849593167984551
 31
0.0
  0
LINE
  5
DFD
  8
2
 10
130.13621819240109
 20
55.849593167984551
 30
0.0
 11
127.1362181924011
 21
55.849593167984551
 31
0.0
  0
LINE
  5
DFE
  8
2
 10
136.26942519240109
 20
57.616387167984549
 30
0.0
 11
137.03621819240109
 21
56.849593167984551
 31
0.0
  0
LINE
  5
DFF
  8
2
 10
136.26942519240109
 20
66.082799167984547
 30
0.0
 11
136.26942519240109
 21
57.616387167984549
 31
0.0
  0
LINE
  5
E00
  8
2
 10
137.03621819240109
 20
66.849593167984551
 30
0.0
 11
136.26942519240109
 21
66.082799167984547
 31
0.0
  0
LINE
  5
E01
  8
2
 10
136.26942519240109
 20
66.082799167984547
 30
0.0
 11
121.8030121924011
 21
66.082799167984547
 31
0.0
  0
LINE
  5
E02
  8
2
 10
137.03621819240109
 20
66.849593167984551
 30
0.0
 11
121.03621819240109
 21
66.849593167984551
 31
0.0
  0
LINE
  5
E03
  8
2
 10
134.13621819240109
 20
68.849593167984551
 30
0.0
 11
130.13621819240109
 21
68.849593167984551
 31
0.0
  0
LINE
  5
E04
  8
2
 10
134.13621819240109
 20
67.849593167984551
 30
0.0
 11
134.13621819240109
 21
68.849593167984551
 31
0.0
  0
LINE
  5
E05
  8
2
 10
136.73621819240111
 20
67.849593167984551
 30
0.0
 11
134.13621819240109
 21
67.849593167984551
 31
0.0
  0
LINE
  5
E06
  8
2
 10
130.13621819240109
 20
67.849593167984551
 30
0.0
 11
127.1362181924011
 21
67.849593167984551
 31
0.0
  0
LINE
  5
E07
  8
2
 10
130.13621819240109
 20
68.849593167984551
 30
0.0
 11
130.13621819240109
 21
67.849593167984551
 31
0.0
  0
LINE
  5
E08
  8
2
 10
120.4362181924011
 20
72.349593167984523
 30
0.0
 11
119.9362181924011
 21
72.349593167984523
 31
0.0
  0
LINE
  5
E09
  8
2
 10
115.03621819240109
 20
75.349593167984523
 30
0.0
 11
119.9362181924011
 21
72.349593167984523
 31
0.0
  0
LINE
  5
E0A
  8
2
 10
115.03621819240109
 20
48.349593167984551
 30
0.0
 11
119.9362181924011
 21
51.349593167984551
 31
0.0
  0
LINE
  5
E0B
  8
2
 10
119.9362181924011
 20
51.349593167984551
 30
0.0
 11
119.9362181924011
 21
72.349593167984523
 31
0.0
  0
LINE
  5
E0C
  8
2
 10
120.4362181924011
 20
51.349593167984551
 30
0.0
 11
119.9362181924011
 21
51.349593167984551
 31
0.0
  0
LINE
  5
E0D
  8
2
 10
120.4362181924011
 20
72.349593167984523
 30
0.0
 11
120.4362181924011
 21
51.349593167984551
 31
0.0
  0
TEXT
  5
E7D
  8
0
 62
     3
 10
0.0
 20
0.0
 30
0.0
 40
10.0
  1
FTK32T
  7
STANDARD1
  0
ENDSEC
  0
EOF
