  0
SECTION
  2
HEADER
  9
$ACADVER
  1
AC1009
  9
$INSBASE
 10
0.0
 20
0.0
 30
0.0
  9
$EXTMIN
 10
0.0
 20
-1.4802182810368341
 30
0.0
  9
$EXTMAX
 10
252.9533098727959
 20
211.1147907960993
 30
0.0
  9
$LIMMIN
 10
0.0
 20
0.0
  9
$LIMMAX
 10
187.5
 20
135.0
  9
$ORTHOMODE
 70
     0
  9
$REGENMODE
 70
     1
  9
$FILLMODE
 70
     1
  9
$QTEXTMODE
 70
     0
  9
$MIRRTEXT
 70
     0
  9
$DRAGMODE
 70
     2
  9
$LTSCALE
 40
10.0
  9
$OSMODE
 70
  3071
  9
$ATTMODE
 70
     1
  9
$TEXTSIZE
 40
4.0
  9
$TRACEWID
 40
0.05
  9
$TEXTSTYLE
  7
STANDARD
  9
$CLAYER
  8
0
  9
$CELTYPE
  6
BYLAYER
  9
$CECOLOR
 62
   256
  9
$DIMSCALE
 40
0.5
  9
$DIMASZ
 40
3.0
  9
$DIMEXO
 40
2.0
  9
$DIMDLI
 40
0.38
  9
$DIMRND
 40
0.0
  9
$DIMDLE
 40
0.0
  9
$DIMEXE
 40
2.0
  9
$DIMTP
 40
0.0
  9
$DIMTM
 40
0.0
  9
$DIMTXT
 40
3.0
  9
$DIMCEN
 40
0.0
  9
$DIMTSZ
 40
0.0
  9
$DIMTOL
 70
     0
  9
$DIMLIM
 70
     0
  9
$DIMTIH
 70
     0
  9
$DIMTOH
 70
     0
  9
$DIMSE1
 70
     0
  9
$DIMSE2
 70
     0
  9
$DIMTAD
 70
     1
  9
$DIMZIN
 70
     0
  9
$DIMBLK
  1

  9
$DIMASO
 70
     0
  9
$DIMSHO
 70
     0
  9
$DIMPOST
  1

  9
$DIMAPOST
  1

  9
$DIMALT
 70
     0
  9
$DIMALTD
 70
     2
  9
$DIMALTF
 40
25.399999999999999
  9
$DIMLFAC
 40
1.0
  9
$DIMTOFL
 70
     0
  9
$DIMTVP
 40
1.6000000000000001
  9
$DIMTIX
 70
     1
  9
$DIMSOXD
 70
     0
  9
$DIMSAH
 70
     0
  9
$DIMBLK1
  1

  9
$DIMBLK2
  1

  9
$DIMSTYLE
  2
STANDARD
  9
$DIMCLRD
 70
     0
  9
$DIMCLRE
 70
     0
  9
$DIMCLRT
 70
     0
  9
$DIMTFAC
 40
1.0
  9
$DIMGAP
 40
0.09
  9
$LUNITS
 70
     2
  9
$LUPREC
 70
     4
  9
$SKETCHINC
 40
0.1
  9
$FILLETRAD
 40
1.0
  9
$AUNITS
 70
     0
  9
$AUPREC
 70
     0
  9
$MENU
  1
E:\r13\win\SUPPORT\ACAD
  9
$ELEVATION
 40
0.0
  9
$PELEVATION
 40
0.0
  9
$THICKNESS
 40
0.0
  9
$LIMCHECK
 70
     0
  9
$BLIPMODE
 70
     0
  9
$CHAMFERA
 40
0.0
  9
$CHAMFERB
 40
0.0
  9
$SKPOLY
 70
     0
  9
$TDCREATE
 40
2449840.6143865739
  9
$TDUPDATE
 40
2456598.6846892601
  9
$TDINDWG
 40
0.2379172917
  9
$TDUSRTIMER
 40
0.2379172917
  9
$USRTIMER
 70
     1
  9
$ANGBASE
 50
0.0
  9
$ANGDIR
 70
     0
  9
$PDMODE
 70
     0
  9
$PDSIZE
 40
0.0
  9
$PLINEWID
 40
0.0
  9
$COORDS
 70
     1
  9
$SPLFRAME
 70
     0
  9
$SPLINETYPE
 70
     6
  9
$SPLINESEGS
 70
     8
  9
$ATTDIA
 70
     0
  9
$ATTREQ
 70
     1
  9
$HANDLING
 70
     1
  9
$HANDSEED
  5
14CD
  9
$SURFTAB1
 70
     6
  9
$SURFTAB2
 70
     6
  9
$SURFTYPE
 70
     6
  9
$SURFU
 70
     6
  9
$SURFV
 70
     6
  9
$UCSNAME
  2

  9
$UCSORG
 10
0.0
 20
0.0
 30
0.0
  9
$UCSXDIR
 10
1.0
 20
0.0
 30
0.0
  9
$UCSYDIR
 10
0.0
 20
1.0
 30
0.0
  9
$PUCSNAME
  2

  9
$PUCSORG
 10
0.0
 20
0.0
 30
0.0
  9
$PUCSXDIR
 10
1.0
 20
0.0
 30
0.0
  9
$PUCSYDIR
 10
0.0
 20
1.0
 30
0.0
  9
$USERI1
 70
     0
  9
$USERI2
 70
     1
  9
$USERI3
 70
     1
  9
$USERI4
 70
     0
  9
$USERI5
 70
     0
  9
$USERR1
 40
0.0
  9
$USERR2
 40
0.0
  9
$USERR3
 40
0.0
  9
$USERR4
 40
0.0
  9
$USERR5
 40
0.0
  9
$WORLDVIEW
 70
     1
  9
$SHADEDGE
 70
     3
  9
$SHADEDIF
 70
    70
  9
$TILEMODE
 70
     1
  9
$MAXACTVP
 70
    16
  9
$PLIMCHECK
 70
     0
  9
$PEXTMIN
 10
1.0000000000000000E+020
 20
1.0000000000000000E+020
 30
1.0000000000000000E+020
  9
$PEXTMAX
 10
-1.0000000000000000E+020
 20
-1.0000000000000000E+020
 30
-1.0000000000000000E+020
  9
$PLIMMIN
 10
0.0
 20
0.0
  9
$PLIMMAX
 10
12.0
 20
9.0
  9
$UNITMODE
 70
     0
  9
$VISRETAIN
 70
     0
  9
$PLINEGEN
 70
     0
  9
$PSLTSCALE
 70
     0
  0
ENDSEC
  0
SECTION
  2
TABLES
  0
TABLE
  2
VPORT
 70
     1
  0
VPORT
  2
*ACTIVE
 70
     0
 10
0.0
 20
0.0
 11
1.0
 21
1.0
 12
126.47665552535069
 22
105.27674220519479
 13
0.0
 23
0.0
 14
5.0
 24
5.0
 15
5.0
 25
5.0
 16
0.0
 26
0.0
 36
1.0
 17
0.0
 27
0.0
 37
0.0
 40
215.9738037873278
 41
2.304913294797688
 42
50.0
 43
0.0
 44
0.0
 50
0.0
 51
0.0
 71
     0
 72
   100
 73
     1
 74
     0
 75
     0
 76
     0
 77
     0
 78
     0
  0
ENDTAB
  0
TABLE
  2
LTYPE
 70
     3
  0
LTYPE
  2
CONTINUOUS
 70
     0
  3
Solid Line
 72
    65
 73
     0
 40
0.0
  0
LTYPE
  2
CENTER
 70
     0
  3
____ _ ____ _ ____ _ ____ _ ____ _ ____ _ ____
 72
    65
 73
     4
 40
2.0
 49
1.25
 49
-0.25
 49
0.25
 49
-0.25
  0
LTYPE
  2
PHANTOM2
 70
     0
  3
___ _ _ ___ _ _ ___ _ _ ___ _ _
 72
    65
 73
     6
 40
1.25
 49
0.625
 49
-0.125
 49
0.125
 49
-0.125
 49
0.125
 49
-0.125
  0
ENDTAB
  0
TABLE
  2
LAYER
 70
     3
  0
LAYER
  2
0
 70
     0
 62
     7
  6
CONTINUOUS
  0
LAYER
  2
1
 70
     0
 62
     1
  6
CENTER
  0
LAYER
  2
3
 70
     0
 62
     3
  6
CONTINUOUS
  0
ENDTAB
  0
TABLE
  2
STYLE
 70
     2
  0
STYLE
  2
STANDARD
 70
     0
 40
0.0
 41
1.0
 50
0.0
 71
     0
 42
4.0
  3
TXT
  4
BIGFONT
  0
STYLE
  2
STANDARD1
 70
     0
 40
0.0
 41
1.0
 50
0.0
 71
     0
 42
3.0
  3
txt
  4

  0
ENDTAB
  0
TABLE
  2
VIEW
 70
     1
  0
VIEW
  2
ALL
 70
     0
 40
179.66152299999999
 10
141.903918
 20
89.830760999999995
 41
0.0
 11
0.0
 21
0.0
 31
1.0
 12
0.0
 22
0.0
 32
0.0
 42
0.0
 43
0.0
 44
0.0
 50
0.0
 71
     0
  0
ENDTAB
  0
TABLE
  2
UCS
 70
     0
  0
ENDTAB
  0
TABLE
  2
APPID
 70
     4
  0
APPID
  2
ACAD
 70
     0
  0
APPID
  2
DCO15
 70
     0
  0
APPID
  2
ACAD_MLEADERVER
 70
     0
  0
APPID
  2
ACAD_NAV_VCDISPLAY
 70
     0
  0
ENDTAB
  0
TABLE
  2
DIMSTYLE
 70
     1
  0
DIMSTYLE
  2
STANDARD
 70
     0
  3

  4

  5

  6

  7

 40
1.0
 41
0.18
 42
0.0625
 43
0.38
 44
0.18
 45
0.0
 46
0.0
 47
0.0
 48
0.0
140
0.18
141
0.09
142
0.0
143
25.399999999999999
144
1.0
145
0.0
146
1.0
147
0.09
 71
     0
 72
     0
 73
     1
 74
     1
 75
     0
 76
     0
 77
     0
 78
     0
170
     0
171
     2
172
     0
173
     0
174
     0
175
     0
176
     0
177
     0
178
     0
  0
ENDTAB
  0
ENDSEC
  0
SECTION
  2
BLOCKS
  0
BLOCK
  8
0
  2
$MODEL_SPACE
 70
     0
 10
0.0
 20
0.0
 30
0.0
  3
$MODEL_SPACE
  1

  0
ENDBLK
  5
1BD
  8
0
  0
BLOCK
 67
     1
  8
0
  2
$PAPER_SPACE
 70
     0
 10
0.0
 20
0.0
 30
0.0
  3
$PAPER_SPACE
  1

  0
ENDBLK
  5
1BB
 67
     1
  8
0
  0
ENDSEC
  0
SECTION
  2
ENTITIES
  0
LINE
  5
11EE
  8
0
 10
170.81651029026659
 20
115.4271549472053
 30
0.0
 11
170.81651029026659
 21
140.3891525452068
 31
0.0
  0
LINE
  5
11EF
  8
0
 10
158.81651029026659
 20
151.69881257448569
 30
0.0
 11
158.81651029026659
 21
115.4271549472053
 31
0.0
  0
LINE
  5
11F0
  8
0
 10
169.7430102902666
 20
114.3536549472053
 30
0.0
 11
170.81651029026659
 21
115.4271549472053
 31
0.0
  0
LINE
  5
11F1
  8
0
 10
158.81651029026659
 20
115.4271549472053
 30
0.0
 11
159.89001029026659
 21
114.3536549472053
 31
0.0
  0
ARC
  5
11F2
  8
0
 10
164.81651029026651
 20
139.35365494720531
 30
0.0
 40
13.800000000000029
 50
74.52954228820812
 51
107.71893187340631
  0
LINE
  5
11F3
  8
0
 10
166.56595494032001
 20
106.3536549472053
 30
0.0
 11
167.31651029026659
 21
107.6536549472053
 31
0.0
  0
LINE
  5
11F4
  8
0
 10
162.31651029026659
 20
107.6536549472053
 30
0.0
 11
163.06706564021309
 21
106.3536549472053
 31
0.0
  0
LINE
  5
11F5
  8
0
 10
167.31651029026659
 20
107.6536549472053
 30
0.0
 11
167.31651029026659
 21
114.3536549472053
 31
0.0
  0
LINE
  5
11F6
  8
0
 10
162.31651029026659
 20
114.3536549472053
 30
0.0
 11
162.31651029026659
 21
107.6536549472053
 31
0.0
  0
LINE
  5
11F7
  8
0
 10
160.6165102902666
 20
152.49899632732931
 30
0.0
 11
160.6165102902666
 21
148.63512568225681
 31
0.0
  0
LINE
  5
11F8
  8
0
 10
158.81651029026659
 20
115.4271549472053
 30
0.0
 11
170.81651029026659
 21
115.4271549472053
 31
0.0
  0
LINE
  5
11F9
  8
0
 10
159.89001029026659
 20
114.3536549472053
 30
0.0
 11
169.7430102902666
 21
114.3536549472053
 31
0.0
  0
LINE
  5
11FA
  8
0
 10
163.06706564021309
 20
106.3536549472053
 30
0.0
 11
166.56595494032001
 21
106.3536549472053
 31
0.0
  0
LINE
  5
11FB
  8
0
 10
162.31651029026659
 20
107.6536549472053
 30
0.0
 11
167.31651029026659
 21
107.6536549472053
 31
0.0
  0
ARC
  5
11FC
  8
0
 10
164.8165102902681
 20
139.35365494721111
 30
0.0
 40
13.68210510118368
 50
73.897886248012696
 51
76.427228834457523
  0
LINE
  5
11FD
  8
0
 10
168.61124348246861
 20
143.7028642711897
 30
0.0
 11
168.61124348246861
 21
152.49899632732931
 31
0.0
  0
ARC
  5
11FE
  8
0
 10
189.41651029026659
 20
147.25365494720529
 30
0.0
 40
5.4000000000000021
 50
270.0
 51
90.0
  0
LINE
  5
11FF
  8
0
 10
180.2012028541794
 20
141.85365494720531
 30
0.0
 11
189.41651029026659
 21
141.85365494720531
 31
0.0
  0
ARC
  5
1200
  8
0
 10
180.2012028541794
 20
144.01365494720531
 30
0.0
 40
2.1599999999999611
 50
239.9999999999998
 51
270.0
  0
LINE
  5
1201
  8
0
 10
177.31774003461541
 20
143.18426981937969
 30
0.0
 11
179.12120285417939
 21
142.14304007503091
 31
0.0
  0
ARC
  5
1202
  8
0
 10
176.23774003461531
 20
141.31365494720521
 30
0.0
 40
2.1600000000000441
 50
60.000000000000277
 51
90.0
  0
LINE
  5
1203
  8
0
 10
168.9898722807819
 20
143.47365494720529
 30
0.0
 11
176.23774003461531
 21
143.47365494720529
 31
0.0
  0
LINE
  5
1204
  8
0
 10
189.41651029026659
 20
152.6536549472053
 30
0.0
 11
168.0274291618673
 21
152.6536549472053
 31
0.0
  0
ARC
  5
1205
  8
0
 10
182.05037040457961
 20
147.25365494720529
 30
0.0
 40
3.239999999999994
 50
90.0
 51
270.0
  0
LINE
  5
1206
  8
0
 10
182.05037040457961
 20
150.4936549472053
 30
0.0
 11
189.55037040457961
 21
150.4936549472053
 31
0.0
  0
ARC
  5
1207
  8
0
 10
189.55037040457961
 20
147.25365494720529
 30
0.0
 40
3.239999999999994
 50
270.0
 51
90.0
  0
LINE
  5
1208
  8
0
 10
189.55037040457961
 20
144.01365494720531
 30
0.0
 11
182.05037040457961
 21
144.01365494720531
 31
0.0
  0
LINE
  5
1209
  8
0
 10
182.05037040457961
 20
144.01365494720531
 30
0.0
 11
182.01942968843571
 21
144.01365494720531
 31
0.0
  0
LINE
  5
120A
  8
0
 10
182.01942968843571
 20
150.4936549472053
 30
0.0
 11
182.05037040457961
 21
150.4936549472053
 31
0.0
  0
LINE
  5
120B
  8
0
 10
158.81651029026659
 20
139.35365494720531
 30
0.0
 11
170.81651029026659
 21
139.35365494720531
 31
0.0
  0
LINE
  5
120C
  8
3
 10
169.7430102902666
 20
139.35365494720531
 30
0.0
 11
169.7430102902666
 21
114.3536549472053
 31
0.0
  0
LINE
  5
120D
  8
3
 10
169.7430102902666
 20
139.35365494720531
 30
0.0
 11
170.74558799107419
 21
141.09017046353969
 31
0.0
  0
LINE
  5
120E
  8
3
 10
159.89001029026659
 20
139.35365494720531
 30
0.0
 11
159.89001029026659
 21
114.3536549472053
 31
0.0
  0
LINE
  5
120F
  8
3
 10
159.89001029026659
 20
139.35365494720531
 30
0.0
 11
158.81651029026659
 21
141.21301148913051
 31
0.0
  0
LINE
  5
1210
  8
1
 10
164.81651029026659
 20
158.15365494720541
 30
0.0
 11
164.81651029026659
 21
101.3536549472053
 31
0.0
  0
LINE
  5
1211
  8
0
 10
107.6409922065568
 20
115.4271549472053
 30
0.0
 11
107.6409922065568
 21
145.8546570946088
 31
0.0
  0
LINE
  5
1212
  8
0
 10
95.640992206556817
 20
146.04401112193869
 30
0.0
 11
95.640992206556817
 21
115.4271549472053
 31
0.0
  0
LINE
  5
1213
  8
0
 10
106.56749220655681
 20
114.3536549472053
 30
0.0
 11
107.6409922065568
 21
115.4271549472053
 31
0.0
  0
LINE
  5
1214
  8
0
 10
95.640992206556817
 20
115.4271549472053
 30
0.0
 11
96.714492206556827
 21
114.3536549472053
 31
0.0
  0
ARC
  5
1215
  8
0
 10
101.6409922065568
 20
139.35365494720531
 30
0.0
 40
13.8000000000001
 50
72.281068126592189
 51
107.7189318734078
  0
LINE
  5
1216
  8
0
 10
103.39043685661029
 20
106.3536549472053
 30
0.0
 11
104.1409922065568
 21
107.6536549472053
 31
0.0
  0
LINE
  5
1217
  8
0
 10
99.140992206556845
 20
107.6536549472053
 30
0.0
 11
99.891547556503326
 21
106.3536549472053
 31
0.0
  0
LINE
  5
1218
  8
0
 10
104.1409922065568
 20
107.6536549472053
 30
0.0
 11
104.1409922065568
 21
114.3536549472053
 31
0.0
  0
LINE
  5
1219
  8
0
 10
99.140992206556845
 20
114.3536549472053
 30
0.0
 11
99.140992206556845
 21
107.6536549472053
 31
0.0
  0
LINE
  5
121A
  8
0
 10
105.84099220655681
 20
148.685903805766
 30
0.0
 11
105.84099220655681
 21
152.49899632732931
 31
0.0
  0
LINE
  5
121B
  8
0
 10
97.440992206556842
 20
152.49899632732931
 30
0.0
 11
97.440992206556842
 21
148.685903805766
 31
0.0
  0
LINE
  5
121C
  8
0
 10
95.640992206556817
 20
115.4271549472053
 30
0.0
 11
107.6409922065568
 21
115.4271549472053
 31
0.0
  0
LINE
  5
121D
  8
0
 10
96.714492206556827
 20
114.3536549472053
 30
0.0
 11
106.56749220655681
 21
114.3536549472053
 31
0.0
  0
POLYLINE
  5
121E
  8
0
 66
     1
 10
0.0
 20
0.0
 30
0.0
  0
VERTEX
  5
138B
  8
0
 10
105.8353592722364
 20
148.6892991389725
 30
0.0
  0
VERTEX
  5
138C
  8
0
 10
105.83635376401151
 20
148.68869955286019
 30
0.0
  0
VERTEX
  5
138D
  8
0
 10
105.8383420711112
 20
148.68749995427819
 30
0.0
  0
VERTEX
  5
138E
  8
0
 10
105.8403294759208
 20
148.68629978743419
 30
0.0
  0
VERTEX
  5
138F
  8
0
 10
105.8413228398332
 20
148.68569949099461
 30
0.0
  0
SEQEND
  5
1390
  8
0
  0
LINE
  5
121F
  8
0
 10
99.891547556503326
 20
106.3536549472053
 30
0.0
 11
103.39043685661029
 21
106.3536549472053
 31
0.0
  0
LINE
  5
1220
  8
0
 10
99.140992206556845
 20
107.6536549472053
 30
0.0
 11
104.1409922065568
 21
107.6536549472053
 31
0.0
  0
LINE
  5
1221
  8
0
 10
95.640992206556817
 20
139.35365494720531
 30
0.0
 11
107.6409922065568
 21
139.35365494720531
 31
0.0
  0
LINE
  5
1222
  8
3
 10
106.56749220655681
 20
139.35365494720531
 30
0.0
 11
106.56749220655681
 21
114.3536549472053
 31
0.0
  0
LINE
  5
1223
  8
3
 10
106.56749220655681
 20
139.35365494720531
 30
0.0
 11
107.6409922065568
 21
141.21301148913051
 31
0.0
  0
LINE
  5
1224
  8
3
 10
96.714492206556827
 20
139.35365494720531
 30
0.0
 11
96.714492206556827
 21
114.3536549472053
 31
0.0
  0
LINE
  5
1225
  8
3
 10
96.714492206556827
 20
139.35365494720531
 30
0.0
 11
95.640992206556817
 21
141.21301148913051
 31
0.0
  0
LINE
  5
1226
  8
1
 10
101.6409922065568
 20
158.15365494720541
 30
0.0
 11
101.6409922065568
 21
101.3536549472053
 31
0.0
  0
LINE
  5
1227
  8
0
 10
194.81651029026659
 20
199.31479079609929
 30
0.0
 11
194.81651029026659
 21
200.91479079609931
 31
0.0
  0
LINE
  5
1228
  8
0
 10
193.81651029026651
 20
198.31479079609929
 30
0.0
 11
168.61124348246861
 21
198.31479079609929
 31
0.0
  0
LINE
  5
1229
  8
0
 10
193.81651029026651
 20
201.91479079609931
 30
0.0
 11
168.61124348246861
 21
201.91479079609931
 31
0.0
  0
ARC
  5
122A
  8
0
 10
164.81651029026659
 20
200.1147907960993
 30
0.0
 40
4.2000000000000446
 50
25.376933525152161
 51
334.6230664748486
  0
ARC
  5
122B
  8
0
 10
164.81651029026659
 20
200.1147907960993
 30
0.0
 40
6.0
 50
17.45760312372197
 51
342.54239687627802
  0
LINE
  5
122C
  8
0
 10
169.15420808122411
 20
143.367888322195
 30
0.0
 11
160.4788124993091
 21
148.7200767974974
 31
0.0
  0
ARC
  5
122D
  8
0
 10
167.31651029026659
 20
140.3891525452068
 30
0.0
 40
3.5
 50
0.0
 51
58.327952328801807
  0
ARC
  5
122E
  8
0
 10
162.31651029026659
 20
151.69881257448569
 30
0.0
 40
3.5
 50
180.0
 51
238.32795232880139
  0
LINE
  5
122F
  8
0
 10
101.6992812734604
 20
151.68006763389431
 30
0.0
 11
106.3896642127778
 21
148.31537813646651
 31
0.0
  0
ARC
  5
1230
  8
0
 10
104.64099220566921
 20
145.8777263542066
 30
0.0
 40
3.0
 50
0.0
 51
54.345885195752167
  0
LINE
  5
1231
  8
0
 10
101.5827031396532
 20
151.68006763389431
 30
0.0
 11
96.892320198560711
 21
148.31537813646651
 31
0.0
  0
ARC
  5
1232
  8
0
 10
101.6409922065568
 20
151.59881257448569
 30
0.0
 40
0.1
 50
54.345885195752167
 51
125.6541148042478
  0
ARC
  5
1233
  8
0
 10
98.640992205669264
 20
145.8777263542066
 30
0.0
 40
3.0
 50
125.6541148042478
 51
180.0
  0
LINE
  5
1234
  8
0
 10
252.9533098727959
 20
115.4271549472053
 30
0.0
 11
252.9533098727959
 21
146.04401112193869
 31
0.0
  0
LINE
  5
1235
  8
0
 10
240.9533098727959
 20
146.04401112193869
 30
0.0
 11
240.9533098727959
 21
115.4271549472053
 31
0.0
  0
LINE
  5
1236
  8
0
 10
251.8798098727959
 20
114.3536549472053
 30
0.0
 11
252.9533098727959
 21
115.4271549472053
 31
0.0
  0
LINE
  5
1237
  8
0
 10
240.9533098727959
 20
115.4271549472053
 30
0.0
 11
242.02680987279589
 21
114.3536549472053
 31
0.0
  0
ARC
  5
1238
  8
0
 10
246.9533098727959
 20
139.35365494720531
 30
0.0
 40
13.8000000000001
 50
72.281068126592189
 51
107.7189318734078
  0
LINE
  5
1239
  8
0
 10
248.7027545228494
 20
106.3536549472053
 30
0.0
 11
249.4533098727959
 21
107.6536549472053
 31
0.0
  0
LINE
  5
123A
  8
0
 10
244.4533098727959
 20
107.6536549472053
 30
0.0
 11
245.20386522274239
 21
106.3536549472053
 31
0.0
  0
LINE
  5
123B
  8
0
 10
249.4533098727959
 20
107.6536549472053
 30
0.0
 11
249.4533098727959
 21
114.3536549472053
 31
0.0
  0
LINE
  5
123C
  8
0
 10
244.4533098727959
 20
114.3536549472053
 30
0.0
 11
244.4533098727959
 21
107.6536549472053
 31
0.0
  0
LINE
  5
123D
  8
0
 10
251.1533098727958
 20
144.6145780435869
 30
0.0
 11
251.1533098727958
 21
152.49899632732931
 31
0.0
  0
LINE
  5
123E
  8
0
 10
242.75330987279591
 20
152.49899632732931
 30
0.0
 11
242.75330987279591
 21
144.6145780435869
 31
0.0
  0
LINE
  5
123F
  8
0
 10
240.9533098727959
 20
115.4271549472053
 30
0.0
 11
252.9533098727959
 21
115.4271549472053
 31
0.0
  0
LINE
  5
1240
  8
0
 10
242.02680987279589
 20
114.3536549472053
 30
0.0
 11
251.8798098727959
 21
114.3536549472053
 31
0.0
  0
LINE
  5
1241
  8
0
 10
245.20386522274239
 20
106.3536549472053
 30
0.0
 11
248.7027545228494
 21
106.3536549472053
 31
0.0
  0
LINE
  5
1242
  8
0
 10
244.4533098727959
 20
107.6536549472053
 30
0.0
 11
249.4533098727959
 21
107.6536549472053
 31
0.0
  0
LINE
  5
1243
  8
0
 10
245.15330987279589
 20
142.85365494720531
 30
0.0
 11
245.15330987279589
 21
151.6536549472053
 31
0.0
  0
LINE
  5
1244
  8
0
 10
246.15330987279589
 20
141.85365494720531
 30
0.0
 11
247.7533098727958
 21
141.85365494720531
 31
0.0
  0
LINE
  5
1245
  8
0
 10
246.15330987279589
 20
152.6536549472053
 30
0.0
 11
247.7533098727958
 21
152.6536549472053
 31
0.0
  0
LINE
  5
1246
  8
0
 10
248.75330987279591
 20
142.8536549472052
 30
0.0
 11
248.75330987279591
 21
151.6536549472053
 31
0.0
  0
LINE
  5
1247
  8
0
 10
240.9533098727959
 20
139.35365494720531
 30
0.0
 11
252.9533098727959
 21
139.35365494720531
 31
0.0
  0
LINE
  5
1248
  8
3
 10
251.8798098727959
 20
139.35365494720531
 30
0.0
 11
251.8798098727959
 21
114.3536549472053
 31
0.0
  0
LINE
  5
1249
  8
3
 10
251.8798098727959
 20
139.35365494720531
 30
0.0
 11
252.9533098727959
 21
141.21301148913051
 31
0.0
  0
LINE
  5
124A
  8
3
 10
242.02680987279589
 20
139.35365494720531
 30
0.0
 11
242.02680987279589
 21
114.3536549472053
 31
0.0
  0
LINE
  5
124B
  8
3
 10
242.02680987279589
 20
139.35365494720531
 30
0.0
 11
240.9533098727959
 21
141.21301148913051
 31
0.0
  0
LINE
  5
124C
  8
1
 10
246.9533098727959
 20
158.15365494720541
 30
0.0
 11
246.95330987279581
 21
101.3536549472053
 31
0.0
  0
ARC
  5
124D
  8
0
 10
243.95330987190829
 20
145.8777263542066
 30
0.0
 40
3.0
 50
125.6541148042478
 51
180.0
  0
LINE
  5
124E
  8
0
 10
246.8950208058923
 20
140.40795460998299
 30
0.0
 11
242.20463786479971
 21
143.77264410741091
 31
0.0
  0
LINE
  5
124F
  8
0
 10
247.0115989396995
 20
140.40795460998299
 30
0.0
 11
251.7019818790169
 21
143.77264410741091
 31
0.0
  0
ARC
  5
1250
  8
0
 10
246.9533098727959
 20
140.4892096693917
 30
0.0
 40
0.1
 50
234.3458851957526
 51
305.6541148042474
  0
ARC
  5
1251
  8
0
 10
243.95330987190829
 20
146.21029588967079
 30
0.0
 40
3.0
 50
180.0
 51
234.3458851957526
  0
ARC
  5
1252
  8
0
 10
249.9533098719084
 20
146.21029588967079
 30
0.0
 40
3.0
 50
305.6541148042474
 51
0.0
  0
ARC
  5
1253
  8
0
 10
249.9533098719084
 20
145.8777263542066
 30
0.0
 40
3.0
 50
0.0
 51
54.345885195752167
  0
LINE
  5
1254
  8
0
 10
242.75330987279591
 20
148.70897306592599
 30
0.0
 11
242.20463786479971
 21
148.31537813646651
 31
0.0
  0
LINE
  5
1255
  8
0
 10
251.1533098727958
 20
148.70897306480151
 30
0.0
 11
251.7019818790169
 21
148.31537813646651
 31
0.0
  0
POLYLINE
  5
1256
  8
0
 10
242.75330987279591
 20
147.50870959689001
 30
0.0
 66
     1
 70
     8
  0
VERTEX
  8
0
  5
13C9
 10
242.753
 20
147.509
 30
0.000000
  70
    32
  0
VERTEX
  8
0
  5
13CA
 10
242.723
 20
147.474
 30
0.000000
  70
    32
  0
VERTEX
  8
0
  5
13CB
 10
242.693
 20
147.438
 30
0.000000
  70
    32
  0
VERTEX
  8
0
  5
13CC
 10
242.664
 20
147.403
 30
0.000000
  70
    32
  0
VERTEX
  8
0
  5
13CD
 10
242.636
 20
147.367
 30
0.000000
  70
    32
  0
VERTEX
  8
0
  5
13CE
 10
242.609
 20
147.331
 30
0.000000
  70
    32
  0
VERTEX
  8
0
  5
13CF
 10
242.582
 20
147.294
 30
0.000000
  70
    32
  0
VERTEX
  8
0
  5
13D0
 10
242.557
 20
147.258
 30
0.000000
  70
    32
  0
VERTEX
  8
0
  5
13D1
 10
242.532
 20
147.221
 30
0.000000
  70
    32
  0
VERTEX
  8
0
  5
13D2
 10
242.507
 20
147.184
 30
0.000000
  70
    32
  0
VERTEX
  8
0
  5
13D3
 10
242.484
 20
147.147
 30
0.000000
  70
    32
  0
VERTEX
  8
0
  5
13D4
 10
242.461
 20
147.110
 30
0.000000
  70
    32
  0
VERTEX
  8
0
  5
13D5
 10
242.439
 20
147.072
 30
0.000000
  70
    32
  0
VERTEX
  8
0
  5
13D6
 10
242.418
 20
147.035
 30
0.000000
  70
    32
  0
VERTEX
  8
0
  5
13D7
 10
242.397
 20
146.997
 30
0.000000
  70
    32
  0
VERTEX
  8
0
  5
13D8
 10
242.378
 20
146.959
 30
0.000000
  70
    32
  0
VERTEX
  8
0
  5
13D9
 10
242.359
 20
146.920
 30
0.000000
  70
    32
  0
VERTEX
  8
0
  5
13DA
 10
242.341
 20
146.882
 30
0.000000
  70
    32
  0
VERTEX
  8
0
  5
13DB
 10
242.324
 20
146.844
 30
0.000000
  70
    32
  0
VERTEX
  8
0
  5
13DC
 10
242.308
 20
146.805
 30
0.000000
  70
    32
  0
VERTEX
  8
0
  5
13DD
 10
242.292
 20
146.766
 30
0.000000
  70
    32
  0
VERTEX
  8
0
  5
13DE
 10
242.277
 20
146.727
 30
0.000000
  70
    32
  0
VERTEX
  8
0
  5
13DF
 10
242.263
 20
146.688
 30
0.000000
  70
    32
  0
VERTEX
  8
0
  5
13E0
 10
242.250
 20
146.649
 30
0.000000
  70
    32
  0
VERTEX
  8
0
  5
13E1
 10
242.238
 20
146.610
 30
0.000000
  70
    32
  0
VERTEX
  8
0
  5
13E2
 10
242.227
 20
146.571
 30
0.000000
  70
    32
  0
VERTEX
  8
0
  5
13E3
 10
242.216
 20
146.531
 30
0.000000
  70
    32
  0
VERTEX
  8
0
  5
13E4
 10
242.206
 20
146.492
 30
0.000000
  70
    32
  0
VERTEX
  8
0
  5
13E5
 10
242.197
 20
146.452
 30
0.000000
  70
    32
  0
VERTEX
  8
0
  5
13E6
 10
242.189
 20
146.412
 30
0.000000
  70
    32
  0
VERTEX
  8
0
  5
13E7
 10
242.182
 20
146.373
 30
0.000000
  70
    32
  0
VERTEX
  8
0
  5
13E8
 10
242.175
 20
146.333
 30
0.000000
  70
    32
  0
VERTEX
  8
0
  5
13E9
 10
242.170
 20
146.293
 30
0.000000
  70
    32
  0
VERTEX
  8
0
  5
13EA
 10
242.165
 20
146.253
 30
0.000000
  70
    32
  0
VERTEX
  8
0
  5
13EB
 10
242.161
 20
146.213
 30
0.000000
  70
    32
  0
VERTEX
  8
0
  5
13EC
 10
242.158
 20
146.173
 30
0.000000
  70
    32
  0
VERTEX
  8
0
  5
13ED
 10
242.155
 20
146.133
 30
0.000000
  70
    32
  0
VERTEX
  8
0
  5
13EE
 10
242.154
 20
146.093
 30
0.000000
  70
    32
  0
VERTEX
  8
0
  5
13EF
 10
242.153
 20
146.053
 30
0.000000
  70
    32
  0
VERTEX
  8
0
  5
13F0
 10
242.154
 20
146.013
 30
0.000000
  70
    32
  0
VERTEX
  8
0
  5
13F1
 10
242.155
 20
145.973
 30
0.000000
  70
    32
  0
VERTEX
  8
0
  5
13F2
 10
242.157
 20
145.934
 30
0.000000
  70
    32
  0
VERTEX
  8
0
  5
13F3
 10
242.159
 20
145.894
 30
0.000000
  70
    32
  0
VERTEX
  8
0
  5
13F4
 10
242.163
 20
145.854
 30
0.000000
  70
    32
  0
VERTEX
  8
0
  5
13F5
 10
242.167
 20
145.814
 30
0.000000
  70
    32
  0
VERTEX
  8
0
  5
13F6
 10
242.172
 20
145.774
 30
0.000000
  70
    32
  0
VERTEX
  8
0
  5
13F7
 10
242.179
 20
145.734
 30
0.000000
  70
    32
  0
VERTEX
  8
0
  5
13F8
 10
242.185
 20
145.694
 30
0.000000
  70
    32
  0
VERTEX
  8
0
  5
13F9
 10
242.193
 20
145.655
 30
0.000000
  70
    32
  0
VERTEX
  8
0
  5
13FA
 10
242.202
 20
145.615
 30
0.000000
  70
    32
  0
VERTEX
  8
0
  5
13FB
 10
242.211
 20
145.575
 30
0.000000
  70
    32
  0
VERTEX
  8
0
  5
13FC
 10
242.221
 20
145.536
 30
0.000000
  70
    32
  0
VERTEX
  8
0
  5
13FD
 10
242.233
 20
145.497
 30
0.000000
  70
    32
  0
VERTEX
  8
0
  5
13FE
 10
242.244
 20
145.457
 30
0.000000
  70
    32
  0
VERTEX
  8
0
  5
13FF
 10
242.257
 20
145.418
 30
0.000000
  70
    32
  0
VERTEX
  8
0
  5
1400
 10
242.271
 20
145.379
 30
0.000000
  70
    32
  0
VERTEX
  8
0
  5
1401
 10
242.285
 20
145.340
 30
0.000000
  70
    32
  0
VERTEX
  8
0
  5
1402
 10
242.300
 20
145.301
 30
0.000000
  70
    32
  0
VERTEX
  8
0
  5
1403
 10
242.316
 20
145.263
 30
0.000000
  70
    32
  0
VERTEX
  8
0
  5
1404
 10
242.333
 20
145.224
 30
0.000000
  70
    32
  0
VERTEX
  8
0
  5
1405
 10
242.351
 20
145.186
 30
0.000000
  70
    32
  0
VERTEX
  8
0
  5
1406
 10
242.369
 20
145.147
 30
0.000000
  70
    32
  0
VERTEX
  8
0
  5
1407
 10
242.388
 20
145.109
 30
0.000000
  70
    32
  0
VERTEX
  8
0
  5
1408
 10
242.408
 20
145.071
 30
0.000000
  70
    32
  0
VERTEX
  8
0
  5
1409
 10
242.429
 20
145.034
 30
0.000000
  70
    32
  0
VERTEX
  8
0
  5
140A
 10
242.451
 20
144.996
 30
0.000000
  70
    32
  0
VERTEX
  8
0
  5
140B
 10
242.473
 20
144.959
 30
0.000000
  70
    32
  0
VERTEX
  8
0
  5
140C
 10
242.496
 20
144.921
 30
0.000000
  70
    32
  0
VERTEX
  8
0
  5
140D
 10
242.520
 20
144.884
 30
0.000000
  70
    32
  0
VERTEX
  8
0
  5
140E
 10
242.545
 20
144.847
 30
0.000000
  70
    32
  0
VERTEX
  8
0
  5
140F
 10
242.570
 20
144.811
 30
0.000000
  70
    32
  0
VERTEX
  8
0
  5
1410
 10
242.596
 20
144.774
 30
0.000000
  70
    32
  0
VERTEX
  8
0
  5
1411
 10
242.623
 20
144.738
 30
0.000000
  70
    32
  0
VERTEX
  8
0
  5
1412
 10
242.651
 20
144.702
 30
0.000000
  70
    32
  0
VERTEX
  8
0
  5
1413
 10
242.680
 20
144.667
 30
0.000000
  70
    32
  0
VERTEX
  8
0
  5
1414
 10
242.709
 20
144.631
 30
0.000000
  70
    32
  0
VERTEX
  8
0
  5
1415
 10
242.739
 20
144.596
 30
0.000000
  70
    32
  0
VERTEX
  8
0
  5
1416
 10
242.770
 20
144.561
 30
0.000000
  70
    32
  0
VERTEX
  8
0
  5
1417
 10
242.801
 20
144.526
 30
0.000000
  70
    32
  0
VERTEX
  8
0
  5
1418
 10
242.833
 20
144.492
 30
0.000000
  70
    32
  0
VERTEX
  8
0
  5
1419
 10
242.866
 20
144.458
 30
0.000000
  70
    32
  0
VERTEX
  8
0
  5
141A
 10
242.900
 20
144.424
 30
0.000000
  70
    32
  0
VERTEX
  8
0
  5
141B
 10
242.934
 20
144.390
 30
0.000000
  70
    32
  0
VERTEX
  8
0
  5
141C
 10
242.969
 20
144.357
 30
0.000000
  70
    32
  0
VERTEX
  8
0
  5
141D
 10
243.005
 20
144.324
 30
0.000000
  70
    32
  0
VERTEX
  8
0
  5
141E
 10
243.041
 20
144.291
 30
0.000000
  70
    32
  0
VERTEX
  8
0
  5
141F
 10
243.078
 20
144.258
 30
0.000000
  70
    32
  0
VERTEX
  8
0
  5
1420
 10
243.116
 20
144.226
 30
0.000000
  70
    32
  0
VERTEX
  8
0
  5
1421
 10
243.155
 20
144.194
 30
0.000000
  70
    32
  0
VERTEX
  8
0
  5
1422
 10
243.194
 20
144.163
 30
0.000000
  70
    32
  0
VERTEX
  8
0
  5
1423
 10
243.234
 20
144.132
 30
0.000000
  70
    32
  0
VERTEX
  8
0
  5
1424
 10
243.274
 20
144.101
 30
0.000000
  70
    32
  0
VERTEX
  8
0
  5
1425
 10
243.315
 20
144.071
 30
0.000000
  70
    32
  0
VERTEX
  8
0
  5
1426
 10
243.357
 20
144.040
 30
0.000000
  70
    32
  0
VERTEX
  8
0
  5
1427
 10
243.399
 20
144.011
 30
0.000000
  70
    32
  0
VERTEX
  8
0
  5
1428
 10
243.442
 20
143.981
 30
0.000000
  70
    32
  0
VERTEX
  8
0
  5
1429
 10
243.486
 20
143.952
 30
0.000000
  70
    32
  0
VERTEX
  8
0
  5
142A
 10
243.530
 20
143.923
 30
0.000000
  70
    32
  0
VERTEX
  8
0
  5
142B
 10
243.574
 20
143.895
 30
0.000000
  70
    32
  0
VERTEX
  8
0
  5
142C
 10
243.620
 20
143.867
 30
0.000000
  70
    32
  0
VERTEX
  8
0
  5
142D
 10
243.666
 20
143.840
 30
0.000000
  70
    32
  0
VERTEX
  8
0
  5
142E
 10
243.712
 20
143.812
 30
0.000000
  70
    32
  0
VERTEX
  8
0
  5
142F
 10
243.759
 20
143.786
 30
0.000000
  70
    32
  0
VERTEX
  8
0
  5
1430
 10
243.807
 20
143.759
 30
0.000000
  70
    32
  0
VERTEX
  8
0
  5
1431
 10
243.855
 20
143.733
 30
0.000000
  70
    32
  0
VERTEX
  8
0
  5
1432
 10
243.904
 20
143.708
 30
0.000000
  70
    32
  0
VERTEX
  8
0
  5
1433
 10
243.953
 20
143.682
 30
0.000000
  70
    32
  0
VERTEX
  8
0
  5
1434
 10
244.003
 20
143.658
 30
0.000000
  70
    32
  0
VERTEX
  8
0
  5
1435
 10
244.053
 20
143.633
 30
0.000000
  70
    32
  0
VERTEX
  8
0
  5
1436
 10
244.104
 20
143.609
 30
0.000000
  70
    32
  0
VERTEX
  8
0
  5
1437
 10
244.155
 20
143.586
 30
0.000000
  70
    32
  0
VERTEX
  8
0
  5
1438
 10
244.207
 20
143.563
 30
0.000000
  70
    32
  0
VERTEX
  8
0
  5
1439
 10
244.259
 20
143.540
 30
0.000000
  70
    32
  0
VERTEX
  8
0
  5
143A
 10
244.312
 20
143.518
 30
0.000000
  70
    32
  0
VERTEX
  8
0
  5
143B
 10
244.365
 20
143.496
 30
0.000000
  70
    32
  0
VERTEX
  8
0
  5
143C
 10
244.419
 20
143.475
 30
0.000000
  70
    32
  0
VERTEX
  8
0
  5
143D
 10
244.473
 20
143.454
 30
0.000000
  70
    32
  0
VERTEX
  8
0
  5
143E
 10
244.528
 20
143.433
 30
0.000000
  70
    32
  0
VERTEX
  8
0
  5
143F
 10
244.583
 20
143.413
 30
0.000000
  70
    32
  0
VERTEX
  8
0
  5
1440
 10
244.638
 20
143.394
 30
0.000000
  70
    32
  0
VERTEX
  8
0
  5
1441
 10
244.694
 20
143.375
 30
0.000000
  70
    32
  0
VERTEX
  8
0
  5
1442
 10
244.750
 20
143.356
 30
0.000000
  70
    32
  0
VERTEX
  8
0
  5
1443
 10
244.806
 20
143.338
 30
0.000000
  70
    32
  0
VERTEX
  8
0
  5
1444
 10
244.863
 20
143.320
 30
0.000000
  70
    32
  0
VERTEX
  8
0
  5
1445
 10
244.921
 20
143.303
 30
0.000000
  70
    32
  0
VERTEX
  8
0
  5
1446
 10
244.978
 20
143.287
 30
0.000000
  70
    32
  0
VERTEX
  8
0
  5
1447
 10
245.036
 20
143.270
 30
0.000000
  70
    32
  0
VERTEX
  8
0
  5
1448
 10
245.095
 20
143.255
 30
0.000000
  70
    32
  0
VERTEX
  8
0
  5
1449
 10
245.153
 20
143.239
 30
0.000000
  70
    32
  0
SEQEND
  8
0
  5
144A
  0
POLYLINE
  5
1257
  8
0
 10
248.75330987279588
 20
143.23932707272317
 30
0.0
 66
     1
 70
     8
  0
VERTEX
  8
0
  5
144B
 10
248.753
 20
143.239
 30
0.000000
  70
    32
  0
VERTEX
  8
0
  5
144C
 10
248.812
 20
143.255
 30
0.000000
  70
    32
  0
VERTEX
  8
0
  5
144D
 10
248.870
 20
143.270
 30
0.000000
  70
    32
  0
VERTEX
  8
0
  5
144E
 10
248.928
 20
143.287
 30
0.000000
  70
    32
  0
VERTEX
  8
0
  5
144F
 10
248.986
 20
143.303
 30
0.000000
  70
    32
  0
VERTEX
  8
0
  5
1450
 10
249.043
 20
143.320
 30
0.000000
  70
    32
  0
VERTEX
  8
0
  5
1451
 10
249.100
 20
143.338
 30
0.000000
  70
    32
  0
VERTEX
  8
0
  5
1452
 10
249.157
 20
143.356
 30
0.000000
  70
    32
  0
VERTEX
  8
0
  5
1453
 10
249.213
 20
143.375
 30
0.000000
  70
    32
  0
VERTEX
  8
0
  5
1454
 10
249.269
 20
143.394
 30
0.000000
  70
    32
  0
VERTEX
  8
0
  5
1455
 10
249.324
 20
143.413
 30
0.000000
  70
    32
  0
VERTEX
  8
0
  5
1456
 10
249.379
 20
143.433
 30
0.000000
  70
    32
  0
VERTEX
  8
0
  5
1457
 10
249.433
 20
143.454
 30
0.000000
  70
    32
  0
VERTEX
  8
0
  5
1458
 10
249.488
 20
143.475
 30
0.000000
  70
    32
  0
VERTEX
  8
0
  5
1459
 10
249.541
 20
143.496
 30
0.000000
  70
    32
  0
VERTEX
  8
0
  5
145A
 10
249.594
 20
143.518
 30
0.000000
  70
    32
  0
VERTEX
  8
0
  5
145B
 10
249.647
 20
143.540
 30
0.000000
  70
    32
  0
VERTEX
  8
0
  5
145C
 10
249.699
 20
143.563
 30
0.000000
  70
    32
  0
VERTEX
  8
0
  5
145D
 10
249.751
 20
143.586
 30
0.000000
  70
    32
  0
VERTEX
  8
0
  5
145E
 10
249.803
 20
143.609
 30
0.000000
  70
    32
  0
VERTEX
  8
0
  5
145F
 10
249.853
 20
143.633
 30
0.000000
  70
    32
  0
VERTEX
  8
0
  5
1460
 10
249.904
 20
143.658
 30
0.000000
  70
    32
  0
VERTEX
  8
0
  5
1461
 10
249.953
 20
143.682
 30
0.000000
  70
    32
  0
VERTEX
  8
0
  5
1462
 10
250.003
 20
143.708
 30
0.000000
  70
    32
  0
VERTEX
  8
0
  5
1463
 10
250.051
 20
143.733
 30
0.000000
  70
    32
  0
VERTEX
  8
0
  5
1464
 10
250.100
 20
143.759
 30
0.000000
  70
    32
  0
VERTEX
  8
0
  5
1465
 10
250.147
 20
143.786
 30
0.000000
  70
    32
  0
VERTEX
  8
0
  5
1466
 10
250.194
 20
143.812
 30
0.000000
  70
    32
  0
VERTEX
  8
0
  5
1467
 10
250.241
 20
143.840
 30
0.000000
  70
    32
  0
VERTEX
  8
0
  5
1468
 10
250.287
 20
143.867
 30
0.000000
  70
    32
  0
VERTEX
  8
0
  5
1469
 10
250.332
 20
143.895
 30
0.000000
  70
    32
  0
VERTEX
  8
0
  5
146A
 10
250.377
 20
143.923
 30
0.000000
  70
    32
  0
VERTEX
  8
0
  5
146B
 10
250.421
 20
143.952
 30
0.000000
  70
    32
  0
VERTEX
  8
0
  5
146C
 10
250.465
 20
143.981
 30
0.000000
  70
    32
  0
VERTEX
  8
0
  5
146D
 10
250.508
 20
144.011
 30
0.000000
  70
    32
  0
VERTEX
  8
0
  5
146E
 10
250.550
 20
144.040
 30
0.000000
  70
    32
  0
VERTEX
  8
0
  5
146F
 10
250.592
 20
144.071
 30
0.000000
  70
    32
  0
VERTEX
  8
0
  5
1470
 10
250.633
 20
144.101
 30
0.000000
  70
    32
  0
VERTEX
  8
0
  5
1471
 10
250.673
 20
144.132
 30
0.000000
  70
    32
  0
VERTEX
  8
0
  5
1472
 10
250.713
 20
144.163
 30
0.000000
  70
    32
  0
VERTEX
  8
0
  5
1473
 10
250.752
 20
144.194
 30
0.000000
  70
    32
  0
VERTEX
  8
0
  5
1474
 10
250.790
 20
144.226
 30
0.000000
  70
    32
  0
VERTEX
  8
0
  5
1475
 10
250.828
 20
144.258
 30
0.000000
  70
    32
  0
VERTEX
  8
0
  5
1476
 10
250.865
 20
144.291
 30
0.000000
  70
    32
  0
VERTEX
  8
0
  5
1477
 10
250.902
 20
144.324
 30
0.000000
  70
    32
  0
VERTEX
  8
0
  5
1478
 10
250.937
 20
144.357
 30
0.000000
  70
    32
  0
VERTEX
  8
0
  5
1479
 10
250.972
 20
144.390
 30
0.000000
  70
    32
  0
VERTEX
  8
0
  5
147A
 10
251.007
 20
144.424
 30
0.000000
  70
    32
  0
VERTEX
  8
0
  5
147B
 10
251.040
 20
144.458
 30
0.000000
  70
    32
  0
VERTEX
  8
0
  5
147C
 10
251.073
 20
144.492
 30
0.000000
  70
    32
  0
VERTEX
  8
0
  5
147D
 10
251.106
 20
144.526
 30
0.000000
  70
    32
  0
VERTEX
  8
0
  5
147E
 10
251.137
 20
144.561
 30
0.000000
  70
    32
  0
VERTEX
  8
0
  5
147F
 10
251.168
 20
144.596
 30
0.000000
  70
    32
  0
VERTEX
  8
0
  5
1480
 10
251.198
 20
144.631
 30
0.000000
  70
    32
  0
VERTEX
  8
0
  5
1481
 10
251.227
 20
144.667
 30
0.000000
  70
    32
  0
VERTEX
  8
0
  5
1482
 10
251.255
 20
144.702
 30
0.000000
  70
    32
  0
VERTEX
  8
0
  5
1483
 10
251.283
 20
144.738
 30
0.000000
  70
    32
  0
VERTEX
  8
0
  5
1484
 10
251.310
 20
144.774
 30
0.000000
  70
    32
  0
VERTEX
  8
0
  5
1485
 10
251.336
 20
144.811
 30
0.000000
  70
    32
  0
VERTEX
  8
0
  5
1486
 10
251.362
 20
144.847
 30
0.000000
  70
    32
  0
VERTEX
  8
0
  5
1487
 10
251.387
 20
144.884
 30
0.000000
  70
    32
  0
VERTEX
  8
0
  5
1488
 10
251.411
 20
144.921
 30
0.000000
  70
    32
  0
VERTEX
  8
0
  5
1489
 10
251.434
 20
144.959
 30
0.000000
  70
    32
  0
VERTEX
  8
0
  5
148A
 10
251.456
 20
144.996
 30
0.000000
  70
    32
  0
VERTEX
  8
0
  5
148B
 10
251.478
 20
145.034
 30
0.000000
  70
    32
  0
VERTEX
  8
0
  5
148C
 10
251.498
 20
145.071
 30
0.000000
  70
    32
  0
VERTEX
  8
0
  5
148D
 10
251.518
 20
145.109
 30
0.000000
  70
    32
  0
VERTEX
  8
0
  5
148E
 10
251.538
 20
145.147
 30
0.000000
  70
    32
  0
VERTEX
  8
0
  5
148F
 10
251.556
 20
145.186
 30
0.000000
  70
    32
  0
VERTEX
  8
0
  5
1490
 10
251.574
 20
145.224
 30
0.000000
  70
    32
  0
VERTEX
  8
0
  5
1491
 10
251.590
 20
145.263
 30
0.000000
  70
    32
  0
VERTEX
  8
0
  5
1492
 10
251.606
 20
145.301
 30
0.000000
  70
    32
  0
VERTEX
  8
0
  5
1493
 10
251.622
 20
145.340
 30
0.000000
  70
    32
  0
VERTEX
  8
0
  5
1494
 10
251.636
 20
145.379
 30
0.000000
  70
    32
  0
VERTEX
  8
0
  5
1495
 10
251.650
 20
145.418
 30
0.000000
  70
    32
  0
VERTEX
  8
0
  5
1496
 10
251.662
 20
145.457
 30
0.000000
  70
    32
  0
VERTEX
  8
0
  5
1497
 10
251.674
 20
145.497
 30
0.000000
  70
    32
  0
VERTEX
  8
0
  5
1498
 10
251.685
 20
145.536
 30
0.000000
  70
    32
  0
VERTEX
  8
0
  5
1499
 10
251.695
 20
145.575
 30
0.000000
  70
    32
  0
VERTEX
  8
0
  5
149A
 10
251.705
 20
145.615
 30
0.000000
  70
    32
  0
VERTEX
  8
0
  5
149B
 10
251.713
 20
145.655
 30
0.000000
  70
    32
  0
VERTEX
  8
0
  5
149C
 10
251.721
 20
145.694
 30
0.000000
  70
    32
  0
VERTEX
  8
0
  5
149D
 10
251.728
 20
145.734
 30
0.000000
  70
    32
  0
VERTEX
  8
0
  5
149E
 10
251.734
 20
145.774
 30
0.000000
  70
    32
  0
VERTEX
  8
0
  5
149F
 10
251.739
 20
145.814
 30
0.000000
  70
    32
  0
VERTEX
  8
0
  5
14A0
 10
251.744
 20
145.854
 30
0.000000
  70
    32
  0
VERTEX
  8
0
  5
14A1
 10
251.747
 20
145.894
 30
0.000000
  70
    32
  0
VERTEX
  8
0
  5
14A2
 10
251.750
 20
145.934
 30
0.000000
  70
    32
  0
VERTEX
  8
0
  5
14A3
 10
251.752
 20
145.973
 30
0.000000
  70
    32
  0
VERTEX
  8
0
  5
14A4
 10
251.753
 20
146.013
 30
0.000000
  70
    32
  0
VERTEX
  8
0
  5
14A5
 10
251.753
 20
146.053
 30
0.000000
  70
    32
  0
VERTEX
  8
0
  5
14A6
 10
251.753
 20
146.093
 30
0.000000
  70
    32
  0
VERTEX
  8
0
  5
14A7
 10
251.751
 20
146.133
 30
0.000000
  70
    32
  0
VERTEX
  8
0
  5
14A8
 10
251.749
 20
146.173
 30
0.000000
  70
    32
  0
VERTEX
  8
0
  5
14A9
 10
251.746
 20
146.213
 30
0.000000
  70
    32
  0
VERTEX
  8
0
  5
14AA
 10
251.742
 20
146.253
 30
0.000000
  70
    32
  0
VERTEX
  8
0
  5
14AB
 10
251.737
 20
146.293
 30
0.000000
  70
    32
  0
VERTEX
  8
0
  5
14AC
 10
251.731
 20
146.333
 30
0.000000
  70
    32
  0
VERTEX
  8
0
  5
14AD
 10
251.725
 20
146.373
 30
0.000000
  70
    32
  0
VERTEX
  8
0
  5
14AE
 10
251.718
 20
146.412
 30
0.000000
  70
    32
  0
VERTEX
  8
0
  5
14AF
 10
251.709
 20
146.452
 30
0.000000
  70
    32
  0
VERTEX
  8
0
  5
14B0
 10
251.700
 20
146.492
 30
0.000000
  70
    32
  0
VERTEX
  8
0
  5
14B1
 10
251.691
 20
146.531
 30
0.000000
  70
    32
  0
VERTEX
  8
0
  5
14B2
 10
251.680
 20
146.571
 30
0.000000
  70
    32
  0
VERTEX
  8
0
  5
14B3
 10
251.669
 20
146.610
 30
0.000000
  70
    32
  0
VERTEX
  8
0
  5
14B4
 10
251.656
 20
146.649
 30
0.000000
  70
    32
  0
VERTEX
  8
0
  5
14B5
 10
251.643
 20
146.688
 30
0.000000
  70
    32
  0
VERTEX
  8
0
  5
14B6
 10
251.629
 20
146.727
 30
0.000000
  70
    32
  0
VERTEX
  8
0
  5
14B7
 10
251.615
 20
146.766
 30
0.000000
  70
    32
  0
VERTEX
  8
0
  5
14B8
 10
251.599
 20
146.805
 30
0.000000
  70
    32
  0
VERTEX
  8
0
  5
14B9
 10
251.583
 20
146.844
 30
0.000000
  70
    32
  0
VERTEX
  8
0
  5
14BA
 10
251.565
 20
146.882
 30
0.000000
  70
    32
  0
VERTEX
  8
0
  5
14BB
 10
251.548
 20
146.920
 30
0.000000
  70
    32
  0
VERTEX
  8
0
  5
14BC
 10
251.529
 20
146.959
 30
0.000000
  70
    32
  0
VERTEX
  8
0
  5
14BD
 10
251.509
 20
146.997
 30
0.000000
  70
    32
  0
VERTEX
  8
0
  5
14BE
 10
251.489
 20
147.035
 30
0.000000
  70
    32
  0
VERTEX
  8
0
  5
14BF
 10
251.468
 20
147.072
 30
0.000000
  70
    32
  0
VERTEX
  8
0
  5
14C0
 10
251.446
 20
147.110
 30
0.000000
  70
    32
  0
VERTEX
  8
0
  5
14C1
 10
251.423
 20
147.147
 30
0.000000
  70
    32
  0
VERTEX
  8
0
  5
14C2
 10
251.399
 20
147.184
 30
0.000000
  70
    32
  0
VERTEX
  8
0
  5
14C3
 10
251.375
 20
147.221
 30
0.000000
  70
    32
  0
VERTEX
  8
0
  5
14C4
 10
251.350
 20
147.258
 30
0.000000
  70
    32
  0
VERTEX
  8
0
  5
14C5
 10
251.324
 20
147.294
 30
0.000000
  70
    32
  0
VERTEX
  8
0
  5
14C6
 10
251.298
 20
147.331
 30
0.000000
  70
    32
  0
VERTEX
  8
0
  5
14C7
 10
251.270
 20
147.367
 30
0.000000
  70
    32
  0
VERTEX
  8
0
  5
14C8
 10
251.242
 20
147.403
 30
0.000000
  70
    32
  0
VERTEX
  8
0
  5
14C9
 10
251.213
 20
147.438
 30
0.000000
  70
    32
  0
VERTEX
  8
0
  5
14CA
 10
251.184
 20
147.474
 30
0.000000
  70
    32
  0
VERTEX
  8
0
  5
14CB
 10
251.153
 20
147.509
 30
0.000000
  70
    32
  0
SEQEND
  8
0
  5
14CC
  0
ARC
  5
1258
  8
0
 10
193.81651029026651
 20
200.91479079609931
 30
0.0
 40
1.0
 50
0.0
 51
90.0
  0
ARC
  5
1259
  8
0
 10
193.81651029026651
 20
199.31479079609929
 30
0.0
 40
1.0
 50
270.0
 51
0.0
  0
LINE
  5
125A
  8
0
 10
160.7577420041975
 20
199.03479079609929
 30
0.0
 11
158.9145106291347
 21
199.03479079609929
 31
0.0
  0
LINE
  5
125B
  8
0
 10
160.7577420041975
 20
201.1947907960994
 30
0.0
 11
158.9145106291347
 21
201.1947907960994
 31
0.0
  0
LINE
  5
125C
  8
0
 10
193.81651029026651
 20
59.456995338897741
 30
0.0
 11
170.5401454987682
 21
59.456995338897741
 31
0.0
  0
LINE
  5
125D
  8
0
 10
193.81651029026651
 20
63.056995338897728
 30
0.0
 11
170.5401454987682
 21
63.056995338897728
 31
0.0
  0
ARC
  5
125E
  8
0
 10
193.81651029026651
 20
62.056995338897742
 30
0.0
 40
1.0
 50
0.0
 51
90.0
  0
ARC
  5
125F
  8
0
 10
193.81651029026651
 20
60.456995338897741
 30
0.0
 40
1.0
 50
270.0
 51
0.0
  0
LINE
  5
1260
  8
0
 10
194.81651029026659
 20
60.456995338897741
 30
0.0
 11
194.81651029026659
 21
62.056995338897742
 31
0.0
  0
CIRCLE
  5
1261
  8
0
 10
164.81651029026659
 20
61.256995338897717
 30
0.0
 40
6.0
  0
CIRCLE
  5
1262
  8
0
 10
164.81651029026659
 20
61.256995338897717
 30
0.0
 40
2.5
  0
CIRCLE
  5
1263
  8
0
 10
164.81651029026659
 20
61.256995338897717
 30
0.0
 40
1.749444650053487
  0
CIRCLE
  5
1264
  8
3
 10
164.81651029026659
 20
61.256995338897717
 30
0.0
 40
4.9264999999999928
  0
LINE
  5
1265
  8
3
 10
179.64215371675789
 20
63.056995338897728
 30
0.0
 11
179.64215371675789
 21
59.456995338897741
 31
0.0
  0
LINE
  5
1266
  8
3
 10
176.7967891720368
 20
63.056995338897728
 30
0.0
 11
176.7967891720368
 21
59.456995338897741
 31
0.0
  0
LINE
  5
1267
  8
1
 10
164.81651029026659
 20
72.256995338897724
 30
0.0
 11
164.81651029026659
 21
50.256995338897717
 31
0.0
  0
LINE
  5
1268
  8
1
 10
199.81651029026659
 20
61.256995338897717
 30
0.0
 11
153.81651029026659
 21
61.256995338897717
 31
0.0
  0
LINE
  5
1269
  8
1
 10
164.81651029026659
 20
211.1147907960993
 30
0.0
 11
164.81651029026659
 21
189.1147907960993
 31
0.0
  0
LINE
  5
126A
  8
1
 10
199.81651029026659
 20
200.1147907960993
 30
0.0
 11
153.81651029026659
 21
200.1147907960993
 31
0.0
  0
ARC
  5
126B
  8
0
 10
246.15330987279589
 20
151.6536549472053
 30
0.0
 40
1.0
 50
90.0
 51
180.0
  0
ARC
  5
126C
  8
0
 10
247.7533098727958
 20
151.6536549472053
 30
0.0
 40
1.0
 50
0.0
 51
90.000000000000625
  0
ARC
  5
126E
  8
0
 10
246.15330987279589
 20
142.85365494720531
 30
0.0
 40
1.0
 50
180.0
 51
270.0
  0
ARC
  5
126F
  8
0
 10
247.7533098727958
 20
142.8536549472052
 30
0.0
 40
1.0
 50
270.0
 51
0.0
  0
TEXT
  5
132C
  8
0
 62
     3
 10
0.0
 20
0.0
 30
0.0
 40
5.0
  1
GDX12L-5
  7
STANDARD1
  0
ENDSEC
  0
EOF
