  0
SECTION
  2
HEADER
  9
$ACADVER
  1
AC1009
  9
$INSBASE
 10
0.0
 20
0.0
 30
0.0
  9
$EXTMIN
 10
0.0
 20
-1.4802182810368341
 30
0.0
  9
$EXTMAX
 10
269.19902130067658
 20
216.67594778355991
 30
0.0
  9
$LIMMIN
 10
0.0
 20
0.0
  9
$LIMMAX
 10
187.5
 20
135.0
  9
$ORTHOMODE
 70
     1
  9
$REGENMODE
 70
     1
  9
$FILLMODE
 70
     1
  9
$QTEXTMODE
 70
     0
  9
$MIRRTEXT
 70
     0
  9
$DRAGMODE
 70
     2
  9
$LTSCALE
 40
10.0
  9
$OSMODE
 70
  3071
  9
$ATTMODE
 70
     1
  9
$TEXTSIZE
 40
4.0
  9
$TRACEWID
 40
0.05
  9
$TEXTSTYLE
  7
STANDARD
  9
$CLAYER
  8
0
  9
$CELTYPE
  6
BYLAYER
  9
$CECOLOR
 62
   256
  9
$DIMSCALE
 40
0.5
  9
$DIMASZ
 40
3.0
  9
$DIMEXO
 40
2.0
  9
$DIMDLI
 40
0.38
  9
$DIMRND
 40
0.0
  9
$DIMDLE
 40
0.0
  9
$DIMEXE
 40
2.0
  9
$DIMTP
 40
0.0
  9
$DIMTM
 40
0.0
  9
$DIMTXT
 40
3.0
  9
$DIMCEN
 40
0.0
  9
$DIMTSZ
 40
0.0
  9
$DIMTOL
 70
     0
  9
$DIMLIM
 70
     0
  9
$DIMTIH
 70
     0
  9
$DIMTOH
 70
     0
  9
$DIMSE1
 70
     0
  9
$DIMSE2
 70
     0
  9
$DIMTAD
 70
     1
  9
$DIMZIN
 70
     0
  9
$DIMBLK
  1

  9
$DIMASO
 70
     0
  9
$DIMSHO
 70
     0
  9
$DIMPOST
  1

  9
$DIMAPOST
  1

  9
$DIMALT
 70
     0
  9
$DIMALTD
 70
     2
  9
$DIMALTF
 40
25.399999999999999
  9
$DIMLFAC
 40
1.0
  9
$DIMTOFL
 70
     0
  9
$DIMTVP
 40
1.6000000000000001
  9
$DIMTIX
 70
     1
  9
$DIMSOXD
 70
     0
  9
$DIMSAH
 70
     0
  9
$DIMBLK1
  1

  9
$DIMBLK2
  1

  9
$DIMSTYLE
  2
STANDARD
  9
$DIMCLRD
 70
     0
  9
$DIMCLRE
 70
     0
  9
$DIMCLRT
 70
     0
  9
$DIMTFAC
 40
1.0
  9
$DIMGAP
 40
0.09
  9
$LUNITS
 70
     2
  9
$LUPREC
 70
     4
  9
$SKETCHINC
 40
0.1
  9
$FILLETRAD
 40
1.0
  9
$AUNITS
 70
     0
  9
$AUPREC
 70
     0
  9
$MENU
  1
E:\r13\win\SUPPORT\ACAD
  9
$ELEVATION
 40
0.0
  9
$PELEVATION
 40
0.0
  9
$THICKNESS
 40
0.0
  9
$LIMCHECK
 70
     0
  9
$BLIPMODE
 70
     0
  9
$CHAMFERA
 40
0.0
  9
$CHAMFERB
 40
0.0
  9
$SKPOLY
 70
     0
  9
$TDCREATE
 40
2449840.6143865739
  9
$TDUPDATE
 40
2456598.6849238891
  9
$TDINDWG
 40
0.2444348958
  9
$TDUSRTIMER
 40
0.2444348958
  9
$USRTIMER
 70
     1
  9
$ANGBASE
 50
0.0
  9
$ANGDIR
 70
     0
  9
$PDMODE
 70
     0
  9
$PDSIZE
 40
0.0
  9
$PLINEWID
 40
0.0
  9
$COORDS
 70
     1
  9
$SPLFRAME
 70
     0
  9
$SPLINETYPE
 70
     6
  9
$SPLINESEGS
 70
     8
  9
$ATTDIA
 70
     0
  9
$ATTREQ
 70
     1
  9
$HANDLING
 70
     1
  9
$HANDSEED
  5
15EB
  9
$SURFTAB1
 70
     6
  9
$SURFTAB2
 70
     6
  9
$SURFTYPE
 70
     6
  9
$SURFU
 70
     6
  9
$SURFV
 70
     6
  9
$UCSNAME
  2

  9
$UCSORG
 10
0.0
 20
0.0
 30
0.0
  9
$UCSXDIR
 10
1.0
 20
0.0
 30
0.0
  9
$UCSYDIR
 10
0.0
 20
1.0
 30
0.0
  9
$PUCSNAME
  2

  9
$PUCSORG
 10
0.0
 20
0.0
 30
0.0
  9
$PUCSXDIR
 10
1.0
 20
0.0
 30
0.0
  9
$PUCSYDIR
 10
0.0
 20
1.0
 30
0.0
  9
$USERI1
 70
     0
  9
$USERI2
 70
     1
  9
$USERI3
 70
     1
  9
$USERI4
 70
     0
  9
$USERI5
 70
     0
  9
$USERR1
 40
0.0
  9
$USERR2
 40
0.0
  9
$USERR3
 40
0.0
  9
$USERR4
 40
0.0
  9
$USERR5
 40
0.0
  9
$WORLDVIEW
 70
     1
  9
$SHADEDGE
 70
     3
  9
$SHADEDIF
 70
    70
  9
$TILEMODE
 70
     1
  9
$MAXACTVP
 70
    16
  9
$PLIMCHECK
 70
     0
  9
$PEXTMIN
 10
1.0000000000000000E+020
 20
1.0000000000000000E+020
 30
1.0000000000000000E+020
  9
$PEXTMAX
 10
-1.0000000000000000E+020
 20
-1.0000000000000000E+020
 30
-1.0000000000000000E+020
  9
$PLIMMIN
 10
0.0
 20
0.0
  9
$PLIMMAX
 10
12.0
 20
9.0
  9
$UNITMODE
 70
     0
  9
$VISRETAIN
 70
     0
  9
$PLINEGEN
 70
     0
  9
$PSLTSCALE
 70
     0
  0
ENDSEC
  0
SECTION
  2
TABLES
  0
TABLE
  2
VPORT
 70
     1
  0
VPORT
  2
*ACTIVE
 70
     0
 10
0.0
 20
0.0
 11
1.0
 21
1.0
 12
134.59951127711611
 22
108.06638726070609
 13
0.0
 23
0.0
 14
5.0
 24
5.0
 15
5.0
 25
5.0
 16
0.0
 26
0.0
 36
1.0
 17
0.0
 27
0.0
 37
0.0
 40
221.62937093497621
 41
2.304913294797688
 42
50.0
 43
0.0
 44
0.0
 50
0.0
 51
0.0
 71
     0
 72
   100
 73
     1
 74
     0
 75
     0
 76
     0
 77
     0
 78
     0
  0
ENDTAB
  0
TABLE
  2
LTYPE
 70
     3
  0
LTYPE
  2
CONTINUOUS
 70
     0
  3
Solid Line
 72
    65
 73
     0
 40
0.0
  0
LTYPE
  2
CENTER
 70
     0
  3
____ _ ____ _ ____ _ ____ _ ____ _ ____ _ ____
 72
    65
 73
     4
 40
2.0
 49
1.25
 49
-0.25
 49
0.25
 49
-0.25
  0
LTYPE
  2
PHANTOM2
 70
     0
  3
___ _ _ ___ _ _ ___ _ _ ___ _ _
 72
    65
 73
     6
 40
1.25
 49
0.625
 49
-0.125
 49
0.125
 49
-0.125
 49
0.125
 49
-0.125
  0
ENDTAB
  0
TABLE
  2
LAYER
 70
     4
  0
LAYER
  2
0
 70
     0
 62
     7
  6
CONTINUOUS
  0
LAYER
  2
1
 70
     0
 62
     1
  6
CENTER
  0
LAYER
  2
3
 70
     0
 62
     3
  6
CONTINUOUS
  0
LAYER
  2
ITTEN
 70
     0
 62
     1
  6
CENTER
  0
ENDTAB
  0
TABLE
  2
STYLE
 70
     2
  0
STYLE
  2
STANDARD
 70
     0
 40
0.0
 41
1.0
 50
0.0
 71
     0
 42
4.0
  3
TXT
  4
BIGFONT
  0
STYLE
  2
STANDARD1
 70
     0
 40
0.0
 41
1.0
 50
0.0
 71
     0
 42
3.0
  3
txt
  4

  0
ENDTAB
  0
TABLE
  2
VIEW
 70
     1
  0
VIEW
  2
ALL
 70
     0
 40
179.66152299999999
 10
141.903918
 20
89.830760999999995
 41
0.0
 11
0.0
 21
0.0
 31
1.0
 12
0.0
 22
0.0
 32
0.0
 42
0.0
 43
0.0
 44
0.0
 50
0.0
 71
     0
  0
ENDTAB
  0
TABLE
  2
UCS
 70
     0
  0
ENDTAB
  0
TABLE
  2
APPID
 70
     4
  0
APPID
  2
ACAD
 70
     0
  0
APPID
  2
DCO15
 70
     0
  0
APPID
  2
ACAD_MLEADERVER
 70
     0
  0
APPID
  2
ACAD_NAV_VCDISPLAY
 70
     0
  0
ENDTAB
  0
TABLE
  2
DIMSTYLE
 70
     1
  0
DIMSTYLE
  2
STANDARD
 70
     0
  3

  4

  5

  6

  7

 40
1.0
 41
0.18
 42
0.0625
 43
0.38
 44
0.18
 45
0.0
 46
0.0
 47
0.0
 48
0.0
140
0.18
141
0.09
142
0.0
143
25.399999999999999
144
1.0
145
0.0
146
1.0
147
0.09
 71
     0
 72
     0
 73
     1
 74
     1
 75
     0
 76
     0
 77
     0
 78
     0
170
     0
171
     2
172
     0
173
     0
174
     0
175
     0
176
     0
177
     0
178
     0
  0
ENDTAB
  0
ENDSEC
  0
SECTION
  2
BLOCKS
  0
BLOCK
  8
0
  2
$MODEL_SPACE
 70
     0
 10
0.0
 20
0.0
 30
0.0
  3
$MODEL_SPACE
  1

  0
ENDBLK
  5
1BD
  8
0
  0
BLOCK
 67
     1
  8
0
  2
$PAPER_SPACE
 70
     0
 10
0.0
 20
0.0
 30
0.0
  3
$PAPER_SPACE
  1

  0
ENDBLK
  5
1BB
 67
     1
  8
0
  0
ENDSEC
  0
SECTION
  2
ENTITIES
  0
LINE
  5
130D
  8
0
 10
166.61481513149619
 20
105.9260183776032
 30
0.0
 11
166.61481513149619
 21
138.19420971449529
 31
0.0
  0
LINE
  5
130E
  8
0
 10
165.6948151314962
 20
105.0060183776032
 30
0.0
 11
166.61481513149619
 21
105.9260183776032
 31
0.0
  0
LINE
  5
130F
  8
0
 10
150.61481513149619
 20
105.9260183776032
 30
0.0
 11
151.5348151314962
 21
105.0060183776032
 31
0.0
  0
ARC
  5
1310
  8
0
 10
158.6148151314961
 20
137.0060183776034
 30
0.0
 40
18.399999999999888
 50
73.042573705827238
 51
107.7189318734068
  0
LINE
  5
1311
  8
0
 10
160.57558464695489
 20
95.006018377603255
 30
0.0
 11
161.61481513149619
 21
96.80601837760328
 31
0.0
  0
LINE
  5
1312
  8
0
 10
155.61481513149619
 20
96.80601837760328
 30
0.0
 11
156.65404561603751
 21
95.006018377603255
 31
0.0
  0
LINE
  5
1313
  8
0
 10
161.61481513149619
 20
96.80601837760328
 30
0.0
 11
161.61481513149619
 21
105.0060183776032
 31
0.0
  0
LINE
  5
1314
  8
0
 10
155.61481513149619
 20
105.0060183776032
 30
0.0
 11
155.61481513149619
 21
96.80601837760328
 31
0.0
  0
LINE
  5
1315
  8
0
 10
164.21481513149621
 20
142.18515972585411
 30
0.0
 11
164.21481513149621
 21
142.36601837760321
 31
0.0
  0
LINE
  5
1316
  8
0
 10
153.01481513149619
 20
154.5331402177685
 30
0.0
 11
153.01481513149619
 21
149.0532886113721
 31
0.0
  0
LINE
  5
1317
  8
0
 10
150.61481513149619
 20
105.9260183776032
 30
0.0
 11
166.61481513149619
 21
105.9260183776032
 31
0.0
  0
LINE
  5
1318
  8
0
 10
151.5348151314962
 20
105.0060183776032
 30
0.0
 11
165.6948151314962
 21
105.0060183776032
 31
0.0
  0
LINE
  5
1319
  8
0
 10
150.61481513149619
 20
137.0060183776032
 30
0.0
 11
166.61481513149619
 21
137.0060183776032
 31
0.0
  0
LINE
  5
131A
  8
0
 10
156.65404561603751
 20
95.006018377603255
 30
0.0
 11
160.57558464695489
 21
95.006018377603255
 31
0.0
  0
LINE
  5
131B
  8
0
 10
155.61481513149619
 20
96.80601837760328
 30
0.0
 11
161.61481513149619
 21
96.80601837760328
 31
0.0
  0
ARC
  5
131C
  8
0
 10
158.6148151315605
 20
137.00601837783299
 30
0.0
 40
18.242806801347669
 50
73.897886248007765
 51
74.744881296946076
  0
LINE
  5
131D
  8
0
 10
163.67445938776561
 20
142.5165198054944
 30
0.0
 11
163.67445938776561
 21
154.5331402177685
 31
0.0
  0
ARC
  5
131E
  8
0
 10
191.4148151314962
 20
147.4060183776032
 30
0.0
 40
7.200000000000002
 50
270.0
 51
90.0
  0
LINE
  5
131F
  8
0
 10
179.12773855004659
 20
140.20601837760319
 30
0.0
 11
191.4148151314962
 21
140.20601837760319
 31
0.0
  0
ARC
  5
1320
  8
0
 10
179.12773855004659
 20
143.0860183776033
 30
0.0
 40
2.8800000000000452
 50
239.9999999999998
 51
270.0
  0
LINE
  5
1321
  8
0
 10
175.28312145729461
 20
141.9801715405024
 30
0.0
 11
177.68773855004659
 21
140.59186521470409
 31
0.0
  0
ARC
  5
1322
  8
0
 10
173.84312145729459
 20
139.4860183776033
 30
0.0
 40
2.8799999999999528
 50
59.999999999999858
 51
90.0
  0
LINE
  5
1323
  8
0
 10
163.91988518283699
 20
142.36601837760321
 30
0.0
 11
173.84312145729459
 21
142.36601837760321
 31
0.0
  0
LINE
  5
1324
  8
0
 10
191.4148151314962
 20
154.60601837760319
 30
0.0
 11
163.4148151314964
 21
154.60601837760319
 31
0.0
  0
ARC
  5
1325
  8
0
 10
181.59329528391359
 20
147.4060183776032
 30
0.0
 40
4.3200000000000003
 50
90.0
 51
270.0
  0
LINE
  5
1326
  8
0
 10
181.59329528391359
 20
151.7260183776032
 30
0.0
 11
191.59329528391359
 21
151.7260183776032
 31
0.0
  0
ARC
  5
1327
  8
0
 10
191.59329528391359
 20
147.4060183776032
 30
0.0
 40
4.3200000000000003
 50
270.0
 51
90.0
  0
LINE
  5
1328
  8
0
 10
191.59329528391359
 20
143.08601837760321
 30
0.0
 11
181.59329528391359
 21
143.08601837760321
 31
0.0
  0
LINE
  5
1329
  8
3
 10
165.6948151314962
 20
137.0060183776032
 30
0.0
 11
165.6948151314962
 21
105.0060183776032
 31
0.0
  0
LINE
  5
132A
  8
3
 10
165.6948151314962
 20
137.0060183776032
 30
0.0
 11
166.59892950817959
 21
138.57199041387219
 31
0.0
  0
LINE
  5
132B
  8
3
 10
151.5348151314962
 20
137.0060183776032
 30
0.0
 11
151.5348151314962
 21
105.0060183776032
 31
0.0
  0
LINE
  5
132C
  8
3
 10
151.5348151314962
 20
137.0060183776032
 30
0.0
 11
150.61481513149619
 21
138.59950512056659
 31
0.0
  0
LINE
  5
132D
  8
1
 10
158.61481513149619
 20
160.40601837760329
 30
0.0
 11
158.61481513149619
 21
90.005518377603266
 31
0.0
  0
LINE
  5
132E
  8
0
 10
164.46724384306151
 20
142.0303639289402
 30
0.0
 11
152.762386419931
 21
149.208084408286
 31
0.0
  0
ARC
  5
132F
  8
0
 10
162.11481513149619
 20
138.19420971449529
 30
0.0
 40
4.5
 50
0.0
 51
58.482300287030618
  0
ARC
  5
1330
  8
0
 10
155.11481513149619
 20
153.04423862273089
 30
0.0
 40
4.5
 50
180.0
 51
238.4823002870306
  0
LINE
  5
1331
  8
0
 10
150.61481513149619
 20
105.9260183776032
 30
0.0
 11
150.61481513149619
 21
153.04423862273089
 31
0.0
  0
LINE
  5
1332
  8
0
 10
96.4460261525021
 20
105.9255183776032
 30
0.0
 11
96.4460261525021
 21
145.3522730395309
 31
0.0
  0
LINE
  5
1333
  8
0
 10
80.446026152502114
 20
145.3522730395309
 30
0.0
 11
80.446026152502114
 21
105.9255183776032
 31
0.0
  0
LINE
  5
1334
  8
0
 10
95.526026152502112
 20
105.0055183776032
 30
0.0
 11
96.4460261525021
 21
105.9255183776032
 31
0.0
  0
LINE
  5
1335
  8
0
 10
80.446026152502114
 20
105.9255183776032
 30
0.0
 11
81.366026152502087
 21
105.0055183776032
 31
0.0
  0
ARC
  5
1336
  8
0
 10
88.446026152502085
 20
137.00551837760349
 30
0.0
 40
18.39999999999981
 50
72.28106812659243
 51
107.7189318734068
  0
LINE
  5
1337
  8
0
 10
90.406795667960765
 20
95.005518377603266
 30
0.0
 11
91.4460261525021
 21
96.805518377603264
 31
0.0
  0
LINE
  5
1338
  8
0
 10
85.446026152502114
 20
96.805518377603264
 30
0.0
 11
86.48525663704342
 21
95.005518377603266
 31
0.0
  0
LINE
  5
1339
  8
0
 10
91.4460261525021
 20
96.805518377603264
 30
0.0
 11
91.4460261525021
 21
105.0055183776032
 31
0.0
  0
LINE
  5
133A
  8
0
 10
85.446026152502114
 20
105.0055183776032
 30
0.0
 11
85.446026152502114
 21
96.805518377603264
 31
0.0
  0
LINE
  5
133B
  8
0
 10
94.046026152502094
 20
149.11592747194311
 30
0.0
 11
94.046026152502094
 21
154.53264021776849
 31
0.0
  0
LINE
  5
133C
  8
0
 10
82.846026152502105
 20
154.53264021776849
 30
0.0
 11
82.846026152502105
 21
149.1159274717815
 31
0.0
  0
LINE
  5
133D
  8
0
 10
80.446026152502114
 20
105.9255183776032
 30
0.0
 11
96.4460261525021
 21
105.9255183776032
 31
0.0
  0
LINE
  5
133E
  8
0
 10
81.366026152502087
 20
105.0055183776032
 30
0.0
 11
95.526026152502112
 21
105.0055183776032
 31
0.0
  0
LINE
  5
133F
  8
0
 10
80.446026152502114
 20
137.00551837760321
 30
0.0
 11
96.4460261525021
 21
137.00551837760321
 31
0.0
  0
LINE
  5
1340
  8
0
 10
86.485256637043435
 20
95.005518377603266
 30
0.0
 11
90.406795667960765
 21
95.005518377603266
 31
0.0
  0
LINE
  5
1341
  8
0
 10
85.446026152502114
 20
96.805518377603264
 30
0.0
 11
91.4460261525021
 21
96.805518377603264
 31
0.0
  0
LINE
  5
1342
  8
3
 10
95.526026152502112
 20
137.00551837760321
 30
0.0
 11
95.526026152502112
 21
105.0055183776032
 31
0.0
  0
LINE
  5
1343
  8
3
 10
95.526026152502112
 20
137.00551837760321
 30
0.0
 11
96.4460261525021
 21
138.5990051205666
 31
0.0
  0
LINE
  5
1344
  8
3
 10
81.366026152502087
 20
137.00551837760321
 30
0.0
 11
81.366026152502087
 21
105.0055183776032
 31
0.0
  0
LINE
  5
1345
  8
3
 10
81.366026152502087
 20
137.00551837760321
 30
0.0
 11
80.446026152502114
 21
138.5990051205666
 31
0.0
  0
LINE
  5
1346
  8
1
 10
88.446026152502085
 20
160.4055183776033
 30
0.0
 11
88.446026152502085
 21
90.005518377603266
 31
0.0
  0
LINE
  5
1347
  8
0
 10
88.56088165413783
 20
152.96366931204091
 30
0.0
 11
94.743136144694418
 21
148.62691587253889
 31
0.0
  0
ARC
  5
1348
  8
0
 10
92.4460261525021
 20
145.3522730395309
 30
0.0
 40
4.0
 50
0.0
 51
54.950949369636312
  0
ARC
  5
1349
  8
0
 10
88.446026154528212
 20
152.79993717039051
 30
0.0
 40
0.2
 50
54.950949369636312
 51
125.04905063036369
  0
LINE
  5
134A
  8
0
 10
88.331170650866369
 20
152.96366931204091
 30
0.0
 11
82.148916160309767
 21
148.62691587253889
 31
0.0
  0
ARC
  5
134B
  8
0
 10
84.446026152502085
 20
145.3522730395309
 30
0.0
 40
4.0
 50
125.04905063036369
 51
180.0
  0
LINE
  5
134D
  8
0
 10
269.19902130067658
 20
105.9255183776032
 30
0.0
 11
269.19902130067658
 21
145.61652413673329
 31
0.0
  0
LINE
  5
134E
  8
0
 10
253.19902130067661
 20
145.61652413673329
 30
0.0
 11
253.19902130067661
 21
105.9255183776032
 31
0.0
  0
LINE
  5
134F
  8
0
 10
268.27902130067662
 20
105.0055183776032
 30
0.0
 11
269.19902130067658
 21
105.9255183776032
 31
0.0
  0
LINE
  5
1350
  8
0
 10
253.19902130067661
 20
105.9255183776032
 30
0.0
 11
254.11902130067671
 21
105.0055183776032
 31
0.0
  0
ARC
  5
1351
  8
0
 10
261.19902130067658
 20
137.00551837760349
 30
0.0
 40
18.39999999999981
 50
72.28106812659243
 51
107.7189318734068
  0
LINE
  5
1352
  8
0
 10
263.15979081613528
 20
95.005518377603266
 30
0.0
 11
264.19902130067658
 21
96.805518377603264
 31
0.0
  0
LINE
  5
1353
  8
0
 10
258.19902130067658
 20
96.805518377603264
 30
0.0
 11
259.23825178521793
 21
95.005518377603266
 31
0.0
  0
LINE
  5
1354
  8
0
 10
264.19902130067658
 20
96.805518377603264
 30
0.0
 11
264.19902130067658
 21
105.0055183776032
 31
0.0
  0
LINE
  5
1355
  8
0
 10
258.19902130067658
 20
105.0055183776032
 30
0.0
 11
258.19902130067658
 21
96.805518377603264
 31
0.0
  0
LINE
  5
1356
  8
0
 10
266.7990213006766
 20
143.72326262381819
 30
0.0
 11
266.7990213006766
 21
154.53264021776849
 31
0.0
  0
LINE
  5
1357
  8
0
 10
255.5990213006767
 20
154.53264021776849
 30
0.0
 11
255.5990213006767
 21
143.72326262381819
 31
0.0
  0
LINE
  5
1358
  8
0
 10
253.19902130067661
 20
105.9255183776032
 30
0.0
 11
269.19902130067658
 21
105.9255183776032
 31
0.0
  0
LINE
  5
1359
  8
0
 10
254.11902130067671
 20
105.0055183776032
 30
0.0
 11
268.27902130067662
 21
105.0055183776032
 31
0.0
  0
LINE
  5
135C
  8
0
 10
266.7990213006766
 20
149.11215762147251
 30
0.0
 11
266.80439540698512
 21
149.11215762147251
 31
0.0
  0
LINE
  5
135D
  8
0
 10
255.59364719436809
 20
149.11215762147251
 30
0.0
 11
255.5990213006767
 21
149.11215762147251
 31
0.0
  0
LINE
  5
135E
  8
0
 10
259.23825178521793
 20
95.005518377603266
 30
0.0
 11
263.15979081613528
 21
95.005518377603266
 31
0.0
  0
LINE
  5
135F
  8
0
 10
258.19902130067658
 20
96.805518377603264
 30
0.0
 11
264.19902130067658
 21
96.805518377603264
 31
0.0
  0
LINE
  5
1360
  8
0
 10
258.7990213006766
 20
141.2055183776032
 30
0.0
 11
258.7990213006766
 21
153.6055183776032
 31
0.0
  0
LINE
  5
1361
  8
0
 10
259.7990213006766
 20
140.2055183776032
 30
0.0
 11
262.59902130067672
 21
140.2055183776032
 31
0.0
  0
LINE
  5
1362
  8
0
 10
259.79902130067671
 20
154.6055183776032
 30
0.0
 11
262.59902130067672
 21
154.6055183776032
 31
0.0
  0
LINE
  5
1363
  8
0
 10
263.59902130067672
 20
141.2055183776032
 30
0.0
 11
263.59902130067672
 21
153.6055183776032
 31
0.0
  0
LINE
  5
1364
  8
0
 10
253.19902130067661
 20
137.00551837760321
 30
0.0
 11
269.19902130067658
 21
137.00551837760321
 31
0.0
  0
LINE
  5
1365
  8
3
 10
268.27902130067662
 20
137.00551837760321
 30
0.0
 11
268.27902130067662
 21
105.0055183776032
 31
0.0
  0
LINE
  5
1366
  8
3
 10
268.27902130067662
 20
137.00551837760321
 30
0.0
 11
269.19902130067658
 21
138.5990051205666
 31
0.0
  0
LINE
  5
1367
  8
3
 10
254.11902130067671
 20
137.00551837760321
 30
0.0
 11
254.11902130067671
 21
105.0055183776032
 31
0.0
  0
LINE
  5
1368
  8
3
 10
254.11902130067671
 20
137.00551837760321
 30
0.0
 11
253.19902130067661
 21
138.5990051205666
 31
0.0
  0
LINE
  5
1369
  8
1
 10
261.19902130067658
 20
160.4055183776033
 30
0.0
 11
261.19902130067658
 21
90.005518377603266
 31
0.0
  0
LINE
  5
136A
  8
0
 10
198.61481513149619
 20
202.27594778356001
 30
0.0
 11
198.61481513149619
 21
205.07594778356
 31
0.0
  0
LINE
  5
136B
  8
0
 10
197.61481513149619
 20
201.2759477835599
 30
0.0
 11
163.67445938776561
 21
201.2759477835599
 31
0.0
  0
LINE
  5
136C
  8
0
 10
197.61481513149619
 20
206.07594778355991
 30
0.0
 11
163.67445938776561
 21
206.07594778355991
 31
0.0
  0
ARC
  5
136D
  8
0
 10
197.61481513149619
 20
205.07594778356
 30
0.0
 40
1.0
 50
0.0
 51
90.0
  0
ARC
  5
136E
  8
0
 10
197.61481513149619
 20
202.27594778356001
 30
0.0
 40
1.0
 50
270.0
 51
0.0
  0
ARC
  5
136F
  8
0
 10
158.61481513149619
 20
203.67594778355991
 30
0.0
 40
8.0
 50
17.45760312372197
 51
342.54239687627802
  0
ARC
  5
1370
  8
0
 10
158.61481513149619
 20
203.67594778355991
 30
0.0
 40
5.5999999999999872
 50
25.376933525152161
 51
334.6230664748478
  0
LINE
  5
1371
  8
1
 10
158.61481513149619
 20
216.67594778355991
 30
0.0
 11
158.61481513149619
 21
190.67594778355991
 31
0.0
  0
LINE
  5
1372
  8
1
 10
203.6148151314963
 20
203.67594778355991
 30
0.0
 11
145.61481513149619
 21
203.67594778355991
 31
0.0
  0
LINE
  5
1373
  8
0
 10
153.20312408340419
 20
202.23594778355991
 30
0.0
 11
150.74548224998711
 21
202.23594778355991
 31
0.0
  0
LINE
  5
1374
  8
0
 10
153.20312408340419
 20
205.1159477835599
 30
0.0
 11
150.74548224998711
 21
205.1159477835599
 31
0.0
  0
ARC
  5
1375
  8
0
 10
257.19902130067658
 20
145.8418738453548
 30
0.0
 40
4.0
 50
183.5087000844735
 51
234.95094936963631
  0
ARC
  5
1376
  8
0
 10
257.19902130067658
 20
145.3522730395309
 30
0.0
 40
4.0
 50
125.04905063036369
 51
180.0
  0
ARC
  5
1377
  8
0
 10
265.19902130067658
 20
145.8418738453548
 30
0.0
 40
4.0
 50
305.04905063036358
 51
356.49129991552718
  0
ARC
  5
1378
  8
0
 10
265.19902130067658
 20
145.3522730395309
 30
0.0
 40
4.0
 50
0.0
 51
54.950949369636312
  0
LINE
  5
1379
  8
0
 10
261.31387680231239
 20
138.2304775728449
 30
0.0
 11
267.49613129286899
 21
142.56723101234689
 31
0.0
  0
LINE
  5
137A
  8
0
 10
261.08416579904087
 20
138.2304775728449
 30
0.0
 11
254.9019113084843
 21
142.56723101234689
 31
0.0
  0
ARC
  5
137B
  8
0
 10
261.1990213027027
 20
138.3942097144953
 30
0.0
 40
0.2
 50
234.95094936963631
 51
305.04905063036358
  0
LINE
  5
137C
  8
0
 10
266.7990213006766
 20
149.11592747194311
 30
0.0
 11
267.49613129286899
 21
148.62691587253889
 31
0.0
  0
LINE
  5
137D
  8
0
 10
255.5990213006767
 20
149.11592747194311
 30
0.0
 11
254.9019113084843
 21
148.62691587253889
 31
0.0
  0
POLYLINE
  5
137E
  8
0
 10
255.59902130067658
 20
147.55804647688606
 30
0.0
 66
     1
 70
     8
  0
VERTEX
  8
0
  5
14E7
 10
255.599
 20
147.558
 30
0.000000
  70
    32
  0
VERTEX
  8
0
  5
14E8
 10
255.559
 20
147.511
 30
0.000000
  70
    32
  0
VERTEX
  8
0
  5
14E9
 10
255.519
 20
147.465
 30
0.000000
  70
    32
  0
VERTEX
  8
0
  5
14EA
 10
255.481
 20
147.417
 30
0.000000
  70
    32
  0
VERTEX
  8
0
  5
14EB
 10
255.443
 20
147.370
 30
0.000000
  70
    32
  0
VERTEX
  8
0
  5
14EC
 10
255.407
 20
147.322
 30
0.000000
  70
    32
  0
VERTEX
  8
0
  5
14ED
 10
255.371
 20
147.274
 30
0.000000
  70
    32
  0
VERTEX
  8
0
  5
14EE
 10
255.337
 20
147.226
 30
0.000000
  70
    32
  0
VERTEX
  8
0
  5
14EF
 10
255.303
 20
147.177
 30
0.000000
  70
    32
  0
VERTEX
  8
0
  5
14F0
 10
255.271
 20
147.128
 30
0.000000
  70
    32
  0
VERTEX
  8
0
  5
14F1
 10
255.240
 20
147.079
 30
0.000000
  70
    32
  0
VERTEX
  8
0
  5
14F2
 10
255.209
 20
147.029
 30
0.000000
  70
    32
  0
VERTEX
  8
0
  5
14F3
 10
255.180
 20
146.979
 30
0.000000
  70
    32
  0
VERTEX
  8
0
  5
14F4
 10
255.152
 20
146.929
 30
0.000000
  70
    32
  0
VERTEX
  8
0
  5
14F5
 10
255.125
 20
146.879
 30
0.000000
  70
    32
  0
VERTEX
  8
0
  5
14F6
 10
255.098
 20
146.829
 30
0.000000
  70
    32
  0
VERTEX
  8
0
  5
14F7
 10
255.073
 20
146.778
 30
0.000000
  70
    32
  0
VERTEX
  8
0
  5
14F8
 10
255.049
 20
146.727
 30
0.000000
  70
    32
  0
VERTEX
  8
0
  5
14F9
 10
255.027
 20
146.676
 30
0.000000
  70
    32
  0
VERTEX
  8
0
  5
14FA
 10
255.005
 20
146.625
 30
0.000000
  70
    32
  0
VERTEX
  8
0
  5
14FB
 10
254.984
 20
146.574
 30
0.000000
  70
    32
  0
VERTEX
  8
0
  5
14FC
 10
254.964
 20
146.522
 30
0.000000
  70
    32
  0
VERTEX
  8
0
  5
14FD
 10
254.946
 20
146.471
 30
0.000000
  70
    32
  0
VERTEX
  8
0
  5
14FE
 10
254.928
 20
146.419
 30
0.000000
  70
    32
  0
VERTEX
  8
0
  5
14FF
 10
254.912
 20
146.367
 30
0.000000
  70
    32
  0
VERTEX
  8
0
  5
1500
 10
254.897
 20
146.315
 30
0.000000
  70
    32
  0
VERTEX
  8
0
  5
1501
 10
254.883
 20
146.262
 30
0.000000
  70
    32
  0
VERTEX
  8
0
  5
1502
 10
254.869
 20
146.210
 30
0.000000
  70
    32
  0
VERTEX
  8
0
  5
1503
 10
254.858
 20
146.157
 30
0.000000
  70
    32
  0
VERTEX
  8
0
  5
1504
 10
254.847
 20
146.105
 30
0.000000
  70
    32
  0
VERTEX
  8
0
  5
1505
 10
254.837
 20
146.052
 30
0.000000
  70
    32
  0
VERTEX
  8
0
  5
1506
 10
254.828
 20
145.999
 30
0.000000
  70
    32
  0
VERTEX
  8
0
  5
1507
 10
254.821
 20
145.947
 30
0.000000
  70
    32
  0
VERTEX
  8
0
  5
1508
 10
254.814
 20
145.894
 30
0.000000
  70
    32
  0
VERTEX
  8
0
  5
1509
 10
254.809
 20
145.841
 30
0.000000
  70
    32
  0
VERTEX
  8
0
  5
150A
 10
254.805
 20
145.788
 30
0.000000
  70
    32
  0
VERTEX
  8
0
  5
150B
 10
254.802
 20
145.735
 30
0.000000
  70
    32
  0
VERTEX
  8
0
  5
150C
 10
254.800
 20
145.682
 30
0.000000
  70
    32
  0
VERTEX
  8
0
  5
150D
 10
254.799
 20
145.629
 30
0.000000
  70
    32
  0
VERTEX
  8
0
  5
150E
 10
254.799
 20
145.576
 30
0.000000
  70
    32
  0
VERTEX
  8
0
  5
150F
 10
254.801
 20
145.523
 30
0.000000
  70
    32
  0
VERTEX
  8
0
  5
1510
 10
254.803
 20
145.470
 30
0.000000
  70
    32
  0
VERTEX
  8
0
  5
1511
 10
254.807
 20
145.417
 30
0.000000
  70
    32
  0
VERTEX
  8
0
  5
1512
 10
254.812
 20
145.364
 30
0.000000
  70
    32
  0
VERTEX
  8
0
  5
1513
 10
254.818
 20
145.311
 30
0.000000
  70
    32
  0
VERTEX
  8
0
  5
1514
 10
254.825
 20
145.258
 30
0.000000
  70
    32
  0
VERTEX
  8
0
  5
1515
 10
254.833
 20
145.206
 30
0.000000
  70
    32
  0
VERTEX
  8
0
  5
1516
 10
254.842
 20
145.153
 30
0.000000
  70
    32
  0
VERTEX
  8
0
  5
1517
 10
254.852
 20
145.100
 30
0.000000
  70
    32
  0
VERTEX
  8
0
  5
1518
 10
254.864
 20
145.048
 30
0.000000
  70
    32
  0
VERTEX
  8
0
  5
1519
 10
254.876
 20
144.995
 30
0.000000
  70
    32
  0
VERTEX
  8
0
  5
151A
 10
254.890
 20
144.943
 30
0.000000
  70
    32
  0
VERTEX
  8
0
  5
151B
 10
254.905
 20
144.891
 30
0.000000
  70
    32
  0
VERTEX
  8
0
  5
151C
 10
254.920
 20
144.839
 30
0.000000
  70
    32
  0
VERTEX
  8
0
  5
151D
 10
254.937
 20
144.787
 30
0.000000
  70
    32
  0
VERTEX
  8
0
  5
151E
 10
254.955
 20
144.735
 30
0.000000
  70
    32
  0
VERTEX
  8
0
  5
151F
 10
254.975
 20
144.684
 30
0.000000
  70
    32
  0
VERTEX
  8
0
  5
1520
 10
254.995
 20
144.632
 30
0.000000
  70
    32
  0
VERTEX
  8
0
  5
1521
 10
255.016
 20
144.581
 30
0.000000
  70
    32
  0
VERTEX
  8
0
  5
1522
 10
255.039
 20
144.530
 30
0.000000
  70
    32
  0
VERTEX
  8
0
  5
1523
 10
255.062
 20
144.479
 30
0.000000
  70
    32
  0
VERTEX
  8
0
  5
1524
 10
255.087
 20
144.428
 30
0.000000
  70
    32
  0
VERTEX
  8
0
  5
1525
 10
255.112
 20
144.378
 30
0.000000
  70
    32
  0
VERTEX
  8
0
  5
1526
 10
255.139
 20
144.327
 30
0.000000
  70
    32
  0
VERTEX
  8
0
  5
1527
 10
255.167
 20
144.277
 30
0.000000
  70
    32
  0
VERTEX
  8
0
  5
1528
 10
255.195
 20
144.227
 30
0.000000
  70
    32
  0
VERTEX
  8
0
  5
1529
 10
255.225
 20
144.178
 30
0.000000
  70
    32
  0
VERTEX
  8
0
  5
152A
 10
255.256
 20
144.128
 30
0.000000
  70
    32
  0
VERTEX
  8
0
  5
152B
 10
255.288
 20
144.079
 30
0.000000
  70
    32
  0
VERTEX
  8
0
  5
152C
 10
255.321
 20
144.030
 30
0.000000
  70
    32
  0
VERTEX
  8
0
  5
152D
 10
255.355
 20
143.982
 30
0.000000
  70
    32
  0
VERTEX
  8
0
  5
152E
 10
255.390
 20
143.934
 30
0.000000
  70
    32
  0
VERTEX
  8
0
  5
152F
 10
255.426
 20
143.886
 30
0.000000
  70
    32
  0
VERTEX
  8
0
  5
1530
 10
255.463
 20
143.838
 30
0.000000
  70
    32
  0
VERTEX
  8
0
  5
1531
 10
255.501
 20
143.791
 30
0.000000
  70
    32
  0
VERTEX
  8
0
  5
1532
 10
255.540
 20
143.744
 30
0.000000
  70
    32
  0
VERTEX
  8
0
  5
1533
 10
255.580
 20
143.697
 30
0.000000
  70
    32
  0
VERTEX
  8
0
  5
1534
 10
255.621
 20
143.651
 30
0.000000
  70
    32
  0
VERTEX
  8
0
  5
1535
 10
255.663
 20
143.605
 30
0.000000
  70
    32
  0
VERTEX
  8
0
  5
1536
 10
255.706
 20
143.559
 30
0.000000
  70
    32
  0
VERTEX
  8
0
  5
1537
 10
255.750
 20
143.514
 30
0.000000
  70
    32
  0
VERTEX
  8
0
  5
1538
 10
255.794
 20
143.469
 30
0.000000
  70
    32
  0
VERTEX
  8
0
  5
1539
 10
255.840
 20
143.424
 30
0.000000
  70
    32
  0
VERTEX
  8
0
  5
153A
 10
255.887
 20
143.380
 30
0.000000
  70
    32
  0
VERTEX
  8
0
  5
153B
 10
255.934
 20
143.336
 30
0.000000
  70
    32
  0
VERTEX
  8
0
  5
153C
 10
255.983
 20
143.293
 30
0.000000
  70
    32
  0
VERTEX
  8
0
  5
153D
 10
256.033
 20
143.250
 30
0.000000
  70
    32
  0
VERTEX
  8
0
  5
153E
 10
256.083
 20
143.207
 30
0.000000
  70
    32
  0
VERTEX
  8
0
  5
153F
 10
256.134
 20
143.165
 30
0.000000
  70
    32
  0
VERTEX
  8
0
  5
1540
 10
256.186
 20
143.123
 30
0.000000
  70
    32
  0
VERTEX
  8
0
  5
1541
 10
256.239
 20
143.082
 30
0.000000
  70
    32
  0
VERTEX
  8
0
  5
1542
 10
256.293
 20
143.041
 30
0.000000
  70
    32
  0
VERTEX
  8
0
  5
1543
 10
256.348
 20
143.001
 30
0.000000
  70
    32
  0
VERTEX
  8
0
  5
1544
 10
256.404
 20
142.961
 30
0.000000
  70
    32
  0
VERTEX
  8
0
  5
1545
 10
256.460
 20
142.921
 30
0.000000
  70
    32
  0
VERTEX
  8
0
  5
1546
 10
256.517
 20
142.882
 30
0.000000
  70
    32
  0
VERTEX
  8
0
  5
1547
 10
256.575
 20
142.844
 30
0.000000
  70
    32
  0
VERTEX
  8
0
  5
1548
 10
256.634
 20
142.806
 30
0.000000
  70
    32
  0
VERTEX
  8
0
  5
1549
 10
256.694
 20
142.768
 30
0.000000
  70
    32
  0
VERTEX
  8
0
  5
154A
 10
256.754
 20
142.731
 30
0.000000
  70
    32
  0
VERTEX
  8
0
  5
154B
 10
256.816
 20
142.694
 30
0.000000
  70
    32
  0
VERTEX
  8
0
  5
154C
 10
256.878
 20
142.658
 30
0.000000
  70
    32
  0
VERTEX
  8
0
  5
154D
 10
256.940
 20
142.623
 30
0.000000
  70
    32
  0
VERTEX
  8
0
  5
154E
 10
257.004
 20
142.588
 30
0.000000
  70
    32
  0
VERTEX
  8
0
  5
154F
 10
257.068
 20
142.553
 30
0.000000
  70
    32
  0
VERTEX
  8
0
  5
1550
 10
257.133
 20
142.519
 30
0.000000
  70
    32
  0
VERTEX
  8
0
  5
1551
 10
257.199
 20
142.486
 30
0.000000
  70
    32
  0
VERTEX
  8
0
  5
1552
 10
257.265
 20
142.453
 30
0.000000
  70
    32
  0
VERTEX
  8
0
  5
1553
 10
257.332
 20
142.421
 30
0.000000
  70
    32
  0
VERTEX
  8
0
  5
1554
 10
257.400
 20
142.389
 30
0.000000
  70
    32
  0
VERTEX
  8
0
  5
1555
 10
257.468
 20
142.358
 30
0.000000
  70
    32
  0
VERTEX
  8
0
  5
1556
 10
257.537
 20
142.327
 30
0.000000
  70
    32
  0
VERTEX
  8
0
  5
1557
 10
257.607
 20
142.297
 30
0.000000
  70
    32
  0
VERTEX
  8
0
  5
1558
 10
257.677
 20
142.268
 30
0.000000
  70
    32
  0
VERTEX
  8
0
  5
1559
 10
257.748
 20
142.239
 30
0.000000
  70
    32
  0
VERTEX
  8
0
  5
155A
 10
257.820
 20
142.211
 30
0.000000
  70
    32
  0
VERTEX
  8
0
  5
155B
 10
257.892
 20
142.183
 30
0.000000
  70
    32
  0
VERTEX
  8
0
  5
155C
 10
257.965
 20
142.156
 30
0.000000
  70
    32
  0
VERTEX
  8
0
  5
155D
 10
258.038
 20
142.129
 30
0.000000
  70
    32
  0
VERTEX
  8
0
  5
155E
 10
258.112
 20
142.104
 30
0.000000
  70
    32
  0
VERTEX
  8
0
  5
155F
 10
258.186
 20
142.078
 30
0.000000
  70
    32
  0
VERTEX
  8
0
  5
1560
 10
258.261
 20
142.054
 30
0.000000
  70
    32
  0
VERTEX
  8
0
  5
1561
 10
258.337
 20
142.030
 30
0.000000
  70
    32
  0
VERTEX
  8
0
  5
1562
 10
258.412
 20
142.006
 30
0.000000
  70
    32
  0
VERTEX
  8
0
  5
1563
 10
258.489
 20
141.983
 30
0.000000
  70
    32
  0
VERTEX
  8
0
  5
1564
 10
258.566
 20
141.961
 30
0.000000
  70
    32
  0
VERTEX
  8
0
  5
1565
 10
258.643
 20
141.940
 30
0.000000
  70
    32
  0
VERTEX
  8
0
  5
1566
 10
258.721
 20
141.919
 30
0.000000
  70
    32
  0
VERTEX
  8
0
  5
1567
 10
258.799
 20
141.899
 30
0.000000
  70
    32
  0
SEQEND
  8
0
  5
1568
  0
POLYLINE
  5
137F
  8
0
 10
263.59902130067655
 20
141.89879189917974
 30
0.0
 66
     1
 70
     8
  0
VERTEX
  8
0
  5
1569
 10
263.599
 20
141.899
 30
0.000000
  70
    32
  0
VERTEX
  8
0
  5
156A
 10
263.677
 20
141.919
 30
0.000000
  70
    32
  0
VERTEX
  8
0
  5
156B
 10
263.755
 20
141.940
 30
0.000000
  70
    32
  0
VERTEX
  8
0
  5
156C
 10
263.832
 20
141.961
 30
0.000000
  70
    32
  0
VERTEX
  8
0
  5
156D
 10
263.909
 20
141.983
 30
0.000000
  70
    32
  0
VERTEX
  8
0
  5
156E
 10
263.986
 20
142.006
 30
0.000000
  70
    32
  0
VERTEX
  8
0
  5
156F
 10
264.061
 20
142.030
 30
0.000000
  70
    32
  0
VERTEX
  8
0
  5
1570
 10
264.137
 20
142.054
 30
0.000000
  70
    32
  0
VERTEX
  8
0
  5
1571
 10
264.212
 20
142.078
 30
0.000000
  70
    32
  0
VERTEX
  8
0
  5
1572
 10
264.286
 20
142.104
 30
0.000000
  70
    32
  0
VERTEX
  8
0
  5
1573
 10
264.360
 20
142.129
 30
0.000000
  70
    32
  0
VERTEX
  8
0
  5
1574
 10
264.433
 20
142.156
 30
0.000000
  70
    32
  0
VERTEX
  8
0
  5
1575
 10
264.506
 20
142.183
 30
0.000000
  70
    32
  0
VERTEX
  8
0
  5
1576
 10
264.578
 20
142.211
 30
0.000000
  70
    32
  0
VERTEX
  8
0
  5
1577
 10
264.650
 20
142.239
 30
0.000000
  70
    32
  0
VERTEX
  8
0
  5
1578
 10
264.721
 20
142.268
 30
0.000000
  70
    32
  0
VERTEX
  8
0
  5
1579
 10
264.791
 20
142.297
 30
0.000000
  70
    32
  0
VERTEX
  8
0
  5
157A
 10
264.861
 20
142.327
 30
0.000000
  70
    32
  0
VERTEX
  8
0
  5
157B
 10
264.930
 20
142.358
 30
0.000000
  70
    32
  0
VERTEX
  8
0
  5
157C
 10
264.998
 20
142.389
 30
0.000000
  70
    32
  0
VERTEX
  8
0
  5
157D
 10
265.066
 20
142.421
 30
0.000000
  70
    32
  0
VERTEX
  8
0
  5
157E
 10
265.133
 20
142.453
 30
0.000000
  70
    32
  0
VERTEX
  8
0
  5
157F
 10
265.199
 20
142.486
 30
0.000000
  70
    32
  0
VERTEX
  8
0
  5
1580
 10
265.265
 20
142.519
 30
0.000000
  70
    32
  0
VERTEX
  8
0
  5
1581
 10
265.330
 20
142.553
 30
0.000000
  70
    32
  0
VERTEX
  8
0
  5
1582
 10
265.394
 20
142.588
 30
0.000000
  70
    32
  0
VERTEX
  8
0
  5
1583
 10
265.458
 20
142.623
 30
0.000000
  70
    32
  0
VERTEX
  8
0
  5
1584
 10
265.520
 20
142.658
 30
0.000000
  70
    32
  0
VERTEX
  8
0
  5
1585
 10
265.582
 20
142.694
 30
0.000000
  70
    32
  0
VERTEX
  8
0
  5
1586
 10
265.644
 20
142.731
 30
0.000000
  70
    32
  0
VERTEX
  8
0
  5
1587
 10
265.704
 20
142.768
 30
0.000000
  70
    32
  0
VERTEX
  8
0
  5
1588
 10
265.764
 20
142.806
 30
0.000000
  70
    32
  0
VERTEX
  8
0
  5
1589
 10
265.823
 20
142.844
 30
0.000000
  70
    32
  0
VERTEX
  8
0
  5
158A
 10
265.881
 20
142.882
 30
0.000000
  70
    32
  0
VERTEX
  8
0
  5
158B
 10
265.938
 20
142.921
 30
0.000000
  70
    32
  0
VERTEX
  8
0
  5
158C
 10
265.994
 20
142.961
 30
0.000000
  70
    32
  0
VERTEX
  8
0
  5
158D
 10
266.050
 20
143.001
 30
0.000000
  70
    32
  0
VERTEX
  8
0
  5
158E
 10
266.105
 20
143.041
 30
0.000000
  70
    32
  0
VERTEX
  8
0
  5
158F
 10
266.159
 20
143.082
 30
0.000000
  70
    32
  0
VERTEX
  8
0
  5
1590
 10
266.212
 20
143.123
 30
0.000000
  70
    32
  0
VERTEX
  8
0
  5
1591
 10
266.264
 20
143.165
 30
0.000000
  70
    32
  0
VERTEX
  8
0
  5
1592
 10
266.315
 20
143.207
 30
0.000000
  70
    32
  0
VERTEX
  8
0
  5
1593
 10
266.366
 20
143.250
 30
0.000000
  70
    32
  0
VERTEX
  8
0
  5
1594
 10
266.415
 20
143.293
 30
0.000000
  70
    32
  0
VERTEX
  8
0
  5
1595
 10
266.464
 20
143.336
 30
0.000000
  70
    32
  0
VERTEX
  8
0
  5
1596
 10
266.511
 20
143.380
 30
0.000000
  70
    32
  0
VERTEX
  8
0
  5
1597
 10
266.558
 20
143.424
 30
0.000000
  70
    32
  0
VERTEX
  8
0
  5
1598
 10
266.604
 20
143.469
 30
0.000000
  70
    32
  0
VERTEX
  8
0
  5
1599
 10
266.649
 20
143.514
 30
0.000000
  70
    32
  0
VERTEX
  8
0
  5
159A
 10
266.692
 20
143.559
 30
0.000000
  70
    32
  0
VERTEX
  8
0
  5
159B
 10
266.735
 20
143.605
 30
0.000000
  70
    32
  0
VERTEX
  8
0
  5
159C
 10
266.777
 20
143.651
 30
0.000000
  70
    32
  0
VERTEX
  8
0
  5
159D
 10
266.818
 20
143.697
 30
0.000000
  70
    32
  0
VERTEX
  8
0
  5
159E
 10
266.858
 20
143.744
 30
0.000000
  70
    32
  0
VERTEX
  8
0
  5
159F
 10
266.897
 20
143.791
 30
0.000000
  70
    32
  0
VERTEX
  8
0
  5
15A0
 10
266.935
 20
143.838
 30
0.000000
  70
    32
  0
VERTEX
  8
0
  5
15A1
 10
266.972
 20
143.886
 30
0.000000
  70
    32
  0
VERTEX
  8
0
  5
15A2
 10
267.008
 20
143.934
 30
0.000000
  70
    32
  0
VERTEX
  8
0
  5
15A3
 10
267.043
 20
143.982
 30
0.000000
  70
    32
  0
VERTEX
  8
0
  5
15A4
 10
267.077
 20
144.030
 30
0.000000
  70
    32
  0
VERTEX
  8
0
  5
15A5
 10
267.110
 20
144.079
 30
0.000000
  70
    32
  0
VERTEX
  8
0
  5
15A6
 10
267.142
 20
144.128
 30
0.000000
  70
    32
  0
VERTEX
  8
0
  5
15A7
 10
267.173
 20
144.178
 30
0.000000
  70
    32
  0
VERTEX
  8
0
  5
15A8
 10
267.203
 20
144.227
 30
0.000000
  70
    32
  0
VERTEX
  8
0
  5
15A9
 10
267.232
 20
144.277
 30
0.000000
  70
    32
  0
VERTEX
  8
0
  5
15AA
 10
267.259
 20
144.327
 30
0.000000
  70
    32
  0
VERTEX
  8
0
  5
15AB
 10
267.286
 20
144.378
 30
0.000000
  70
    32
  0
VERTEX
  8
0
  5
15AC
 10
267.312
 20
144.428
 30
0.000000
  70
    32
  0
VERTEX
  8
0
  5
15AD
 10
267.336
 20
144.479
 30
0.000000
  70
    32
  0
VERTEX
  8
0
  5
15AE
 10
267.360
 20
144.530
 30
0.000000
  70
    32
  0
VERTEX
  8
0
  5
15AF
 10
267.382
 20
144.581
 30
0.000000
  70
    32
  0
VERTEX
  8
0
  5
15B0
 10
267.403
 20
144.632
 30
0.000000
  70
    32
  0
VERTEX
  8
0
  5
15B1
 10
267.423
 20
144.684
 30
0.000000
  70
    32
  0
VERTEX
  8
0
  5
15B2
 10
267.443
 20
144.735
 30
0.000000
  70
    32
  0
VERTEX
  8
0
  5
15B3
 10
267.461
 20
144.787
 30
0.000000
  70
    32
  0
VERTEX
  8
0
  5
15B4
 10
267.478
 20
144.839
 30
0.000000
  70
    32
  0
VERTEX
  8
0
  5
15B5
 10
267.493
 20
144.891
 30
0.000000
  70
    32
  0
VERTEX
  8
0
  5
15B6
 10
267.508
 20
144.943
 30
0.000000
  70
    32
  0
VERTEX
  8
0
  5
15B7
 10
267.522
 20
144.995
 30
0.000000
  70
    32
  0
VERTEX
  8
0
  5
15B8
 10
267.534
 20
145.048
 30
0.000000
  70
    32
  0
VERTEX
  8
0
  5
15B9
 10
267.546
 20
145.100
 30
0.000000
  70
    32
  0
VERTEX
  8
0
  5
15BA
 10
267.556
 20
145.153
 30
0.000000
  70
    32
  0
VERTEX
  8
0
  5
15BB
 10
267.565
 20
145.206
 30
0.000000
  70
    32
  0
VERTEX
  8
0
  5
15BC
 10
267.573
 20
145.258
 30
0.000000
  70
    32
  0
VERTEX
  8
0
  5
15BD
 10
267.580
 20
145.311
 30
0.000000
  70
    32
  0
VERTEX
  8
0
  5
15BE
 10
267.586
 20
145.364
 30
0.000000
  70
    32
  0
VERTEX
  8
0
  5
15BF
 10
267.591
 20
145.417
 30
0.000000
  70
    32
  0
VERTEX
  8
0
  5
15C0
 10
267.595
 20
145.470
 30
0.000000
  70
    32
  0
VERTEX
  8
0
  5
15C1
 10
267.597
 20
145.523
 30
0.000000
  70
    32
  0
VERTEX
  8
0
  5
15C2
 10
267.599
 20
145.576
 30
0.000000
  70
    32
  0
VERTEX
  8
0
  5
15C3
 10
267.599
 20
145.629
 30
0.000000
  70
    32
  0
VERTEX
  8
0
  5
15C4
 10
267.598
 20
145.682
 30
0.000000
  70
    32
  0
VERTEX
  8
0
  5
15C5
 10
267.596
 20
145.735
 30
0.000000
  70
    32
  0
VERTEX
  8
0
  5
15C6
 10
267.593
 20
145.788
 30
0.000000
  70
    32
  0
VERTEX
  8
0
  5
15C7
 10
267.589
 20
145.841
 30
0.000000
  70
    32
  0
VERTEX
  8
0
  5
15C8
 10
267.584
 20
145.894
 30
0.000000
  70
    32
  0
VERTEX
  8
0
  5
15C9
 10
267.577
 20
145.947
 30
0.000000
  70
    32
  0
VERTEX
  8
0
  5
15CA
 10
267.570
 20
145.999
 30
0.000000
  70
    32
  0
VERTEX
  8
0
  5
15CB
 10
267.561
 20
146.052
 30
0.000000
  70
    32
  0
VERTEX
  8
0
  5
15CC
 10
267.551
 20
146.105
 30
0.000000
  70
    32
  0
VERTEX
  8
0
  5
15CD
 10
267.541
 20
146.157
 30
0.000000
  70
    32
  0
VERTEX
  8
0
  5
15CE
 10
267.529
 20
146.210
 30
0.000000
  70
    32
  0
VERTEX
  8
0
  5
15CF
 10
267.516
 20
146.262
 30
0.000000
  70
    32
  0
VERTEX
  8
0
  5
15D0
 10
267.501
 20
146.315
 30
0.000000
  70
    32
  0
VERTEX
  8
0
  5
15D1
 10
267.486
 20
146.367
 30
0.000000
  70
    32
  0
VERTEX
  8
0
  5
15D2
 10
267.470
 20
146.419
 30
0.000000
  70
    32
  0
VERTEX
  8
0
  5
15D3
 10
267.452
 20
146.471
 30
0.000000
  70
    32
  0
VERTEX
  8
0
  5
15D4
 10
267.434
 20
146.522
 30
0.000000
  70
    32
  0
VERTEX
  8
0
  5
15D5
 10
267.414
 20
146.574
 30
0.000000
  70
    32
  0
VERTEX
  8
0
  5
15D6
 10
267.393
 20
146.625
 30
0.000000
  70
    32
  0
VERTEX
  8
0
  5
15D7
 10
267.371
 20
146.676
 30
0.000000
  70
    32
  0
VERTEX
  8
0
  5
15D8
 10
267.349
 20
146.727
 30
0.000000
  70
    32
  0
VERTEX
  8
0
  5
15D9
 10
267.325
 20
146.778
 30
0.000000
  70
    32
  0
VERTEX
  8
0
  5
15DA
 10
267.300
 20
146.829
 30
0.000000
  70
    32
  0
VERTEX
  8
0
  5
15DB
 10
267.273
 20
146.879
 30
0.000000
  70
    32
  0
VERTEX
  8
0
  5
15DC
 10
267.246
 20
146.929
 30
0.000000
  70
    32
  0
VERTEX
  8
0
  5
15DD
 10
267.218
 20
146.979
 30
0.000000
  70
    32
  0
VERTEX
  8
0
  5
15DE
 10
267.189
 20
147.029
 30
0.000000
  70
    32
  0
VERTEX
  8
0
  5
15DF
 10
267.158
 20
147.079
 30
0.000000
  70
    32
  0
VERTEX
  8
0
  5
15E0
 10
267.127
 20
147.128
 30
0.000000
  70
    32
  0
VERTEX
  8
0
  5
15E1
 10
267.095
 20
147.177
 30
0.000000
  70
    32
  0
VERTEX
  8
0
  5
15E2
 10
267.061
 20
147.226
 30
0.000000
  70
    32
  0
VERTEX
  8
0
  5
15E3
 10
267.027
 20
147.274
 30
0.000000
  70
    32
  0
VERTEX
  8
0
  5
15E4
 10
266.991
 20
147.322
 30
0.000000
  70
    32
  0
VERTEX
  8
0
  5
15E5
 10
266.955
 20
147.370
 30
0.000000
  70
    32
  0
VERTEX
  8
0
  5
15E6
 10
266.917
 20
147.417
 30
0.000000
  70
    32
  0
VERTEX
  8
0
  5
15E7
 10
266.879
 20
147.465
 30
0.000000
  70
    32
  0
VERTEX
  8
0
  5
15E8
 10
266.839
 20
147.511
 30
0.000000
  70
    32
  0
VERTEX
  8
0
  5
15E9
 10
266.799
 20
147.558
 30
0.000000
  70
    32
  0
SEQEND
  8
0
  5
15EA
  0
ARC
  5
1380
  8
0
 10
259.79902130067671
 20
153.6055183776032
 30
0.0
 40
1.0
 50
90.0
 51
180.0
  0
ARC
  5
1381
  8
0
 10
262.59902130067672
 20
153.6055183776032
 30
0.0
 40
1.0
 50
0.0
 51
90.0
  0
ARC
  5
1382
  8
0
 10
262.59902130067672
 20
141.2055183776032
 30
0.0
 40
1.0
 50
270.0
 51
0.0
  0
ARC
  5
1383
  8
0
 10
259.7990213006766
 20
141.2055183776032
 30
0.0
 40
1.0
 50
180.0
 51
270.0
  0
LINE
  5
1384
  8
1
 10
203.6148151314963
 20
45.882102799170582
 30
0.0
 11
145.61481513149619
 21
45.882102799170582
 31
0.0
  0
LINE
  5
1385
  8
0
 10
197.61481513149619
 20
43.482102799170598
 30
0.0
 11
166.24632874283179
 21
43.482102799170598
 31
0.0
  0
LINE
  5
1386
  8
0
 10
197.61481513149619
 20
48.282102799170623
 30
0.0
 11
166.24632874283179
 21
48.28210279917058
 31
0.0
  0
ARC
  5
1387
  8
0
 10
197.61481513149619
 20
44.482102799170598
 30
0.0
 40
1.0
 50
270.0
 51
0.0
  0
ARC
  5
1388
  8
0
 10
197.61481513149619
 20
47.282102799170609
 30
0.0
 40
1.0
 50
0.0
 51
90.0
  0
LINE
  5
1389
  8
0
 10
198.61481513149619
 20
44.482102799170598
 30
0.0
 11
198.61481513149619
 21
47.282102799170609
 31
0.0
  0
LINE
  5
138A
  8
1
 10
158.61481513149619
 20
58.882102799170582
 30
0.0
 11
158.61481513149619
 21
32.882102799170582
 31
0.0
  0
CIRCLE
  5
138B
  8
0
 10
158.61481513149619
 20
45.882102799170582
 30
0.0
 40
1.960769515458672
  0
CIRCLE
  5
138C
  8
0
 10
158.61481513149619
 20
45.882102799170582
 30
0.0
 40
3.0
  0
CIRCLE
  5
138D
  8
3
 10
158.61481513149619
 20
45.882102799170582
 30
0.0
 40
7.0799999999999983
  0
CIRCLE
  5
138E
  8
0
 10
158.61481513149619
 20
45.882102799170582
 30
0.0
 40
8.0
  0
LINE
  5
138F
  8
0
 10
178.38233970015131
 20
48.28210279917058
 30
0.0
 11
178.38233970015139
 21
43.482102799170598
 31
0.0
  0
LINE
  5
1390
  8
0
 10
174.5885203071899
 20
48.28210279917058
 30
0.0
 11
174.5885203071899
 21
43.482102799170598
 31
0.0
  0
LINE
  5
1391
  8
ITTEN
 10
88.446526152502088
 20
105.0060183776032
 30
0.0
 11
88.445526152502097
 21
105.0060183776032
 31
0.0
  0
LINE
  5
1392
  8
ITTEN
 10
88.446026152502085
 20
105.0065183776032
 30
0.0
 11
88.446026152502085
 21
105.0055183776032
 31
0.0
  0
LINE
  5
1395
  8
0
 10
255.59364719436809
 20
149.11215762147251
 30
0.0
 11
255.59449843239611
 21
149.11266961931389
 31
0.0
  0
LINE
  5
1396
  8
0
 10
255.59449843239611
 20
149.11266961931389
 30
0.0
 11
255.59620111347419
 21
149.1136939842155
 31
0.0
  0
LINE
  5
1397
  8
0
 10
255.59620111347419
 20
149.1136939842155
 30
0.0
 11
255.59790406736579
 21
149.1147188408442
 31
0.0
  0
LINE
  5
1398
  8
0
 10
255.59790406736579
 20
149.1147188408442
 30
0.0
 11
255.59875564641061
 21
149.11523145334439
 31
0.0
  0
LINE
  5
1399
  8
0
 10
266.79928695494272
 20
149.11523145334439
 30
0.0
 11
266.80013853398742
 21
149.1147188408442
 31
0.0
  0
LINE
  5
139A
  8
0
 10
266.80013853398742
 20
149.1147188408442
 30
0.0
 11
266.80184148787907
 21
149.1136939842155
 31
0.0
  0
LINE
  5
139B
  8
0
 10
266.80184148787907
 20
149.1136939842155
 30
0.0
 11
266.80354416895722
 21
149.11266961931389
 31
0.0
  0
LINE
  5
139C
  8
0
 10
266.80354416895722
 20
149.11266961931389
 30
0.0
 11
266.80439540698512
 21
149.11215762147251
 31
0.0
  0
TEXT
  5
144E
  8
0
 62
     3
 10
0.0
 20
0.0
 30
0.0
 40
5.0
  1
GDX16LP-6
  7
STANDARD1
  0
ENDSEC
  0
EOF
