  0
SECTION
  2
HEADER
  9
$ACADVER
  1
AC1009
  9
$INSBASE
 10
0.0
 20
0.0
 30
0.0
  9
$EXTMIN
 10
0.0
 20
-2.960436562073669
 30
0.0
  9
$EXTMAX
 10
115.68212824010909
 20
59.5
 30
0.0
  9
$LIMMIN
 10
0.0
 20
0.0
  9
$LIMMAX
 10
187.5
 20
135.0
  9
$ORTHOMODE
 70
     1
  9
$REGENMODE
 70
     1
  9
$FILLMODE
 70
     1
  9
$QTEXTMODE
 70
     0
  9
$MIRRTEXT
 70
     0
  9
$DRAGMODE
 70
     2
  9
$LTSCALE
 40
5.0
  9
$OSMODE
 70
    37
  9
$ATTMODE
 70
     1
  9
$TEXTSIZE
 40
0.2
  9
$TRACEWID
 40
0.05
  9
$TEXTSTYLE
  7
STANDARD
  9
$CLAYER
  8
0
  9
$CELTYPE
  6
BYLAYER
  9
$CECOLOR
 62
   256
  9
$DIMSCALE
 40
0.5
  9
$DIMASZ
 40
3.0
  9
$DIMEXO
 40
2.0
  9
$DIMDLI
 40
0.38
  9
$DIMRND
 40
0.0
  9
$DIMDLE
 40
0.0
  9
$DIMEXE
 40
2.0
  9
$DIMTP
 40
0.0
  9
$DIMTM
 40
0.0
  9
$DIMTXT
 40
3.0
  9
$DIMCEN
 40
0.0
  9
$DIMTSZ
 40
0.0
  9
$DIMTOL
 70
     0
  9
$DIMLIM
 70
     0
  9
$DIMTIH
 70
     0
  9
$DIMTOH
 70
     0
  9
$DIMSE1
 70
     0
  9
$DIMSE2
 70
     0
  9
$DIMTAD
 70
     1
  9
$DIMZIN
 70
     0
  9
$DIMBLK
  1

  9
$DIMASO
 70
     0
  9
$DIMSHO
 70
     0
  9
$DIMPOST
  1

  9
$DIMAPOST
  1

  9
$DIMALT
 70
     0
  9
$DIMALTD
 70
     2
  9
$DIMALTF
 40
25.399999999999999
  9
$DIMLFAC
 40
1.0
  9
$DIMTOFL
 70
     1
  9
$DIMTVP
 40
1.6000000000000001
  9
$DIMTIX
 70
     1
  9
$DIMSOXD
 70
     0
  9
$DIMSAH
 70
     0
  9
$DIMBLK1
  1

  9
$DIMBLK2
  1

  9
$DIMSTYLE
  2
STANDARD
  9
$DIMCLRD
 70
     0
  9
$DIMCLRE
 70
     0
  9
$DIMCLRT
 70
     0
  9
$DIMTFAC
 40
1.0
  9
$DIMGAP
 40
0.09
  9
$LUNITS
 70
     2
  9
$LUPREC
 70
     4
  9
$SKETCHINC
 40
0.1
  9
$FILLETRAD
 40
0.5
  9
$AUNITS
 70
     0
  9
$AUPREC
 70
     4
  9
$MENU
  1
E:\r13\win\SUPPORT\ACAD
  9
$ELEVATION
 40
0.0
  9
$PELEVATION
 40
0.0
  9
$THICKNESS
 40
0.0
  9
$LIMCHECK
 70
     0
  9
$BLIPMODE
 70
     0
  9
$CHAMFERA
 40
0.0
  9
$CHAMFERB
 40
0.0
  9
$SKPOLY
 70
     0
  9
$TDCREATE
 40
2449840.6116550928
  9
$TDUPDATE
 40
2456769.6697545722
  9
$TDINDWG
 40
0.0099038773
  9
$TDUSRTIMER
 40
0.0099038773
  9
$USRTIMER
 70
     1
  9
$ANGBASE
 50
0.0
  9
$ANGDIR
 70
     0
  9
$PDMODE
 70
     0
  9
$PDSIZE
 40
0.0
  9
$PLINEWID
 40
0.0
  9
$COORDS
 70
     1
  9
$SPLFRAME
 70
     0
  9
$SPLINETYPE
 70
     6
  9
$SPLINESEGS
 70
     8
  9
$ATTDIA
 70
     0
  9
$ATTREQ
 70
     1
  9
$HANDLING
 70
     1
  9
$HANDSEED
  5
7D0
  9
$SURFTAB1
 70
     6
  9
$SURFTAB2
 70
     6
  9
$SURFTYPE
 70
     6
  9
$SURFU
 70
     6
  9
$SURFV
 70
     6
  9
$UCSNAME
  2

  9
$UCSORG
 10
0.0
 20
0.0
 30
0.0
  9
$UCSXDIR
 10
1.0
 20
0.0
 30
0.0
  9
$UCSYDIR
 10
0.0
 20
1.0
 30
0.0
  9
$PUCSNAME
  2

  9
$PUCSORG
 10
0.0
 20
0.0
 30
0.0
  9
$PUCSXDIR
 10
1.0
 20
0.0
 30
0.0
  9
$PUCSYDIR
 10
0.0
 20
1.0
 30
0.0
  9
$USERI1
 70
     3
  9
$USERI2
 70
     1
  9
$USERI3
 70
     0
  9
$USERI4
 70
     0
  9
$USERI5
 70
     0
  9
$USERR1
 40
0.5
  9
$USERR2
 40
3.0
  9
$USERR3
 40
3.0
  9
$USERR4
 40
3.0
  9
$USERR5
 40
10.0
  9
$WORLDVIEW
 70
     1
  9
$SHADEDGE
 70
     3
  9
$SHADEDIF
 70
    70
  9
$TILEMODE
 70
     1
  9
$MAXACTVP
 70
    16
  9
$PLIMCHECK
 70
     0
  9
$PEXTMIN
 10
1.0000000000000000E+020
 20
1.0000000000000000E+020
 30
1.0000000000000000E+020
  9
$PEXTMAX
 10
-1.0000000000000000E+020
 20
-1.0000000000000000E+020
 30
-1.0000000000000000E+020
  9
$PLIMMIN
 10
0.0
 20
0.0
  9
$PLIMMAX
 10
12.0
 20
9.0
  9
$UNITMODE
 70
     0
  9
$VISRETAIN
 70
     0
  9
$PLINEGEN
 70
     0
  9
$PSLTSCALE
 70
     0
  0
ENDSEC
  0
SECTION
  2
TABLES
  0
TABLE
  2
VPORT
 70
     1
  0
VPORT
  2
*ACTIVE
 70
     0
 10
0.0
 20
0.0
 11
1.0
 21
1.0
 12
82.378771716237196
 22
47.194237695078037
 13
0.0
 23
0.0
 14
5.0
 24
5.0
 15
10.0
 25
10.0
 16
0.0
 26
0.0
 36
1.0
 17
0.0
 27
0.0
 37
0.0
 40
94.424452511310875
 41
1.7454798331015291
 42
50.0
 43
0.0
 44
0.0
 50
0.0
 51
0.0
 71
     0
 72
   100
 73
     1
 74
     0
 75
     0
 76
     0
 77
     0
 78
     0
  0
ENDTAB
  0
TABLE
  2
LTYPE
 70
     4
  0
LTYPE
  2
CONTINUOUS
 70
     0
  3
Solid Line
 72
    65
 73
     0
 40
0.0
  0
LTYPE
  2
CENTER
 70
     0
  3
____ _ ____ _ ____ _ ____ _ ____ _ ____ _ ____
 72
    65
 73
     4
 40
2.0
 49
1.25
 49
-0.25
 49
0.25
 49
-0.25
  0
LTYPE
  2
HIDDEN
 70
     0
  3
_ _ _ _ _ _ _ _ _ _ _ _ _ _ _ _ _ _ _ _ _ _ _
 72
    65
 73
     2
 40
0.375
 49
0.25
 49
-0.125
  0
LTYPE
  2
PHANTOM2
 70
     0
  3
___ _ _ ___ _ _ ___ _ _ ___ _ _
 72
    65
 73
     6
 40
1.25
 49
0.625
 49
-0.125
 49
0.125
 49
-0.125
 49
0.125
 49
-0.125
  0
ENDTAB
  0
TABLE
  2
LAYER
 70
     4
  0
LAYER
  2
0
 70
     0
 62
     7
  6
CONTINUOUS
  0
LAYER
  2
1
 70
     0
 62
     1
  6
CENTER
  0
LAYER
  2
2
 70
     0
 62
     2
  6
HIDDEN
  0
LAYER
  2
DEFPOINTS
 70
     0
 62
     7
  6
CONTINUOUS
  0
ENDTAB
  0
TABLE
  2
STYLE
 70
     2
  0
STYLE
  2
STANDARD
 70
     0
 40
0.0
 41
1.0
 50
0.0
 71
     0
 42
0.2
  3
TXT
  4
BIGFONT
  0
STYLE
  2
STANDARD1
 70
     0
 40
0.0
 41
1.0
 50
0.0
 71
     0
 42
3.0
  3
txt
  4

  0
ENDTAB
  0
TABLE
  2
VIEW
 70
     0
  0
ENDTAB
  0
TABLE
  2
UCS
 70
     0
  0
ENDTAB
  0
TABLE
  2
APPID
 70
     4
  0
APPID
  2
ACAD
 70
     0
  0
APPID
  2
ACAD_MLEADERVER
 70
     0
  0
APPID
  2
ACAD_NAV_VCDISPLAY
 70
     0
  0
APPID
  2
ACAD_EXEMPT_FROM_CAD_STANDARDS
 70
     0
  0
ENDTAB
  0
TABLE
  2
DIMSTYLE
 70
     1
  0
DIMSTYLE
  2
STANDARD
 70
     0
  3

  4

  5

  6

  7

 40
1.0
 41
0.18
 42
0.0625
 43
0.38
 44
0.18
 45
0.0
 46
0.0
 47
0.0
 48
0.0
140
0.18
141
0.09
142
0.0
143
25.399999999999999
144
1.0
145
0.0
146
1.0
147
0.09
 71
     0
 72
     0
 73
     1
 74
     1
 75
     0
 76
     0
 77
     0
 78
     0
170
     0
171
     2
172
     0
173
     0
174
     0
175
     0
176
     0
177
     0
178
     0
  0
ENDTAB
  0
ENDSEC
  0
SECTION
  2
BLOCKS
  0
BLOCK
  8
0
  2
$MODEL_SPACE
 70
     0
 10
0.0
 20
0.0
 30
0.0
  3
$MODEL_SPACE
  1

  0
ENDBLK
  5
DF
  8
0
  0
BLOCK
 67
     1
  8
0
  2
$PAPER_SPACE
 70
     0
 10
0.0
 20
0.0
 30
0.0
  3
$PAPER_SPACE
  1

  0
ENDBLK
  5
DD
 67
     1
  8
0
  0
ENDSEC
  0
SECTION
  2
ENTITIES
  0
TEXT
  5
1D1
  8
0
 62
     3
 10
0.0
 20
0.0
 30
0.0
 40
10.0
  1
GRL1304P-F-SUS
  7
STANDARD1
  0
ARC
  5
2E1
  8
2
 10
98.150000000000006
 20
54.850000000000023
 30
0.0
 40
0.15
 50
90.0
 51
180.0
  0
ARC
  5
2E2
  8
2
 10
101.84999999999999
 20
54.850000000000023
 30
0.0
 40
0.15
 50
0.0
 51
90.0
  0
LINE
  5
2E3
  8
2
 10
98.0
 20
54.850000000000023
 30
0.0
 11
98.0
 21
45.149999999999999
 31
0.0
  0
ARC
  5
2E4
  8
2
 10
98.150000000000006
 20
45.149999999999999
 30
0.0
 40
0.15
 50
180.0
 51
270.0
  0
LINE
  5
2E5
  8
2
 10
102.0
 20
45.149999999999999
 30
0.0
 11
102.0
 21
54.850000000000023
 31
0.0
  0
ARC
  5
2E6
  8
2
 10
101.84999999999999
 20
45.149999999999999
 30
0.0
 40
0.15
 50
270.0
 51
0.0
  0
ARC
  5
2E7
  8
2
 10
98.150000000000006
 20
47.849999999999987
 30
0.0
 40
0.15
 50
90.0
 51
180.0
  0
LINE
  5
2E8
  8
2
 10
98.150000000000006
 20
48.0
 30
0.0
 11
101.84999999999999
 21
48.0
 31
0.0
  0
ARC
  5
2E9
  8
2
 10
101.84999999999999
 20
47.849999999999987
 30
0.0
 40
0.15
 50
0.0
 51
90.0
  0
ARC
  5
2EA
  8
2
 10
98.150000000000006
 20
52.149999999999977
 30
0.0
 40
0.15
 50
180.0
 51
270.0
  0
LINE
  5
2EB
  8
2
 10
98.150000000000006
 20
52.0
 30
0.0
 11
101.84999999999999
 21
52.0
 31
0.0
  0
ARC
  5
2EC
  8
2
 10
101.84999999999999
 20
52.149999999999977
 30
0.0
 40
0.15
 50
270.0
 51
0.0
  0
LINE
  5
2ED
  8
2
 10
98.500000000000014
 20
47.199999999999982
 30
0.0
 11
98.0
 21
47.199999999999982
 31
0.0
  0
LINE
  5
2EE
  8
2
 10
98.200000000000003
 20
47.099999999999987
 30
0.0
 11
98.400000000000006
 21
47.099999999999987
 31
0.0
  0
CIRCLE
  5
2EF
  8
2
 10
100.0
 20
46.424999999999997
 30
0.0
 40
0.7940000000000002
  0
LINE
  5
2F0
  8
2
 10
98.0
 20
45.525000000000013
 30
0.0
 11
98.200000000000003
 21
45.525000000000013
 31
0.0
  0
LINE
  5
2F1
  8
2
 10
98.400000000000006
 20
45.525000000000013
 30
0.0
 11
98.599999999999994
 21
45.525000000000013
 31
0.0
  0
LINE
  5
2F2
  8
2
 10
98.400000000000006
 20
45.449999999999989
 30
0.0
 11
98.200000000000003
 21
45.449999999999989
 31
0.0
  0
LINE
  5
2F3
  8
2
 10
98.400000000000006
 20
45.75
 30
0.0
 11
98.200000000000003
 21
45.75
 31
0.0
  0
LINE
  5
2F4
  8
2
 10
98.200000000000003
 20
45.949999999999982
 30
0.0
 11
98.400000000000006
 21
45.75
 31
0.0
  0
LINE
  5
2F5
  8
2
 10
98.599999999999994
 20
45.83284299999999
 30
0.0
 11
98.400000000000006
 21
46.032843000000007
 31
0.0
  0
LINE
  5
2F6
  8
2
 10
98.200000000000003
 20
45.75
 30
0.0
 11
98.200000000000003
 21
45.449999999999989
 31
0.0
  0
LINE
  5
2F7
  8
2
 10
98.400000000000006
 20
45.449999999999989
 30
0.0
 11
98.400000000000006
 21
45.75
 31
0.0
  0
LINE
  5
2F8
  8
2
 10
98.200000000000003
 20
45.949999999999982
 30
0.0
 11
98.200000000000003
 21
47.099999999999987
 31
0.0
  0
LINE
  5
2F9
  8
2
 10
98.400000000000006
 20
46.032843000000007
 30
0.0
 11
98.400000000000006
 21
47.099999999999987
 31
0.0
  0
LINE
  5
2FA
  8
2
 10
98.599999999999994
 20
45.525000000000013
 30
0.0
 11
98.599999999999994
 21
45.83284299999999
 31
0.0
  0
LINE
  5
2FB
  8
2
 10
98.500000000000014
 20
47.199999999999982
 30
0.0
 11
98.500000000000014
 21
46.925000000000011
 31
0.0
  0
LINE
  5
2FC
  8
2
 10
98.500000000000014
 20
46.925000000000011
 30
0.0
 11
99.383205000000004
 21
46.925000000000011
 31
0.0
  0
LINE
  5
2FD
  8
2
 10
98.599999999999994
 20
45.824999999999982
 30
0.0
 11
99.479965000000007
 21
45.824999999999982
 31
0.0
  0
LINE
  5
2FE
  8
2
 10
101.5
 20
47.199999999999982
 30
0.0
 11
102.0
 21
47.199999999999982
 31
0.0
  0
LINE
  5
2FF
  8
2
 10
101.8
 20
47.099999999999987
 30
0.0
 11
101.59999999999999
 21
47.099999999999987
 31
0.0
  0
LINE
  5
300
  8
2
 10
102.0
 20
45.525000000000013
 30
0.0
 11
101.8
 21
45.525000000000013
 31
0.0
  0
LINE
  5
301
  8
2
 10
101.59999999999999
 20
45.525000000000013
 30
0.0
 11
101.40000000000001
 21
45.525000000000013
 31
0.0
  0
LINE
  5
302
  8
2
 10
101.59999999999999
 20
45.449999999999989
 30
0.0
 11
101.8
 21
45.449999999999989
 31
0.0
  0
LINE
  5
303
  8
2
 10
101.59999999999999
 20
45.75
 30
0.0
 11
101.8
 21
45.75
 31
0.0
  0
LINE
  5
304
  8
2
 10
101.8
 20
45.949999999999982
 30
0.0
 11
101.59999999999999
 21
45.75
 31
0.0
  0
LINE
  5
305
  8
2
 10
101.40000000000001
 20
45.83284299999999
 30
0.0
 11
101.59999999999999
 21
46.032843000000007
 31
0.0
  0
LINE
  5
306
  8
2
 10
101.8
 20
45.75
 30
0.0
 11
101.8
 21
45.449999999999989
 31
0.0
  0
LINE
  5
307
  8
2
 10
101.59999999999999
 20
45.449999999999989
 30
0.0
 11
101.59999999999999
 21
45.75
 31
0.0
  0
LINE
  5
308
  8
2
 10
101.8
 20
45.949999999999982
 30
0.0
 11
101.8
 21
47.099999999999987
 31
0.0
  0
LINE
  5
309
  8
2
 10
101.59999999999999
 20
46.032843000000007
 30
0.0
 11
101.59999999999999
 21
47.099999999999987
 31
0.0
  0
LINE
  5
30A
  8
2
 10
101.40000000000001
 20
45.525000000000013
 30
0.0
 11
101.40000000000001
 21
45.83284299999999
 31
0.0
  0
LINE
  5
30B
  8
2
 10
101.5
 20
47.199999999999982
 30
0.0
 11
101.5
 21
46.925000000000011
 31
0.0
  0
LINE
  5
30C
  8
2
 10
100.52003499999999
 20
45.824999999999982
 30
0.0
 11
101.40000000000001
 21
45.824999999999982
 31
0.0
  0
LINE
  5
30D
  8
2
 10
100.616795
 20
46.925000000000011
 30
0.0
 11
101.5
 21
46.925000000000011
 31
0.0
  0
LINE
  5
30E
  8
2
 10
99.126258000000007
 20
46.860000000000007
 30
0.0
 11
99.335762999999986
 21
46.860000000000007
 31
0.0
  0
LINE
  5
30F
  8
2
 10
99.059933999999984
 20
46.164999999999992
 30
0.0
 11
99.249775999999997
 21
46.164999999999992
 31
0.0
  0
ARC
  5
310
  8
2
 10
100.01000000000001
 20
46.424999999999997
 30
0.0
 40
0.9849999999999999
 50
153.79243200000141
 51
195.30512900000099
  0
ARC
  5
311
  8
2
 10
100.01000000000001
 20
46.424999999999997
 30
0.0
 40
0.8349999999999999
 50
148.6034599999974
 51
198.14224900000079
  0
LINE
  5
312
  8
2
 10
100.87374199999999
 20
46.860000000000007
 30
0.0
 11
100.664237
 21
46.860000000000007
 31
0.0
  0
LINE
  5
313
  8
2
 10
100.940066
 20
46.164999999999992
 30
0.0
 11
100.750224
 21
46.164999999999992
 31
0.0
  0
ARC
  5
314
  8
2
 10
99.990000000000023
 20
46.424999999999997
 30
0.0
 40
0.9849999999999999
 50
344.6948709999989
 51
26.20756799999851
  0
ARC
  5
315
  8
2
 10
99.990000000000023
 20
46.424999999999997
 30
0.0
 40
0.8349999999999999
 50
341.8577509999991
 51
31.396540000002538
  0
LINE
  5
316
  8
2
 10
98.500000000000014
 20
52.800000000000011
 30
0.0
 11
98.0
 21
52.800000000000011
 31
0.0
  0
LINE
  5
317
  8
2
 10
98.200000000000003
 20
52.899999999999977
 30
0.0
 11
98.400000000000006
 21
52.899999999999977
 31
0.0
  0
CIRCLE
  5
318
  8
2
 10
100.0
 20
53.574999999999989
 30
0.0
 40
0.7940000000000002
  0
LINE
  5
319
  8
2
 10
98.0
 20
54.475000000000023
 30
0.0
 11
98.200000000000003
 21
54.475000000000023
 31
0.0
  0
LINE
  5
31A
  8
2
 10
98.400000000000006
 20
54.475000000000023
 30
0.0
 11
98.599999999999994
 21
54.475000000000023
 31
0.0
  0
LINE
  5
31B
  8
2
 10
98.400000000000006
 20
54.550000000000011
 30
0.0
 11
98.200000000000003
 21
54.550000000000011
 31
0.0
  0
LINE
  5
31C
  8
2
 10
98.400000000000006
 20
54.25
 30
0.0
 11
98.200000000000003
 21
54.25
 31
0.0
  0
LINE
  5
31D
  8
2
 10
98.200000000000003
 20
54.050000000000011
 30
0.0
 11
98.400000000000006
 21
54.25
 31
0.0
  0
LINE
  5
31E
  8
2
 10
98.599999999999994
 20
54.167156999999968
 30
0.0
 11
98.400000000000006
 21
53.967156999999979
 31
0.0
  0
LINE
  5
31F
  8
2
 10
98.200000000000003
 20
54.25
 30
0.0
 11
98.200000000000003
 21
54.550000000000011
 31
0.0
  0
LINE
  5
320
  8
2
 10
98.400000000000006
 20
54.550000000000011
 30
0.0
 11
98.400000000000006
 21
54.25
 31
0.0
  0
LINE
  5
321
  8
2
 10
98.200000000000003
 20
54.050000000000011
 30
0.0
 11
98.200000000000003
 21
52.899999999999977
 31
0.0
  0
LINE
  5
322
  8
2
 10
98.400000000000006
 20
53.967156999999979
 30
0.0
 11
98.400000000000006
 21
52.899999999999977
 31
0.0
  0
LINE
  5
323
  8
2
 10
98.599999999999994
 20
54.475000000000023
 30
0.0
 11
98.599999999999994
 21
54.167156999999968
 31
0.0
  0
LINE
  5
324
  8
2
 10
98.500000000000014
 20
52.800000000000011
 30
0.0
 11
98.500000000000014
 21
53.074999999999989
 31
0.0
  0
LINE
  5
325
  8
2
 10
98.500000000000014
 20
53.074999999999989
 30
0.0
 11
99.383205000000004
 21
53.074999999999989
 31
0.0
  0
LINE
  5
326
  8
2
 10
98.599999999999994
 20
54.175000000000011
 30
0.0
 11
99.479965000000007
 21
54.175000000000011
 31
0.0
  0
LINE
  5
327
  8
2
 10
101.5
 20
52.800000000000011
 30
0.0
 11
102.0
 21
52.800000000000011
 31
0.0
  0
LINE
  5
328
  8
2
 10
101.8
 20
52.899999999999977
 30
0.0
 11
101.59999999999999
 21
52.899999999999977
 31
0.0
  0
LINE
  5
329
  8
2
 10
102.0
 20
54.475000000000023
 30
0.0
 11
101.8
 21
54.475000000000023
 31
0.0
  0
LINE
  5
32A
  8
2
 10
101.59999999999999
 20
54.475000000000023
 30
0.0
 11
101.40000000000001
 21
54.475000000000023
 31
0.0
  0
LINE
  5
32B
  8
2
 10
101.59999999999999
 20
54.550000000000011
 30
0.0
 11
101.8
 21
54.550000000000011
 31
0.0
  0
LINE
  5
32C
  8
2
 10
101.59999999999999
 20
54.25
 30
0.0
 11
101.8
 21
54.25
 31
0.0
  0
LINE
  5
32D
  8
2
 10
101.8
 20
54.050000000000011
 30
0.0
 11
101.59999999999999
 21
54.25
 31
0.0
  0
LINE
  5
32E
  8
2
 10
101.40000000000001
 20
54.167156999999968
 30
0.0
 11
101.59999999999999
 21
53.967156999999979
 31
0.0
  0
LINE
  5
32F
  8
2
 10
101.8
 20
54.25
 30
0.0
 11
101.8
 21
54.550000000000011
 31
0.0
  0
LINE
  5
330
  8
2
 10
101.59999999999999
 20
54.550000000000011
 30
0.0
 11
101.59999999999999
 21
54.25
 31
0.0
  0
LINE
  5
331
  8
2
 10
101.8
 20
54.050000000000011
 30
0.0
 11
101.8
 21
52.899999999999977
 31
0.0
  0
LINE
  5
332
  8
2
 10
101.59999999999999
 20
53.967156999999979
 30
0.0
 11
101.59999999999999
 21
52.899999999999977
 31
0.0
  0
LINE
  5
333
  8
2
 10
101.40000000000001
 20
54.475000000000023
 30
0.0
 11
101.40000000000001
 21
54.167156999999968
 31
0.0
  0
LINE
  5
334
  8
2
 10
101.5
 20
52.800000000000011
 30
0.0
 11
101.5
 21
53.074999999999989
 31
0.0
  0
LINE
  5
335
  8
2
 10
100.52003499999999
 20
54.175000000000011
 30
0.0
 11
101.40000000000001
 21
54.175000000000011
 31
0.0
  0
LINE
  5
336
  8
2
 10
100.616795
 20
53.074999999999989
 30
0.0
 11
101.5
 21
53.074999999999989
 31
0.0
  0
LINE
  5
337
  8
2
 10
99.126258000000007
 20
53.139999999999993
 30
0.0
 11
99.335762999999986
 21
53.139999999999993
 31
0.0
  0
LINE
  5
338
  8
2
 10
99.059933999999984
 20
53.834999999999972
 30
0.0
 11
99.249775999999997
 21
53.834999999999972
 31
0.0
  0
ARC
  5
339
  8
2
 10
100.01000000000001
 20
53.574999999999989
 30
0.0
 40
0.9849999999999999
 50
164.6948710000006
 51
206.2075679999985
  0
ARC
  5
33A
  8
2
 10
100.01000000000001
 20
53.574999999999989
 30
0.0
 40
0.8349999999999999
 50
161.85775100000251
 51
211.39654000000081
  0
LINE
  5
33B
  8
2
 10
100.87374199999999
 20
53.139999999999993
 30
0.0
 11
100.664237
 21
53.139999999999993
 31
0.0
  0
LINE
  5
33C
  8
2
 10
100.940066
 20
53.834999999999972
 30
0.0
 11
100.750224
 21
53.834999999999972
 31
0.0
  0
ARC
  5
33D
  8
2
 10
99.990000000000023
 20
53.574999999999989
 30
0.0
 40
0.9849999999999999
 50
333.7924320000015
 51
15.305128999999379
  0
ARC
  5
33E
  8
2
 10
99.990000000000023
 20
53.574999999999989
 30
0.0
 40
0.8349999999999999
 50
328.60345999999748
 51
18.14224899999742
  0
LINE
  5
33F
  8
2
 10
98.0
 20
45.274999999999999
 30
0.0
 11
97.5
 21
45.274999999999999
 31
0.0
  0
LINE
  5
340
  8
2
 10
102.0
 20
45.274999999999999
 30
0.0
 11
102.5
 21
45.274999999999999
 31
0.0
  0
LINE
  5
341
  8
2
 10
102.0
 20
54.725000000000023
 30
0.0
 11
102.5
 21
54.725000000000023
 31
0.0
  0
LINE
  5
342
  8
2
 10
98.0
 20
54.725000000000023
 30
0.0
 11
97.5
 21
54.725000000000023
 31
0.0
  0
LINE
  5
343
  8
2
 10
101.84999999999999
 20
45.0
 30
0.0
 11
98.150000000000006
 21
45.0
 31
0.0
  0
LINE
  5
344
  8
2
 10
101.84999999999999
 20
55.0
 30
0.0
 11
98.150000000000006
 21
55.0
 31
0.0
  0
LINE
  5
345
  8
1
 10
94.500000000000014
 20
50.0
 30
0.0
 11
105.5
 21
50.0
 31
0.0
  0
LINE
  5
346
  8
0
 10
97.5
 20
43.699999999999989
 30
0.0
 11
97.699999999999989
 21
43.5
 31
0.0
  0
LINE
  5
347
  8
0
 10
102.3
 20
43.5
 30
0.0
 11
97.699999999999989
 21
43.5
 31
0.0
  0
LINE
  5
348
  8
0
 10
102.3
 20
43.5
 30
0.0
 11
102.5
 21
43.699999999999989
 31
0.0
  0
LINE
  5
349
  8
0
 10
97.5
 20
56.300000000000011
 30
0.0
 11
97.5
 21
43.699999999999989
 31
0.0
  0
LINE
  5
34A
  8
0
 10
97.5
 20
56.300000000000011
 30
0.0
 11
97.699999999999989
 21
56.5
 31
0.0
  0
LINE
  5
34B
  8
0
 10
102.3
 20
56.5
 30
0.0
 11
97.699999999999989
 21
56.5
 31
0.0
  0
LINE
  5
34C
  8
0
 10
102.5
 20
56.300000000000011
 30
0.0
 11
102.5
 21
43.699999999999989
 31
0.0
  0
LINE
  5
34D
  8
0
 10
102.3
 20
56.5
 30
0.0
 11
102.5
 21
56.300000000000011
 31
0.0
  0
CIRCLE
  5
34E
  8
0
 10
50.0
 20
50.0
 30
0.0
 40
6.5
  0
LINE
  5
34F
  8
1
 10
50.0
 20
40.499999999999993
 30
0.0
 11
50.0
 21
59.5
 31
0.0
  0
LINE
  5
350
  8
1
 10
40.499999999999993
 20
50.0
 30
0.0
 11
59.5
 21
50.0
 31
0.0
  0
CIRCLE
  5
351
  8
2
 10
50.0
 20
50.0
 30
0.0
 40
5.0
  0
CIRCLE
  5
352
  8
0
 10
50.0
 20
50.0
 30
0.0
 40
4.7249999999999996
  0
CIRCLE
  5
353
  8
0
 10
50.0
 20
50.0
 30
0.0
 40
4.4749999999999996
  0
CIRCLE
  5
354
  8
0
 10
50.0
 20
50.0
 30
0.0
 40
4.25
  0
CIRCLE
  5
355
  8
0
 10
50.0
 20
50.0
 30
0.0
 40
2.0
  0
CIRCLE
  5
356
  8
0
 10
50.0
 20
50.0
 30
0.0
 40
2.7999999999999989
  0
ENDSEC
  0
EOF
