  0
SECTION
  2
HEADER
  9
$ACADVER
  1
AC1009
  9
$INSBASE
 10
0.0
 20
0.0
 30
0.0
  9
$EXTMIN
 10
0.0
 20
-2.960436562073669
 30
0.0
  9
$EXTMAX
 10
119.5497953615279
 20
65.0
 30
0.0
  9
$LIMMIN
 10
0.0
 20
0.0
  9
$LIMMAX
 10
187.5
 20
135.0
  9
$ORTHOMODE
 70
     1
  9
$REGENMODE
 70
     1
  9
$FILLMODE
 70
     1
  9
$QTEXTMODE
 70
     0
  9
$MIRRTEXT
 70
     0
  9
$DRAGMODE
 70
     2
  9
$LTSCALE
 40
5.0
  9
$OSMODE
 70
    37
  9
$ATTMODE
 70
     1
  9
$TEXTSIZE
 40
0.2
  9
$TRACEWID
 40
0.05
  9
$TEXTSTYLE
  7
STANDARD
  9
$CLAYER
  8
0
  9
$CELTYPE
  6
BYLAYER
  9
$CECOLOR
 62
   256
  9
$DIMSCALE
 40
0.5
  9
$DIMASZ
 40
3.0
  9
$DIMEXO
 40
2.0
  9
$DIMDLI
 40
0.38
  9
$DIMRND
 40
0.0
  9
$DIMDLE
 40
0.0
  9
$DIMEXE
 40
2.0
  9
$DIMTP
 40
0.0
  9
$DIMTM
 40
0.0
  9
$DIMTXT
 40
3.0
  9
$DIMCEN
 40
0.0
  9
$DIMTSZ
 40
0.0
  9
$DIMTOL
 70
     0
  9
$DIMLIM
 70
     0
  9
$DIMTIH
 70
     0
  9
$DIMTOH
 70
     0
  9
$DIMSE1
 70
     0
  9
$DIMSE2
 70
     0
  9
$DIMTAD
 70
     1
  9
$DIMZIN
 70
     8
  9
$DIMBLK
  1

  9
$DIMASO
 70
     0
  9
$DIMSHO
 70
     0
  9
$DIMPOST
  1

  9
$DIMAPOST
  1

  9
$DIMALT
 70
     0
  9
$DIMALTD
 70
     2
  9
$DIMALTF
 40
25.399999999999999
  9
$DIMLFAC
 40
1.0
  9
$DIMTOFL
 70
     1
  9
$DIMTVP
 40
1.6000000000000001
  9
$DIMTIX
 70
     1
  9
$DIMSOXD
 70
     0
  9
$DIMSAH
 70
     0
  9
$DIMBLK1
  1

  9
$DIMBLK2
  1

  9
$DIMSTYLE
  2
STANDARD
  9
$DIMCLRD
 70
     0
  9
$DIMCLRE
 70
     0
  9
$DIMCLRT
 70
     0
  9
$DIMTFAC
 40
1.0
  9
$DIMGAP
 40
0.09
  9
$LUNITS
 70
     2
  9
$LUPREC
 70
     1
  9
$SKETCHINC
 40
0.1
  9
$FILLETRAD
 40
0.5
  9
$AUNITS
 70
     0
  9
$AUPREC
 70
     0
  9
$MENU
  1
E:\r13\win\SUPPORT\ACAD
  9
$ELEVATION
 40
0.0
  9
$PELEVATION
 40
0.0
  9
$THICKNESS
 40
0.0
  9
$LIMCHECK
 70
     0
  9
$BLIPMODE
 70
     0
  9
$CHAMFERA
 40
0.0
  9
$CHAMFERB
 40
0.0
  9
$SKPOLY
 70
     0
  9
$TDCREATE
 40
2449840.6116550928
  9
$TDUPDATE
 40
2459250.5872805212
  9
$TDINDWG
 40
0.0431186343
  9
$TDUSRTIMER
 40
0.0431186343
  9
$USRTIMER
 70
     1
  9
$ANGBASE
 50
0.0
  9
$ANGDIR
 70
     0
  9
$PDMODE
 70
     0
  9
$PDSIZE
 40
0.0
  9
$PLINEWID
 40
0.0
  9
$COORDS
 70
     1
  9
$SPLFRAME
 70
     0
  9
$SPLINETYPE
 70
     6
  9
$SPLINESEGS
 70
     8
  9
$ATTDIA
 70
     0
  9
$ATTREQ
 70
     1
  9
$HANDLING
 70
     1
  9
$HANDSEED
  5
CF0
  9
$SURFTAB1
 70
     6
  9
$SURFTAB2
 70
     6
  9
$SURFTYPE
 70
     6
  9
$SURFU
 70
     6
  9
$SURFV
 70
     6
  9
$UCSNAME
  2

  9
$UCSORG
 10
0.0
 20
0.0
 30
0.0
  9
$UCSXDIR
 10
1.0
 20
0.0
 30
0.0
  9
$UCSYDIR
 10
0.0
 20
1.0
 30
0.0
  9
$PUCSNAME
  2

  9
$PUCSORG
 10
0.0
 20
0.0
 30
0.0
  9
$PUCSXDIR
 10
1.0
 20
0.0
 30
0.0
  9
$PUCSYDIR
 10
0.0
 20
1.0
 30
0.0
  9
$USERI1
 70
     3
  9
$USERI2
 70
     1
  9
$USERI3
 70
     0
  9
$USERI4
 70
     0
  9
$USERI5
 70
     0
  9
$USERR1
 40
0.5
  9
$USERR2
 40
3.0
  9
$USERR3
 40
3.0
  9
$USERR4
 40
3.0
  9
$USERR5
 40
10.0
  9
$WORLDVIEW
 70
     1
  9
$SHADEDGE
 70
     3
  9
$SHADEDIF
 70
    70
  9
$TILEMODE
 70
     1
  9
$MAXACTVP
 70
    16
  9
$PLIMCHECK
 70
     0
  9
$PEXTMIN
 10
1.0000000000000000E+020
 20
1.0000000000000000E+020
 30
1.0000000000000000E+020
  9
$PEXTMAX
 10
-1.0000000000000000E+020
 20
-1.0000000000000000E+020
 30
-1.0000000000000000E+020
  9
$PLIMMIN
 10
0.0
 20
0.0
  9
$PLIMMAX
 10
12.0
 20
9.0
  9
$UNITMODE
 70
     0
  9
$VISRETAIN
 70
     0
  9
$PLINEGEN
 70
     0
  9
$PSLTSCALE
 70
     0
  0
ENDSEC
  0
SECTION
  2
TABLES
  0
TABLE
  2
VPORT
 70
     1
  0
VPORT
  2
*ACTIVE
 70
     0
 10
0.0
 20
0.0
 11
1.0
 21
1.0
 12
132.35294117647061
 22
50.0
 13
0.0
 23
0.0
 14
5.0
 24
5.0
 15
10.0
 25
10.0
 16
0.0
 26
0.0
 36
1.0
 17
0.0
 27
0.0
 37
0.0
 40
100.0
 41
2.6470588235294108
 42
50.0
 43
0.0
 44
0.0
 50
0.0
 51
0.0
 71
     0
 72
   100
 73
     1
 74
     0
 75
     0
 76
     0
 77
     0
 78
     0
  0
ENDTAB
  0
TABLE
  2
LTYPE
 70
     4
  0
LTYPE
  2
CONTINUOUS
 70
     0
  3
Solid Line
 72
    65
 73
     0
 40
0.0
  0
LTYPE
  2
CENTER
 70
     0
  3
____ _ ____ _ ____ _ ____ _ ____ _ ____ _ ____
 72
    65
 73
     4
 40
2.0
 49
1.25
 49
-0.25
 49
0.25
 49
-0.25
  0
LTYPE
  2
HIDDEN
 70
     0
  3
_ _ _ _ _ _ _ _ _ _ _ _ _ _ _ _ _ _ _ _ _ _ _
 72
    65
 73
     2
 40
0.375
 49
0.25
 49
-0.125
  0
LTYPE
  2
PHANTOM2
 70
     0
  3
___ _ _ ___ _ _ ___ _ _ ___ _ _
 72
    65
 73
     6
 40
1.25
 49
0.625
 49
-0.125
 49
0.125
 49
-0.125
 49
0.125
 49
-0.125
  0
ENDTAB
  0
TABLE
  2
LAYER
 70
     5
  0
LAYER
  2
0
 70
     0
 62
     7
  6
CONTINUOUS
  0
LAYER
  2
1
 70
     0
 62
     1
  6
CENTER
  0
LAYER
  2
2
 70
     0
 62
     2
  6
HIDDEN
  0
LAYER
  2
DEFPOINTS
 70
     0
 62
     7
  6
CONTINUOUS
  0
LAYER
  2
3
 70
     0
 62
     3
  6
CONTINUOUS
  0
ENDTAB
  0
TABLE
  2
STYLE
 70
     2
  0
STYLE
  2
STANDARD
 70
     0
 40
0.0
 41
1.0
 50
0.0
 71
     0
 42
0.2
  3
TXT
  4
BIGFONT
  0
STYLE
  2
STANDARD1
 70
     0
 40
0.0
 41
1.0
 50
0.0
 71
     0
 42
3.0
  3
txt
  4

  0
ENDTAB
  0
TABLE
  2
VIEW
 70
     0
  0
ENDTAB
  0
TABLE
  2
UCS
 70
     0
  0
ENDTAB
  0
TABLE
  2
APPID
 70
     6
  0
APPID
  2
ACAD
 70
     0
  0
APPID
  2
ACAD_MLEADERVER
 70
     0
  0
APPID
  2
ACAD_NAV_VCDISPLAY
 70
     0
  0
APPID
  2
ACAD_EXEMPT_FROM_CAD_STANDARDS
 70
     0
  0
APPID
  2
ACAD_DSTYLE_DIMJAG
 70
     0
  0
APPID
  2
ACAD_DSTYLE_DIMTALN
 70
     0
  0
ENDTAB
  0
TABLE
  2
DIMSTYLE
 70
     1
  0
DIMSTYLE
  2
STANDARD
 70
     0
  3

  4

  5

  6

  7

 40
1.0
 41
0.18
 42
0.0625
 43
0.38
 44
0.18
 45
0.0
 46
0.0
 47
0.0
 48
0.0
140
0.18
141
0.09
142
0.0
143
25.399999999999999
144
1.0
145
0.0
146
1.0
147
0.09
 71
     0
 72
     0
 73
     1
 74
     1
 75
     0
 76
     0
 77
     0
 78
     0
170
     0
171
     2
172
     0
173
     0
174
     0
175
     0
176
     0
177
     0
178
     0
  0
ENDTAB
  0
ENDSEC
  0
SECTION
  2
BLOCKS
  0
BLOCK
  8
0
  2
$MODEL_SPACE
 70
     0
 10
0.0
 20
0.0
 30
0.0
  3
$MODEL_SPACE
  1

  0
ENDBLK
  5
DF
  8
0
  0
BLOCK
 67
     1
  8
0
  2
$PAPER_SPACE
 70
     0
 10
0.0
 20
0.0
 30
0.0
  3
$PAPER_SPACE
  1

  0
ENDBLK
  5
DD
 67
     1
  8
0
  0
ENDSEC
  0
SECTION
  2
ENTITIES
  0
TEXT
  5
1D1
  8
0
 62
     3
 10
0.0
 20
0.0
 30
0.0
 40
10.0
  1
GRL24M5P-F-SUS
  7
STANDARD1
  0
ARC
  5
A45
  8
2
 10
93.199999999999974
 20
42.700000000000038
 30
0.0
 40
0.2
 50
180.0
 51
270.0
  0
ARC
  5
A46
  8
2
 10
93.199999999999974
 20
57.300000000000011
 30
0.0
 40
0.2
 50
90.0
 51
180.0
  0
ARC
  5
A47
  8
2
 10
97.800000000000011
 20
42.700000000000038
 30
0.0
 40
0.2
 50
270.0
 51
0.0
  0
LINE
  5
A48
  8
2
 10
98.0
 20
42.700000000000038
 30
0.0
 11
98.0
 21
57.300000000000011
 31
0.0
  0
ARC
  5
A49
  8
2
 10
97.800000000000011
 20
57.300000000000011
 30
0.0
 40
0.2
 50
0.0
 51
90.0
  0
ARC
  5
A4A
  8
2
 10
93.199999999999974
 20
46.800000000000011
 30
0.0
 40
0.2
 50
90.0
 51
180.0
  0
ARC
  5
A4B
  8
2
 10
97.800000000000011
 20
46.800000000000011
 30
0.0
 40
0.2
 50
0.0
 51
90.0
  0
ARC
  5
A4C
  8
2
 10
93.199999999999974
 20
53.200000000000038
 30
0.0
 40
0.2
 50
180.0
 51
270.0
  0
ARC
  5
A4D
  8
2
 10
97.800000000000011
 20
53.200000000000038
 30
0.0
 40
0.2
 50
270.0
 51
0.0
  0
CIRCLE
  5
A4E
  8
2
 10
95.5
 20
45.0
 30
0.0
 40
1.190499999999999
  0
LINE
  5
A4F
  8
2
 10
94.424272000000002
 20
44.490000000000002
 30
0.0
 11
94.157649999999975
 21
44.490000000000002
 31
0.0
  0
ARC
  5
A50
  8
2
 10
95.514999999999986
 20
45.0
 30
0.0
 40
1.45
 50
154.90389099999939
 51
200.59280699999991
  0
ARC
  5
A51
  8
2
 10
95.514999999999986
 20
45.0
 30
0.0
 40
1.25
 50
150.5278789999997
 51
204.07925999999989
  0
LINE
  5
A52
  8
2
 10
94.201883000000009
 20
45.615000000000009
 30
0.0
 11
94.480654000000015
 21
45.615000000000009
 31
0.0
  0
LINE
  5
A53
  8
2
 10
96.575727999999998
 20
44.490000000000002
 30
0.0
 11
96.84235000000001
 21
44.490000000000002
 31
0.0
  0
ARC
  5
A54
  8
2
 10
95.485000000000014
 20
45.0
 30
0.0
 40
1.45
 50
339.40719300000012
 51
25.096108999999771
  0
ARC
  5
A55
  8
2
 10
95.485000000000014
 20
45.0
 30
0.0
 40
1.25
 50
335.92074000000019
 51
29.47212100000025
  0
LINE
  5
A56
  8
2
 10
96.798117000000005
 20
45.615000000000009
 30
0.0
 11
96.519345999999985
 21
45.615000000000009
 31
0.0
  0
LINE
  5
A57
  8
2
 10
93.0
 20
43.5
 30
0.0
 11
93.250000000000014
 21
43.5
 31
0.0
  0
LINE
  5
A58
  8
2
 10
93.250000000000014
 20
44.075000000000053
 30
0.0
 11
93.250000000000014
 21
43.425000000000011
 31
0.0
  0
LINE
  5
A59
  8
2
 10
93.499999999999986
 20
43.425000000000011
 30
0.0
 11
93.250000000000014
 21
43.425000000000011
 31
0.0
  0
LINE
  5
A5A
  8
2
 10
93.0
 20
46.25
 30
0.0
 11
93.599999999999994
 21
46.25
 31
0.0
  0
LINE
  5
A5B
  8
2
 10
93.250000000000014
 20
46.150000000000027
 30
0.0
 11
93.499999999999986
 21
46.150000000000027
 31
0.0
  0
LINE
  5
A5C
  8
2
 10
93.599999999999994
 20
46.25
 30
0.0
 11
93.599999999999994
 21
45.900000000000027
 31
0.0
  0
LINE
  5
A5D
  8
2
 10
93.599999999999994
 20
45.900000000000027
 30
0.0
 11
94.720712000000006
 21
45.900000000000027
 31
0.0
  0
LINE
  5
A5E
  8
2
 10
93.499999999999986
 20
44.075000000000053
 30
0.0
 11
93.250000000000014
 21
44.075000000000053
 31
0.0
  0
LINE
  5
A5F
  8
2
 10
93.499999999999986
 20
43.425000000000011
 30
0.0
 11
93.499999999999986
 21
44.075000000000053
 31
0.0
  0
LINE
  5
A60
  8
2
 10
93.499999999999986
 20
43.5
 30
0.0
 11
93.75
 21
43.5
 31
0.0
  0
LINE
  5
A61
  8
2
 10
93.75
 20
44.150000000000027
 30
0.0
 11
94.666459000000003
 21
44.150000000000027
 31
0.0
  0
LINE
  5
A62
  8
2
 10
93.250000000000014
 20
44.325000000000038
 30
0.0
 11
93.499999999999986
 21
44.075000000000053
 31
0.0
  0
LINE
  5
A63
  8
2
 10
93.250000000000014
 20
44.325000000000038
 30
0.0
 11
93.250000000000014
 21
46.150000000000027
 31
0.0
  0
LINE
  5
A64
  8
2
 10
93.75
 20
44.178553000000022
 30
0.0
 11
93.499999999999986
 21
44.428553000000022
 31
0.0
  0
LINE
  5
A65
  8
2
 10
93.499999999999986
 20
44.428553000000022
 30
0.0
 11
93.499999999999986
 21
46.150000000000027
 31
0.0
  0
LINE
  5
A66
  8
2
 10
93.75
 20
43.5
 30
0.0
 11
93.75
 21
44.178553000000022
 31
0.0
  0
LINE
  5
A67
  8
2
 10
98.0
 20
43.5
 30
0.0
 11
97.75
 21
43.5
 31
0.0
  0
LINE
  5
A68
  8
2
 10
97.75
 20
44.075000000000053
 30
0.0
 11
97.75
 21
43.425000000000011
 31
0.0
  0
LINE
  5
A69
  8
2
 10
97.5
 20
43.425000000000011
 30
0.0
 11
97.75
 21
43.425000000000011
 31
0.0
  0
LINE
  5
A6A
  8
2
 10
98.0
 20
46.25
 30
0.0
 11
97.400000000000006
 21
46.25
 31
0.0
  0
LINE
  5
A6B
  8
2
 10
97.75
 20
46.150000000000027
 30
0.0
 11
97.5
 21
46.150000000000027
 31
0.0
  0
LINE
  5
A6C
  8
2
 10
97.400000000000006
 20
46.25
 30
0.0
 11
97.400000000000006
 21
45.900000000000027
 31
0.0
  0
LINE
  5
A6D
  8
2
 10
97.5
 20
44.075000000000053
 30
0.0
 11
97.75
 21
44.075000000000053
 31
0.0
  0
LINE
  5
A6E
  8
2
 10
97.5
 20
43.425000000000011
 30
0.0
 11
97.5
 21
44.075000000000053
 31
0.0
  0
LINE
  5
A6F
  8
2
 10
97.5
 20
43.5
 30
0.0
 11
97.250000000000014
 21
43.5
 31
0.0
  0
LINE
  5
A70
  8
2
 10
97.75
 20
44.325000000000038
 30
0.0
 11
97.5
 21
44.075000000000053
 31
0.0
  0
LINE
  5
A71
  8
2
 10
97.75
 20
44.325000000000038
 30
0.0
 11
97.75
 21
46.150000000000027
 31
0.0
  0
LINE
  5
A72
  8
2
 10
97.250000000000014
 20
44.178553000000022
 30
0.0
 11
97.5
 21
44.428553000000022
 31
0.0
  0
LINE
  5
A73
  8
2
 10
97.5
 20
44.428553000000022
 30
0.0
 11
97.5
 21
46.150000000000027
 31
0.0
  0
LINE
  5
A74
  8
2
 10
97.250000000000014
 20
43.5
 30
0.0
 11
97.250000000000014
 21
44.178553000000022
 31
0.0
  0
LINE
  5
A75
  8
2
 10
96.333540999999997
 20
44.150000000000027
 30
0.0
 11
97.250000000000014
 21
44.150000000000027
 31
0.0
  0
LINE
  5
A76
  8
2
 10
96.279288000000008
 20
45.900000000000027
 30
0.0
 11
97.400000000000006
 21
45.900000000000027
 31
0.0
  0
CIRCLE
  5
A77
  8
2
 10
95.5
 20
55.0
 30
0.0
 40
1.190499999999999
  0
LINE
  5
A78
  8
2
 10
94.424272000000002
 20
55.509999999999991
 30
0.0
 11
94.157649999999975
 21
55.509999999999991
 31
0.0
  0
ARC
  5
A79
  8
2
 10
95.514999999999986
 20
55.0
 30
0.0
 40
1.45
 50
159.40719300000009
 51
205.09610900000061
  0
ARC
  5
A7A
  8
2
 10
95.514999999999986
 20
55.0
 30
0.0
 40
1.25
 50
155.92074000000011
 51
209.47212100000019
  0
LINE
  5
A7B
  8
2
 10
94.201883000000009
 20
54.384999999999991
 30
0.0
 11
94.480654000000015
 21
54.384999999999991
 31
0.0
  0
LINE
  5
A7C
  8
2
 10
96.575727999999998
 20
55.509999999999991
 30
0.0
 11
96.84235000000001
 21
55.509999999999991
 31
0.0
  0
ARC
  5
A7D
  8
2
 10
95.485000000000014
 20
55.0
 30
0.0
 40
1.45
 50
334.90389100000021
 51
20.592806999999869
  0
ARC
  5
A7E
  8
2
 10
95.485000000000014
 20
55.0
 30
0.0
 40
1.25
 50
330.52787899999981
 51
24.07925999999987
  0
LINE
  5
A7F
  8
2
 10
96.798117000000005
 20
54.384999999999991
 30
0.0
 11
96.519345999999985
 21
54.384999999999991
 31
0.0
  0
LINE
  5
A80
  8
2
 10
93.0
 20
56.5
 30
0.0
 11
93.250000000000014
 21
56.5
 31
0.0
  0
LINE
  5
A81
  8
2
 10
93.250000000000014
 20
55.925000000000011
 30
0.0
 11
93.250000000000014
 21
56.575000000000053
 31
0.0
  0
LINE
  5
A82
  8
2
 10
93.499999999999986
 20
56.575000000000053
 30
0.0
 11
93.250000000000014
 21
56.575000000000053
 31
0.0
  0
LINE
  5
A83
  8
2
 10
93.0
 20
53.75
 30
0.0
 11
93.599999999999994
 21
53.75
 31
0.0
  0
LINE
  5
A84
  8
2
 10
93.250000000000014
 20
53.850000000000023
 30
0.0
 11
93.499999999999986
 21
53.850000000000023
 31
0.0
  0
LINE
  5
A85
  8
2
 10
93.599999999999994
 20
53.75
 30
0.0
 11
93.599999999999994
 21
54.100000000000023
 31
0.0
  0
LINE
  5
A86
  8
2
 10
93.599999999999994
 20
54.100000000000023
 30
0.0
 11
94.720712000000006
 21
54.100000000000023
 31
0.0
  0
LINE
  5
A87
  8
2
 10
93.499999999999986
 20
55.925000000000011
 30
0.0
 11
93.250000000000014
 21
55.925000000000011
 31
0.0
  0
LINE
  5
A88
  8
2
 10
93.499999999999986
 20
56.575000000000053
 30
0.0
 11
93.499999999999986
 21
55.925000000000011
 31
0.0
  0
LINE
  5
A89
  8
2
 10
93.499999999999986
 20
56.5
 30
0.0
 11
93.75
 21
56.5
 31
0.0
  0
LINE
  5
A8A
  8
2
 10
93.250000000000014
 20
55.675000000000011
 30
0.0
 11
93.499999999999986
 21
55.925000000000011
 31
0.0
  0
LINE
  5
A8B
  8
2
 10
93.250000000000014
 20
55.675000000000011
 30
0.0
 11
93.250000000000014
 21
53.850000000000023
 31
0.0
  0
LINE
  5
A8C
  8
2
 10
93.75
 20
55.821447000000042
 30
0.0
 11
93.499999999999986
 21
55.571447000000028
 31
0.0
  0
LINE
  5
A8D
  8
2
 10
93.499999999999986
 20
55.571447000000028
 30
0.0
 11
93.499999999999986
 21
53.850000000000023
 31
0.0
  0
LINE
  5
A8E
  8
2
 10
93.75
 20
56.5
 30
0.0
 11
93.75
 21
55.821447000000042
 31
0.0
  0
LINE
  5
A8F
  8
2
 10
98.0
 20
56.5
 30
0.0
 11
97.75
 21
56.5
 31
0.0
  0
LINE
  5
A90
  8
2
 10
97.75
 20
55.925000000000011
 30
0.0
 11
97.75
 21
56.575000000000053
 31
0.0
  0
LINE
  5
A91
  8
2
 10
97.5
 20
56.575000000000053
 30
0.0
 11
97.75
 21
56.575000000000053
 31
0.0
  0
LINE
  5
A92
  8
2
 10
98.0
 20
53.75
 30
0.0
 11
97.400000000000006
 21
53.75
 31
0.0
  0
LINE
  5
A93
  8
2
 10
97.75
 20
53.850000000000023
 30
0.0
 11
97.5
 21
53.850000000000023
 31
0.0
  0
LINE
  5
A94
  8
2
 10
97.400000000000006
 20
53.75
 30
0.0
 11
97.400000000000006
 21
54.100000000000023
 31
0.0
  0
LINE
  5
A95
  8
2
 10
97.5
 20
55.925000000000011
 30
0.0
 11
97.75
 21
55.925000000000011
 31
0.0
  0
LINE
  5
A96
  8
2
 10
97.5
 20
56.575000000000053
 30
0.0
 11
97.5
 21
55.925000000000011
 31
0.0
  0
LINE
  5
A97
  8
2
 10
97.5
 20
56.5
 30
0.0
 11
97.250000000000014
 21
56.5
 31
0.0
  0
LINE
  5
A98
  8
2
 10
97.75
 20
55.675000000000011
 30
0.0
 11
97.5
 21
55.925000000000011
 31
0.0
  0
LINE
  5
A99
  8
2
 10
97.75
 20
55.675000000000011
 30
0.0
 11
97.75
 21
53.850000000000023
 31
0.0
  0
LINE
  5
A9A
  8
2
 10
97.250000000000014
 20
55.821447000000042
 30
0.0
 11
97.5
 21
55.571447000000028
 31
0.0
  0
LINE
  5
A9B
  8
2
 10
97.5
 20
55.571447000000028
 30
0.0
 11
97.5
 21
53.850000000000023
 31
0.0
  0
LINE
  5
A9C
  8
2
 10
97.250000000000014
 20
56.5
 30
0.0
 11
97.250000000000014
 21
55.821447000000042
 31
0.0
  0
LINE
  5
A9D
  8
2
 10
96.333540999999997
 20
55.850000000000023
 30
0.0
 11
97.250000000000014
 21
55.850000000000023
 31
0.0
  0
LINE
  5
A9E
  8
2
 10
96.279288000000008
 20
54.100000000000023
 30
0.0
 11
97.400000000000006
 21
54.100000000000023
 31
0.0
  0
LINE
  5
A9F
  8
2
 10
93.75
 20
55.850000000000023
 30
0.0
 11
94.666459000000003
 21
55.850000000000023
 31
0.0
  0
LINE
  5
AA0
  8
2
 10
93.0
 20
43.0
 30
0.0
 11
92.5
 21
43.0
 31
0.0
  0
LINE
  5
AA1
  8
2
 10
98.0
 20
43.0
 30
0.0
 11
98.500000000000014
 21
43.0
 31
0.0
  0
LINE
  5
AA2
  8
2
 10
93.0
 20
57.0
 30
0.0
 11
92.5
 21
57.0
 31
0.0
  0
LINE
  5
AA3
  8
2
 10
98.0
 20
57.0
 30
0.0
 11
98.500000000000014
 21
57.0
 31
0.0
  0
LINE
  5
AA4
  8
2
 10
97.800000000000011
 20
42.5
 30
0.0
 11
93.199999999999974
 21
42.5
 31
0.0
  0
LINE
  5
AA5
  8
2
 10
97.800000000000011
 20
57.5
 30
0.0
 11
93.199999999999974
 21
57.5
 31
0.0
  0
LINE
  5
AA6
  8
2
 10
92.699999999999989
 20
53.0
 30
0.0
 11
92.699999999999989
 21
47.0
 31
0.0
  0
LINE
  5
AAA
  8
2
 10
98.0
 20
46.0
 30
0.0
 11
98.500000000000014
 21
46.0
 31
0.0
  0
LINE
  5
AAB
  8
2
 10
98.0
 20
54.0
 30
0.0
 11
98.500000000000014
 21
54.0
 31
0.0
  0
LINE
  5
AAC
  8
0
 10
99.500000000000014
 20
54.0
 30
0.0
 11
99.500000000000014
 21
46.0
 31
0.0
  0
LINE
  5
AB2
  8
2
 10
92.699999999999989
 20
47.0
 30
0.0
 11
98.0
 21
47.0
 31
0.0
  0
LINE
  5
AB3
  8
2
 10
92.699999999999989
 20
53.0
 30
0.0
 11
98.0
 21
53.0
 31
0.0
  0
LINE
  5
AB4
  8
2
 10
93.0
 20
42.700000000000038
 30
0.0
 11
93.0
 21
47.0
 31
0.0
  0
LINE
  5
AB5
  8
2
 10
93.0
 20
53.0
 30
0.0
 11
93.0
 21
57.300000000000011
 31
0.0
  0
LINE
  5
AB6
  8
1
 10
89.500000000000014
 20
50.0
 30
0.0
 11
110.5
 21
50.0
 31
0.0
  0
LINE
  5
AB7
  8
0
 10
92.700000000000017
 20
38.0
 30
0.0
 11
98.300000000000011
 21
38.0
 31
0.0
  0
LINE
  5
AB8
  8
0
 10
92.5
 20
38.200000000000017
 30
0.0
 11
92.700000000000017
 21
38.0
 31
0.0
  0
LINE
  5
AB9
  8
0
 10
92.700000000000017
 20
62.0
 30
0.0
 11
98.300000000000011
 21
62.000000000000021
 31
0.0
  0
LINE
  5
ABA
  8
0
 10
92.5
 20
61.800000000000011
 30
0.0
 11
92.700000000000017
 21
62.0
 31
0.0
  0
LINE
  5
ABC
  8
0
 10
98.500000000000014
 20
46.0
 30
0.0
 11
99.500000000000014
 21
46.0
 31
0.0
  0
LINE
  5
ABD
  8
0
 10
98.500000000000014
 20
54.0
 30
0.0
 11
99.500000000000014
 21
54.0
 31
0.0
  0
LINE
  5
AC0
  8
1
 10
65.0
 20
50.0
 30
0.0
 11
35.0
 21
50.0
 31
0.0
  0
LINE
  5
AC1
  8
1
 10
50.0
 20
65.0
 30
0.0
 11
50.0
 21
35.0
 31
0.0
  0
LINE
  5
AC2
  8
0
 10
51.5
 20
50.866025403784469
 30
0.0
 11
51.5
 21
49.13397459621558
 31
0.0
  0
LINE
  5
AC3
  8
0
 10
48.499999999999979
 20
50.866025403784469
 30
0.0
 11
48.5
 21
49.13397459621558
 31
0.0
  0
CIRCLE
  5
AC4
  8
0
 10
50.0
 20
50.0
 30
0.0
 40
3.0
  0
LINE
  5
AC5
  8
0
 10
49.999999999999993
 20
51.732050807568903
 30
0.0
 11
51.499999999999979
 21
50.866025403784469
 31
0.0
  0
LINE
  5
AC6
  8
0
 10
48.5
 20
49.13397459621558
 30
0.0
 11
49.999999999999993
 21
48.267949192431161
 31
0.0
  0
LINE
  5
AC7
  8
0
 10
50.000000000000007
 20
51.732050807568903
 30
0.0
 11
48.499999999999979
 21
50.866025403784469
 31
0.0
  0
LINE
  5
AC8
  8
0
 10
51.5
 20
49.13397459621558
 30
0.0
 11
49.999999999999943
 21
48.267949192431161
 31
0.0
  0
CIRCLE
  5
AC9
  8
2
 10
50.0
 20
50.0
 30
0.0
 40
7.4999999999999707
  0
CIRCLE
  5
ACA
  8
0
 10
50.0
 20
50.0
 30
0.0
 40
7.0
  0
CIRCLE
  5
ACB
  8
0
 10
50.0
 20
50.0
 30
0.0
 40
6.5
  0
CIRCLE
  5
ACC
  8
0
 10
50.0
 20
50.0
 30
0.0
 40
5.9249999999999821
  0
CIRCLE
  5
ACD
  8
0
 10
50.0
 20
50.0
 30
0.0
 40
3.7500543520294261
  0
LINE
  5
ACE
  8
0
 10
98.500000000000014
 20
61.800000000000011
 30
0.0
 11
98.500000000000014
 21
38.200000000000017
 31
0.0
  0
LINE
  5
ACF
  8
0
 10
98.300000000000011
 20
62.000000000000021
 30
0.0
 11
98.500000000000014
 21
61.800000000000011
 31
0.0
  0
LINE
  5
AD0
  8
0
 10
98.300000000000011
 20
38.0
 30
0.0
 11
98.500000000000014
 21
38.200000000000017
 31
0.0
  0
LINE
  5
AD1
  8
0
 10
92.5
 20
61.800000000000011
 30
0.0
 11
92.5
 21
38.200000000000017
 31
0.0
  0
CIRCLE
  5
AD2
  8
0
 10
50.0
 20
50.0
 30
0.0
 40
12.0
  0
LINE
  5
B65
  8
2
 10
95.199999999999974
 20
51.732050807568903
 30
0.0
 11
95.199999999999989
 21
48.267949192431168
 31
0.0
  0
LINE
  5
B66
  8
2
 10
92.699999999999989
 20
51.732050807568903
 30
0.0
 11
95.199999999999989
 21
51.732050807568903
 31
0.0
  0
LINE
  5
B67
  8
2
 10
92.699999999999989
 20
50.866025403784469
 30
0.0
 11
95.199999999999989
 21
50.866025403784469
 31
0.0
  0
LINE
  5
B68
  8
2
 10
92.699999999999989
 20
49.13397459621558
 30
0.0
 11
95.199999999999989
 21
49.13397459621558
 31
0.0
  0
LINE
  5
B69
  8
2
 10
92.699999999999989
 20
48.267949192431168
 30
0.0
 11
95.199999999999989
 21
48.267949192431168
 31
0.0
  0
LINE
  5
B6A
  8
2
 10
95.199999999999989
 20
51.732050807568903
 30
0.0
 11
96.199999999999989
 21
50.0
 31
0.0
  0
LINE
  5
B6B
  8
2
 10
95.199999999999989
 20
48.267949192431097
 30
0.0
 11
96.199999999999989
 21
50.0
 31
0.0
  0
LINE
  5
C65
  8
0
 10
107.0
 20
47.499999999999993
 30
0.0
 11
107.5
 21
47.999999999999979
 31
0.0
  0
LINE
  5
C66
  8
0
 10
107.5
 20
47.999999999999979
 30
0.0
 11
107.5
 21
52.0
 31
0.0
  0
LINE
  5
C67
  8
0
 10
107.0
 20
52.5
 30
0.0
 11
107.5
 21
52.0
 31
0.0
  0
LINE
  5
C68
  8
0
 10
101.0
 20
47.5
 30
0.0
 11
101.0
 21
52.5
 31
0.0
  0
LINE
  5
C69
  8
0
 10
101.0
 20
48.100000000000001
 30
0.0
 11
99.500000000000014
 21
48.100000000000001
 31
0.0
  0
LINE
  5
C6A
  8
0
 10
101.0
 20
51.899999999999999
 30
0.0
 11
99.500000000000014
 21
51.899999999999999
 31
0.0
  0
LINE
  5
C6B
  8
0
 10
107.0
 20
47.499999999999993
 30
0.0
 11
107.0
 21
52.5
 31
0.0
  0
LINE
  5
C6C
  8
0
 10
101.0
 20
52.5
 30
0.0
 11
107.0
 21
52.5
 31
0.0
  0
LINE
  5
C6D
  8
3
 10
101.0
 20
52.067000000000199
 30
0.0
 11
107.43299999999979
 21
52.067000000000192
 31
0.0
  0
LINE
  5
C6E
  8
3
 10
101.0
 20
47.932999999999787
 30
0.0
 11
107.43299999999979
 21
47.932999999999787
 31
0.0
  0
LINE
  5
C6F
  8
0
 10
101.0
 20
47.5
 30
0.0
 11
107.0
 21
47.499999999999979
 31
0.0
  0
ENDSEC
  0
EOF
