  0
SECTION
  2
HEADER
  9
$ACADVER
  1
AC1009
  9
$INSBASE
 10
0.0
 20
0.0
 30
0.0
  9
$EXTMIN
 10
0.0
 20
-2.960436562073669
 30
0.0
  9
$EXTMAX
 10
119.5497953615279
 20
68.0
 30
0.0
  9
$LIMMIN
 10
0.0
 20
0.0
  9
$LIMMAX
 10
187.5
 20
135.0
  9
$ORTHOMODE
 70
     0
  9
$REGENMODE
 70
     1
  9
$FILLMODE
 70
     1
  9
$QTEXTMODE
 70
     0
  9
$MIRRTEXT
 70
     0
  9
$DRAGMODE
 70
     2
  9
$LTSCALE
 40
5.0
  9
$OSMODE
 70
    37
  9
$ATTMODE
 70
     1
  9
$TEXTSIZE
 40
0.2
  9
$TRACEWID
 40
0.05
  9
$TEXTSTYLE
  7
STANDARD
  9
$CLAYER
  8
0
  9
$CELTYPE
  6
BYLAYER
  9
$CECOLOR
 62
   256
  9
$DIMSCALE
 40
0.5
  9
$DIMASZ
 40
3.0
  9
$DIMEXO
 40
2.0
  9
$DIMDLI
 40
0.38
  9
$DIMRND
 40
0.0
  9
$DIMDLE
 40
0.0
  9
$DIMEXE
 40
2.0
  9
$DIMTP
 40
0.0
  9
$DIMTM
 40
0.0
  9
$DIMTXT
 40
3.0
  9
$DIMCEN
 40
0.0
  9
$DIMTSZ
 40
0.0
  9
$DIMTOL
 70
     0
  9
$DIMLIM
 70
     0
  9
$DIMTIH
 70
     0
  9
$DIMTOH
 70
     0
  9
$DIMSE1
 70
     0
  9
$DIMSE2
 70
     0
  9
$DIMTAD
 70
     1
  9
$DIMZIN
 70
     8
  9
$DIMBLK
  1

  9
$DIMASO
 70
     0
  9
$DIMSHO
 70
     0
  9
$DIMPOST
  1

  9
$DIMAPOST
  1

  9
$DIMALT
 70
     0
  9
$DIMALTD
 70
     2
  9
$DIMALTF
 40
25.399999999999999
  9
$DIMLFAC
 40
1.0
  9
$DIMTOFL
 70
     1
  9
$DIMTVP
 40
1.6000000000000001
  9
$DIMTIX
 70
     1
  9
$DIMSOXD
 70
     0
  9
$DIMSAH
 70
     0
  9
$DIMBLK1
  1

  9
$DIMBLK2
  1

  9
$DIMSTYLE
  2
STANDARD
  9
$DIMCLRD
 70
     0
  9
$DIMCLRE
 70
     0
  9
$DIMCLRT
 70
     0
  9
$DIMTFAC
 40
1.0
  9
$DIMGAP
 40
0.09
  9
$LUNITS
 70
     2
  9
$LUPREC
 70
     1
  9
$SKETCHINC
 40
0.1
  9
$FILLETRAD
 40
0.5
  9
$AUNITS
 70
     0
  9
$AUPREC
 70
     0
  9
$MENU
  1
E:\r13\win\SUPPORT\ACAD
  9
$ELEVATION
 40
0.0
  9
$PELEVATION
 40
0.0
  9
$THICKNESS
 40
0.0
  9
$LIMCHECK
 70
     0
  9
$BLIPMODE
 70
     0
  9
$CHAMFERA
 40
0.0
  9
$CHAMFERB
 40
0.0
  9
$SKPOLY
 70
     0
  9
$TDCREATE
 40
2449840.6116550928
  9
$TDUPDATE
 40
2459250.5873224651
  9
$TDINDWG
 40
0.0349113657
  9
$TDUSRTIMER
 40
0.0349113657
  9
$USRTIMER
 70
     1
  9
$ANGBASE
 50
0.0
  9
$ANGDIR
 70
     0
  9
$PDMODE
 70
     0
  9
$PDSIZE
 40
0.0
  9
$PLINEWID
 40
0.0
  9
$COORDS
 70
     1
  9
$SPLFRAME
 70
     0
  9
$SPLINETYPE
 70
     6
  9
$SPLINESEGS
 70
     8
  9
$ATTDIA
 70
     0
  9
$ATTREQ
 70
     1
  9
$HANDLING
 70
     1
  9
$HANDSEED
  5
1045
  9
$SURFTAB1
 70
     6
  9
$SURFTAB2
 70
     6
  9
$SURFTYPE
 70
     6
  9
$SURFU
 70
     6
  9
$SURFV
 70
     6
  9
$UCSNAME
  2

  9
$UCSORG
 10
0.0
 20
0.0
 30
0.0
  9
$UCSXDIR
 10
1.0
 20
0.0
 30
0.0
  9
$UCSYDIR
 10
0.0
 20
1.0
 30
0.0
  9
$PUCSNAME
  2

  9
$PUCSORG
 10
0.0
 20
0.0
 30
0.0
  9
$PUCSXDIR
 10
1.0
 20
0.0
 30
0.0
  9
$PUCSYDIR
 10
0.0
 20
1.0
 30
0.0
  9
$USERI1
 70
     3
  9
$USERI2
 70
     1
  9
$USERI3
 70
     0
  9
$USERI4
 70
     0
  9
$USERI5
 70
     0
  9
$USERR1
 40
0.5
  9
$USERR2
 40
3.0
  9
$USERR3
 40
3.0
  9
$USERR4
 40
3.0
  9
$USERR5
 40
10.0
  9
$WORLDVIEW
 70
     1
  9
$SHADEDGE
 70
     3
  9
$SHADEDIF
 70
    70
  9
$TILEMODE
 70
     1
  9
$MAXACTVP
 70
    16
  9
$PLIMCHECK
 70
     0
  9
$PEXTMIN
 10
1.0000000000000000E+020
 20
1.0000000000000000E+020
 30
1.0000000000000000E+020
  9
$PEXTMAX
 10
-1.0000000000000000E+020
 20
-1.0000000000000000E+020
 30
-1.0000000000000000E+020
  9
$PLIMMIN
 10
0.0
 20
0.0
  9
$PLIMMAX
 10
12.0
 20
9.0
  9
$UNITMODE
 70
     0
  9
$VISRETAIN
 70
     0
  9
$PLINEGEN
 70
     0
  9
$PSLTSCALE
 70
     0
  0
ENDSEC
  0
SECTION
  2
TABLES
  0
TABLE
  2
VPORT
 70
     1
  0
VPORT
  2
*ACTIVE
 70
     0
 10
0.0
 20
0.0
 11
1.0
 21
1.0
 12
132.35294117647061
 22
50.0
 13
0.0
 23
0.0
 14
5.0
 24
5.0
 15
10.0
 25
10.0
 16
0.0
 26
0.0
 36
1.0
 17
0.0
 27
0.0
 37
0.0
 40
100.0
 41
2.6470588235294108
 42
50.0
 43
0.0
 44
0.0
 50
0.0
 51
0.0
 71
     0
 72
   100
 73
     1
 74
     0
 75
     0
 76
     0
 77
     0
 78
     0
  0
ENDTAB
  0
TABLE
  2
LTYPE
 70
     4
  0
LTYPE
  2
CONTINUOUS
 70
     0
  3
Solid Line
 72
    65
 73
     0
 40
0.0
  0
LTYPE
  2
CENTER
 70
     0
  3
____ _ ____ _ ____ _ ____ _ ____ _ ____ _ ____
 72
    65
 73
     4
 40
2.0
 49
1.25
 49
-0.25
 49
0.25
 49
-0.25
  0
LTYPE
  2
HIDDEN
 70
     0
  3
_ _ _ _ _ _ _ _ _ _ _ _ _ _ _ _ _ _ _ _ _ _ _
 72
    65
 73
     2
 40
0.375
 49
0.25
 49
-0.125
  0
LTYPE
  2
PHANTOM2
 70
     0
  3
___ _ _ ___ _ _ ___ _ _ ___ _ _
 72
    65
 73
     6
 40
1.25
 49
0.625
 49
-0.125
 49
0.125
 49
-0.125
 49
0.125
 49
-0.125
  0
ENDTAB
  0
TABLE
  2
LAYER
 70
     5
  0
LAYER
  2
0
 70
     0
 62
     7
  6
CONTINUOUS
  0
LAYER
  2
1
 70
     0
 62
     1
  6
CENTER
  0
LAYER
  2
2
 70
     0
 62
     2
  6
HIDDEN
  0
LAYER
  2
DEFPOINTS
 70
     0
 62
     7
  6
CONTINUOUS
  0
LAYER
  2
3
 70
     0
 62
     3
  6
CONTINUOUS
  0
ENDTAB
  0
TABLE
  2
STYLE
 70
     2
  0
STYLE
  2
STANDARD
 70
     0
 40
0.0
 41
1.0
 50
0.0
 71
     0
 42
0.2
  3
TXT
  4
BIGFONT
  0
STYLE
  2
STANDARD1
 70
     0
 40
0.0
 41
1.0
 50
0.0
 71
     0
 42
3.0
  3
txt
  4

  0
ENDTAB
  0
TABLE
  2
VIEW
 70
     0
  0
ENDTAB
  0
TABLE
  2
UCS
 70
     0
  0
ENDTAB
  0
TABLE
  2
APPID
 70
     6
  0
APPID
  2
ACAD
 70
     0
  0
APPID
  2
ACAD_MLEADERVER
 70
     0
  0
APPID
  2
ACAD_NAV_VCDISPLAY
 70
     0
  0
APPID
  2
ACAD_EXEMPT_FROM_CAD_STANDARDS
 70
     0
  0
APPID
  2
ACAD_DSTYLE_DIMJAG
 70
     0
  0
APPID
  2
ACAD_DSTYLE_DIMTALN
 70
     0
  0
ENDTAB
  0
TABLE
  2
DIMSTYLE
 70
     1
  0
DIMSTYLE
  2
STANDARD
 70
     0
  3

  4

  5

  6

  7

 40
1.0
 41
0.18
 42
0.0625
 43
0.38
 44
0.18
 45
0.0
 46
0.0
 47
0.0
 48
0.0
140
0.18
141
0.09
142
0.0
143
25.399999999999999
144
1.0
145
0.0
146
1.0
147
0.09
 71
     0
 72
     0
 73
     1
 74
     1
 75
     0
 76
     0
 77
     0
 78
     0
170
     0
171
     2
172
     0
173
     0
174
     0
175
     0
176
     0
177
     0
178
     0
  0
ENDTAB
  0
ENDSEC
  0
SECTION
  2
BLOCKS
  0
BLOCK
  8
0
  2
$MODEL_SPACE
 70
     0
 10
0.0
 20
0.0
 30
0.0
  3
$MODEL_SPACE
  1

  0
ENDBLK
  5
DF
  8
0
  0
BLOCK
 67
     1
  8
0
  2
$PAPER_SPACE
 70
     0
 10
0.0
 20
0.0
 30
0.0
  3
$PAPER_SPACE
  1

  0
ENDBLK
  5
DD
 67
     1
  8
0
  0
ENDSEC
  0
SECTION
  2
ENTITIES
  0
TEXT
  5
1D1
  8
0
 62
     3
 10
0.0
 20
0.0
 30
0.0
 40
10.0
  1
GRL30M5P-F-SUS
  7
STANDARD1
  0
ARC
  5
9A0
  8
2
 10
92.299999999999983
 20
60.699999999999989
 30
0.0
 40
0.3
 50
90.0
 51
180.0
  0
LINE
  5
9A1
  8
2
 10
98.699999999999989
 20
61.0
 30
0.0
 11
92.299999999999983
 21
61.0
 31
0.0
  0
ARC
  5
9A2
  8
2
 10
98.699999999999989
 20
60.699999999999989
 30
0.0
 40
0.3
 50
0.0
 51
90.0
  0
ARC
  5
9A3
  8
2
 10
92.299999999999983
 20
39.300000000000011
 30
0.0
 40
0.3
 50
180.0
 51
270.0
  0
LINE
  5
9A4
  8
2
 10
98.699999999999989
 20
39.0
 30
0.0
 11
92.299999999999983
 21
39.0
 31
0.0
  0
ARC
  5
9A5
  8
2
 10
98.699999999999989
 20
39.300000000000011
 30
0.0
 40
0.3
 50
270.0
 51
0.0
  0
ARC
  5
9A6
  8
2
 10
92.299999999999983
 20
45.699999999999989
 30
0.0
 40
0.3
 50
90.0
 51
180.0
  0
ARC
  5
9A7
  8
2
 10
98.699999999999989
 20
45.699999999999989
 30
0.0
 40
0.3
 50
0.0
 51
90.0
  0
ARC
  5
9A8
  8
2
 10
92.299999999999983
 20
54.300000000000011
 30
0.0
 40
0.3
 50
180.0
 51
270.0
  0
ARC
  5
9A9
  8
2
 10
98.699999999999989
 20
54.300000000000011
 30
0.0
 40
0.3
 50
270.0
 51
0.0
  0
CIRCLE
  5
9AA
  8
2
 10
95.499999999999986
 20
42.5
 30
0.0
 40
1.984499999999999
  0
LINE
  5
9AB
  8
2
 10
93.785869999999989
 20
43.5
 30
0.0
 11
93.337261999999996
 21
43.5
 31
0.0
  0
LINE
  5
9AC
  8
2
 10
93.785869999999989
 20
41.5
 30
0.0
 11
93.337261999999996
 21
41.5
 31
0.0
  0
ARC
  5
9AD
  8
2
 10
95.529999999999987
 20
42.5
 30
0.0
 40
2.0600000000000001
 50
150.9589
 51
209.0411
  0
ARC
  5
9AE
  8
2
 10
95.529999999999987
 20
42.5
 30
0.0
 40
2.4100000000000001
 50
155.48460299999971
 51
204.51539700000029
  0
LINE
  5
9AF
  8
2
 10
97.214129999999983
 20
43.5
 30
0.0
 11
97.662737999999976
 21
43.5
 31
0.0
  0
LINE
  5
9B0
  8
2
 10
97.214129999999983
 20
41.5
 30
0.0
 11
97.662737999999976
 21
41.5
 31
0.0
  0
ARC
  5
9B1
  8
2
 10
95.469999999999985
 20
42.5
 30
0.0
 40
2.0600000000000001
 50
330.95890000000003
 51
29.041100000000029
  0
ARC
  5
9B2
  8
2
 10
95.469999999999985
 20
42.5
 30
0.0
 40
2.4100000000000001
 50
335.48460299999971
 51
24.515397000000291
  0
LINE
  5
9B3
  8
2
 10
91.999999999999986
 20
40.485000000000007
 30
0.0
 11
92.299999999999983
 21
40.485000000000007
 31
0.0
  0
LINE
  5
9B4
  8
2
 10
92.59999999999998
 20
40.409999999999989
 30
0.0
 11
92.299999999999983
 21
40.409999999999989
 31
0.0
  0
LINE
  5
9B5
  8
2
 10
91.999999999999986
 20
44.75
 30
0.0
 11
92.699999999999989
 21
44.75
 31
0.0
  0
LINE
  5
9B6
  8
2
 10
92.299999999999983
 20
44.649999999999999
 30
0.0
 11
92.59999999999998
 21
44.649999999999999
 31
0.0
  0
LINE
  5
9B7
  8
2
 10
92.699999999999989
 20
43.93
 30
0.0
 11
94.124012999999991
 21
43.93
 31
0.0
  0
LINE
  5
9B8
  8
2
 10
92.699999999999989
 20
44.75
 30
0.0
 11
92.699999999999989
 21
43.93
 31
0.0
  0
LINE
  5
9B9
  8
2
 10
92.59999999999998
 20
40.485000000000007
 30
0.0
 11
92.899999999999991
 21
40.485000000000007
 31
0.0
  0
LINE
  5
9BA
  8
2
 10
92.299999999999983
 20
40.909999999999997
 30
0.0
 11
92.299999999999983
 21
40.409999999999989
 31
0.0
  0
LINE
  5
9BB
  8
2
 10
92.59999999999998
 20
40.909999999999997
 30
0.0
 11
92.299999999999983
 21
40.909999999999997
 31
0.0
  0
LINE
  5
9BC
  8
2
 10
92.59999999999998
 20
40.409999999999989
 30
0.0
 11
92.59999999999998
 21
40.909999999999997
 31
0.0
  0
LINE
  5
9BD
  8
2
 10
92.299999999999983
 20
41.209999999999972
 30
0.0
 11
92.59999999999998
 21
40.909999999999997
 31
0.0
  0
LINE
  5
9BE
  8
2
 10
92.299999999999983
 20
41.209999999999972
 30
0.0
 11
92.299999999999983
 21
44.649999999999999
 31
0.0
  0
LINE
  5
9BF
  8
2
 10
92.899999999999991
 20
41.034264
 30
0.0
 11
92.59999999999998
 21
41.334264000000019
 31
0.0
  0
LINE
  5
9C0
  8
2
 10
92.59999999999998
 20
41.334264000000019
 30
0.0
 11
92.59999999999998
 21
44.649999999999999
 31
0.0
  0
LINE
  5
9C1
  8
2
 10
92.899999999999991
 20
40.485000000000007
 30
0.0
 11
92.899999999999991
 21
41.034264
 31
0.0
  0
LINE
  5
9C2
  8
2
 10
92.899999999999991
 20
41.0
 30
0.0
 11
94.200676999999985
 21
41.0
 31
0.0
  0
LINE
  5
9C3
  8
2
 10
98.999999999999986
 20
40.485000000000007
 30
0.0
 11
98.699999999999989
 21
40.485000000000007
 31
0.0
  0
LINE
  5
9C4
  8
2
 10
98.399999999999991
 20
40.409999999999989
 30
0.0
 11
98.699999999999989
 21
40.409999999999989
 31
0.0
  0
LINE
  5
9C5
  8
2
 10
98.999999999999986
 20
44.75
 30
0.0
 11
98.299999999999983
 21
44.75
 31
0.0
  0
LINE
  5
9C6
  8
2
 10
98.699999999999989
 20
44.649999999999999
 30
0.0
 11
98.399999999999991
 21
44.649999999999999
 31
0.0
  0
LINE
  5
9C7
  8
2
 10
98.299999999999983
 20
44.75
 30
0.0
 11
98.299999999999983
 21
43.93
 31
0.0
  0
LINE
  5
9C8
  8
2
 10
98.399999999999991
 20
40.485000000000007
 30
0.0
 11
98.09999999999998
 21
40.485000000000007
 31
0.0
  0
LINE
  5
9C9
  8
2
 10
98.699999999999989
 20
40.909999999999997
 30
0.0
 11
98.699999999999989
 21
40.409999999999989
 31
0.0
  0
LINE
  5
9CA
  8
2
 10
98.399999999999991
 20
40.909999999999997
 30
0.0
 11
98.699999999999989
 21
40.909999999999997
 31
0.0
  0
LINE
  5
9CB
  8
2
 10
98.399999999999991
 20
40.409999999999989
 30
0.0
 11
98.399999999999991
 21
40.909999999999997
 31
0.0
  0
LINE
  5
9CC
  8
2
 10
98.699999999999989
 20
41.209999999999972
 30
0.0
 11
98.399999999999991
 21
40.909999999999997
 31
0.0
  0
LINE
  5
9CD
  8
2
 10
98.699999999999989
 20
41.209999999999972
 30
0.0
 11
98.699999999999989
 21
44.649999999999999
 31
0.0
  0
LINE
  5
9CE
  8
2
 10
98.09999999999998
 20
41.034264
 30
0.0
 11
98.399999999999991
 21
41.334264000000019
 31
0.0
  0
LINE
  5
9CF
  8
2
 10
98.399999999999991
 20
41.334264000000019
 30
0.0
 11
98.399999999999991
 21
44.649999999999999
 31
0.0
  0
LINE
  5
9D0
  8
2
 10
98.09999999999998
 20
40.485000000000007
 30
0.0
 11
98.09999999999998
 21
41.034264
 31
0.0
  0
LINE
  5
9D1
  8
2
 10
96.875986999999981
 20
43.93
 30
0.0
 11
98.299999999999983
 21
43.93
 31
0.0
  0
LINE
  5
9D2
  8
2
 10
96.799322999999987
 20
41.0
 30
0.0
 11
98.09999999999998
 21
41.0
 31
0.0
  0
CIRCLE
  5
9D3
  8
2
 10
95.499999999999986
 20
57.5
 30
0.0
 40
1.984499999999999
  0
LINE
  5
9D4
  8
2
 10
93.785869999999989
 20
56.5
 30
0.0
 11
93.337261999999996
 21
56.5
 31
0.0
  0
LINE
  5
9D5
  8
2
 10
93.785869999999989
 20
58.5
 30
0.0
 11
93.337261999999996
 21
58.5
 31
0.0
  0
ARC
  5
9D6
  8
2
 10
95.529999999999987
 20
57.5
 30
0.0
 40
2.0600000000000001
 50
150.9589
 51
209.0411
  0
ARC
  5
9D7
  8
2
 10
95.529999999999987
 20
57.5
 30
0.0
 40
2.4100000000000001
 50
155.48460299999971
 51
204.51539700000029
  0
LINE
  5
9D8
  8
2
 10
97.214129999999983
 20
56.5
 30
0.0
 11
97.662737999999976
 21
56.5
 31
0.0
  0
LINE
  5
9D9
  8
2
 10
97.214129999999983
 20
58.5
 30
0.0
 11
97.662737999999976
 21
58.5
 31
0.0
  0
ARC
  5
9DA
  8
2
 10
95.469999999999985
 20
57.5
 30
0.0
 40
2.0600000000000001
 50
330.95890000000003
 51
29.041100000000029
  0
ARC
  5
9DB
  8
2
 10
95.469999999999985
 20
57.5
 30
0.0
 40
2.4100000000000001
 50
335.48460299999971
 51
24.515397000000291
  0
LINE
  5
9DC
  8
2
 10
91.999999999999986
 20
59.514999999999993
 30
0.0
 11
92.299999999999983
 21
59.514999999999993
 31
0.0
  0
LINE
  5
9DD
  8
2
 10
92.59999999999998
 20
59.590000000000003
 30
0.0
 11
92.299999999999983
 21
59.590000000000003
 31
0.0
  0
LINE
  5
9DE
  8
2
 10
91.999999999999986
 20
55.25
 30
0.0
 11
92.699999999999989
 21
55.25
 31
0.0
  0
LINE
  5
9DF
  8
2
 10
92.299999999999983
 20
55.350000000000001
 30
0.0
 11
92.59999999999998
 21
55.350000000000001
 31
0.0
  0
LINE
  5
9E0
  8
2
 10
92.699999999999989
 20
56.069999999999993
 30
0.0
 11
94.124012999999991
 21
56.069999999999993
 31
0.0
  0
LINE
  5
9E1
  8
2
 10
92.699999999999989
 20
55.25
 30
0.0
 11
92.699999999999989
 21
56.069999999999993
 31
0.0
  0
LINE
  5
9E2
  8
2
 10
92.59999999999998
 20
59.514999999999993
 30
0.0
 11
92.899999999999991
 21
59.514999999999993
 31
0.0
  0
LINE
  5
9E3
  8
2
 10
92.299999999999983
 20
59.090000000000003
 30
0.0
 11
92.299999999999983
 21
59.590000000000003
 31
0.0
  0
LINE
  5
9E4
  8
2
 10
92.59999999999998
 20
59.090000000000003
 30
0.0
 11
92.299999999999983
 21
59.090000000000003
 31
0.0
  0
LINE
  5
9E5
  8
2
 10
92.59999999999998
 20
59.590000000000003
 30
0.0
 11
92.59999999999998
 21
59.090000000000003
 31
0.0
  0
LINE
  5
9E6
  8
2
 10
92.299999999999983
 20
58.79000000000002
 30
0.0
 11
92.59999999999998
 21
59.090000000000003
 31
0.0
  0
LINE
  5
9E7
  8
2
 10
92.299999999999983
 20
58.79000000000002
 30
0.0
 11
92.299999999999983
 21
55.350000000000001
 31
0.0
  0
LINE
  5
9E8
  8
2
 10
92.899999999999991
 20
58.965735999999993
 30
0.0
 11
92.59999999999998
 21
58.665735999999981
 31
0.0
  0
LINE
  5
9E9
  8
2
 10
92.59999999999998
 20
58.665735999999981
 30
0.0
 11
92.59999999999998
 21
55.350000000000001
 31
0.0
  0
LINE
  5
9EA
  8
2
 10
92.899999999999991
 20
59.514999999999993
 30
0.0
 11
92.899999999999991
 21
58.965735999999993
 31
0.0
  0
LINE
  5
9EB
  8
2
 10
92.899999999999991
 20
59.0
 30
0.0
 11
94.200676999999985
 21
59.0
 31
0.0
  0
LINE
  5
9EC
  8
2
 10
98.999999999999986
 20
59.514999999999993
 30
0.0
 11
98.699999999999989
 21
59.514999999999993
 31
0.0
  0
LINE
  5
9ED
  8
2
 10
98.399999999999991
 20
59.590000000000003
 30
0.0
 11
98.699999999999989
 21
59.590000000000003
 31
0.0
  0
LINE
  5
9EE
  8
2
 10
98.999999999999986
 20
55.25
 30
0.0
 11
98.299999999999983
 21
55.25
 31
0.0
  0
LINE
  5
9EF
  8
2
 10
98.699999999999989
 20
55.350000000000001
 30
0.0
 11
98.399999999999991
 21
55.350000000000001
 31
0.0
  0
LINE
  5
9F0
  8
2
 10
98.299999999999983
 20
55.25
 30
0.0
 11
98.299999999999983
 21
56.069999999999993
 31
0.0
  0
LINE
  5
9F1
  8
2
 10
98.399999999999991
 20
59.514999999999993
 30
0.0
 11
98.09999999999998
 21
59.514999999999993
 31
0.0
  0
LINE
  5
9F2
  8
2
 10
98.699999999999989
 20
59.090000000000003
 30
0.0
 11
98.699999999999989
 21
59.590000000000003
 31
0.0
  0
LINE
  5
9F3
  8
2
 10
98.399999999999991
 20
59.090000000000003
 30
0.0
 11
98.699999999999989
 21
59.090000000000003
 31
0.0
  0
LINE
  5
9F4
  8
2
 10
98.399999999999991
 20
59.590000000000003
 30
0.0
 11
98.399999999999991
 21
59.090000000000003
 31
0.0
  0
LINE
  5
9F5
  8
2
 10
98.699999999999989
 20
58.79000000000002
 30
0.0
 11
98.399999999999991
 21
59.090000000000003
 31
0.0
  0
LINE
  5
9F6
  8
2
 10
98.699999999999989
 20
58.79000000000002
 30
0.0
 11
98.699999999999989
 21
55.350000000000001
 31
0.0
  0
LINE
  5
9F7
  8
2
 10
98.09999999999998
 20
58.965735999999993
 30
0.0
 11
98.399999999999991
 21
58.665735999999981
 31
0.0
  0
LINE
  5
9F8
  8
2
 10
98.399999999999991
 20
58.665735999999981
 30
0.0
 11
98.399999999999991
 21
55.350000000000001
 31
0.0
  0
LINE
  5
9F9
  8
2
 10
98.09999999999998
 20
59.514999999999993
 30
0.0
 11
98.09999999999998
 21
58.965735999999993
 31
0.0
  0
LINE
  5
9FA
  8
2
 10
96.875986999999981
 20
56.069999999999993
 30
0.0
 11
98.299999999999983
 21
56.069999999999993
 31
0.0
  0
LINE
  5
9FB
  8
2
 10
96.799322999999987
 20
59.0
 30
0.0
 11
98.09999999999998
 21
59.0
 31
0.0
  0
LINE
  5
9FC
  8
2
 10
91.999999999999986
 20
39.75
 30
0.0
 11
90.999999999999986
 21
39.75
 31
0.0
  0
LINE
  5
9FD
  8
2
 10
98.999999999999986
 20
39.75
 30
0.0
 11
100.0
 21
39.75
 31
0.0
  0
LINE
  5
9FE
  8
2
 10
91.999999999999986
 20
60.25
 30
0.0
 11
90.999999999999986
 21
60.25
 31
0.0
  0
LINE
  5
9FF
  8
2
 10
98.999999999999986
 20
60.25
 30
0.0
 11
100.0
 21
60.25
 31
0.0
  0
LINE
  5
A00
  8
0
 10
90.999999999999986
 20
35.199999999999989
 30
0.0
 11
91.199999999999989
 21
35.0
 31
0.0
  0
LINE
  5
A01
  8
0
 10
99.799999999999983
 20
35.0
 30
0.0
 11
91.199999999999989
 21
35.0
 31
0.0
  0
LINE
  5
A02
  8
0
 10
99.799999999999983
 20
35.0
 30
0.0
 11
100.0
 21
35.199999999999989
 31
0.0
  0
LINE
  5
A03
  8
0
 10
90.999999999999986
 20
64.800000000000011
 30
0.0
 11
90.999999999999986
 21
35.199999999999989
 31
0.0
  0
LINE
  5
A04
  8
0
 10
90.999999999999986
 20
64.800000000000011
 30
0.0
 11
91.199999999999989
 21
65.0
 31
0.0
  0
LINE
  5
A05
  8
0
 10
99.799999999999983
 20
65.0
 30
0.0
 11
100.0
 21
64.800000000000011
 31
0.0
  0
LINE
  5
A06
  8
0
 10
99.799999999999983
 20
65.0
 30
0.0
 11
91.199999999999989
 21
65.0
 31
0.0
  0
LINE
  5
A0C
  8
2
 10
91.999999999999986
 20
60.699999999999989
 30
0.0
 11
91.999999999999986
 21
54.0
 31
0.0
  0
LINE
  5
A0D
  8
2
 10
91.999999999999986
 20
46.0
 30
0.0
 11
91.999999999999986
 21
39.300000000000011
 31
0.0
  0
LINE
  5
A0E
  8
0
 10
100.0
 20
64.800000000000011
 30
0.0
 11
100.0
 21
35.199999999999989
 31
0.0
  0
LINE
  5
A0F
  8
2
 10
91.699999999999989
 20
54.0
 30
0.0
 11
91.699999999999989
 21
46.0
 31
0.0
  0
LINE
  5
A10
  8
2
 10
91.699999999999989
 20
46.0
 30
0.0
 11
98.999999999999986
 21
46.0
 31
0.0
  0
LINE
  5
A11
  8
2
 10
91.699999999999989
 20
54.0
 30
0.0
 11
98.999999999999986
 21
54.0
 31
0.0
  0
LINE
  5
A12
  8
1
 10
88.0
 20
50.000000000000028
 30
0.0
 11
111.5
 21
49.999999999999972
 31
0.0
  0
LINE
  5
A13
  8
2
 10
98.999999999999986
 20
39.300000000000011
 30
0.0
 11
98.999999999999986
 21
60.699999999999989
 31
0.0
  0
LINE
  5
A25
  8
1
 10
32.0
 20
50.0
 30
0.0
 11
68.0
 21
50.0
 31
0.0
  0
LINE
  5
A26
  8
1
 10
50.0
 20
68.0
 30
0.0
 11
50.0
 21
32.0
 31
0.0
  0
CIRCLE
  5
A27
  8
0
 10
50.0
 20
50.0
 30
0.0
 40
15.0
  0
CIRCLE
  5
A28
  8
0
 10
50.0
 20
50.0
 30
0.0
 40
10.25
  0
CIRCLE
  5
A29
  8
0
 10
50.0
 20
50.0
 30
0.0
 40
4.0
  0
CIRCLE
  5
A2A
  8
2
 10
50.0
 20
50.0
 30
0.0
 40
11.0
  0
CIRCLE
  5
A2B
  8
0
 10
50.0
 20
50.0
 30
0.0
 40
5.25
  0
CIRCLE
  5
A2C
  8
0
 10
50.0
 20
50.0
 30
0.0
 40
9.5149999999999864
  0
CIRCLE
  5
A2D
  8
0
 10
50.0
 20
50.0
 30
0.0
 40
9.0900000000000034
  0
LINE
  5
E68
  8
2
 10
99.0
 20
45.0
 30
0.0
 11
100.0
 21
45.0
 31
0.0
  0
LINE
  5
E69
  8
2
 10
99.0
 20
55.0
 30
0.0
 11
100.0
 21
55.0
 31
0.0
  0
LINE
  5
FAB
  8
0
 10
100.0
 20
45.0
 30
0.0
 11
100.5
 21
45.0
 31
0.0
  0
LINE
  5
FAC
  8
0
 10
100.0
 20
55.0
 30
0.0
 11
100.5
 21
55.0
 31
0.0
  0
LINE
  5
FB1
  8
2
 10
95.199999999999989
 20
52.309401076758498
 30
0.0
 11
95.199999999999989
 21
47.690598923241609
 31
0.0
  0
LINE
  5
FB6
  8
0
 10
100.5
 20
55.0
 30
0.0
 11
100.5
 21
45.0
 31
0.0
  0
LINE
  5
FC2
  8
2
 10
91.699999999999989
 20
52.309401076758498
 30
0.0
 11
95.199999999999989
 21
52.309401076758498
 31
0.0
  0
LINE
  5
FC3
  8
2
 10
91.699999999999989
 20
51.154700538379252
 30
0.0
 11
95.199999999999989
 21
51.154700538379252
 31
0.0
  0
LINE
  5
FC4
  8
2
 10
95.199999999999989
 20
52.309401076758498
 30
0.0
 11
96.533333333333303
 21
50.0
 31
0.0
  0
LINE
  5
FC5
  8
0
 10
108.0
 20
47.499999999999993
 30
0.0
 11
108.5
 21
47.999999999999979
 31
0.0
  0
LINE
  5
FC6
  8
0
 10
108.5
 20
47.999999999999979
 30
0.0
 11
108.5
 21
52.0
 31
0.0
  0
LINE
  5
FC7
  8
0
 10
108.0
 20
52.5
 30
0.0
 11
108.5
 21
52.0
 31
0.0
  0
LINE
  5
FC8
  8
0
 10
102.0
 20
47.5
 30
0.0
 11
102.0
 21
52.5
 31
0.0
  0
LINE
  5
FC9
  8
0
 10
102.0
 20
48.099999999999987
 30
0.0
 11
100.5
 21
48.099999999999987
 31
0.0
  0
LINE
  5
FCA
  8
0
 10
102.0
 20
51.900000000000013
 30
0.0
 11
100.5
 21
51.900000000000013
 31
0.0
  0
LINE
  5
FCB
  8
0
 10
108.0
 20
47.499999999999993
 30
0.0
 11
108.0
 21
52.5
 31
0.0
  0
LINE
  5
FCC
  8
0
 10
102.0
 20
52.5
 30
0.0
 11
108.0
 21
52.5
 31
0.0
  0
LINE
  5
FCD
  8
3
 10
102.0
 20
52.067000000000199
 30
0.0
 11
108.43299999999979
 21
52.067000000000178
 31
0.0
  0
LINE
  5
FCE
  8
3
 10
102.0
 20
47.932999999999787
 30
0.0
 11
108.43299999999979
 21
47.932999999999787
 31
0.0
  0
LINE
  5
FCF
  8
0
 10
102.0
 20
47.5
 30
0.0
 11
108.0
 21
47.499999999999972
 31
0.0
  0
LINE
  5
FD0
  8
2
 10
91.699999999999918
 20
47.690598923241602
 30
0.0
 11
95.199999999999946
 21
47.690598923241502
 31
0.0
  0
LINE
  5
FD1
  8
2
 10
91.699999999999918
 20
48.845299461620861
 30
0.0
 11
95.199999999999946
 21
48.845299461620748
 31
0.0
  0
LINE
  5
FD2
  8
2
 10
95.199999999999946
 20
47.690598923241502
 30
0.0
 11
96.533333333333346
 21
50.0
 31
0.0
  0
LINE
  5
FD3
  8
0
 10
48.0
 20
48.845299461620748
 30
0.0
 11
50.0
 21
47.690598923241502
 31
0.0
  0
LINE
  5
FD4
  8
0
 10
50.0
 20
47.690598923241502
 30
0.0
 11
52.0
 21
48.845299461620748
 31
0.0
  0
LINE
  5
FD5
  8
0
 10
52.0
 20
48.845299461620748
 30
0.0
 11
52.0
 21
51.154700538379252
 31
0.0
  0
LINE
  5
FD6
  8
0
 10
52.0
 20
51.154700538379252
 30
0.0
 11
50.0
 21
52.309401076758498
 31
0.0
  0
LINE
  5
FD7
  8
0
 10
50.0
 20
52.309401076758498
 30
0.0
 11
48.0
 21
51.154700538379252
 31
0.0
  0
LINE
  5
FD8
  8
0
 10
48.0
 20
51.154700538379252
 30
0.0
 11
48.0
 21
48.845299461620748
 31
0.0
  0
ENDSEC
  0
EOF
