  0
SECTION
  2
HEADER
  9
$ACADVER
  1
AC1009
  9
$INSBASE
 10
0.0
 20
0.0
 30
0.0
  9
$EXTMIN
 10
0.0
 20
-2.960436562073669
 30
0.0
  9
$EXTMAX
 10
115.68212824010909
 20
70.5
 30
0.0
  9
$LIMMIN
 10
0.0
 20
0.0
  9
$LIMMAX
 10
187.5
 20
135.0
  9
$ORTHOMODE
 70
     1
  9
$REGENMODE
 70
     1
  9
$FILLMODE
 70
     1
  9
$QTEXTMODE
 70
     0
  9
$MIRRTEXT
 70
     0
  9
$DRAGMODE
 70
     2
  9
$LTSCALE
 40
5.0
  9
$OSMODE
 70
    37
  9
$ATTMODE
 70
     1
  9
$TEXTSIZE
 40
0.2
  9
$TRACEWID
 40
0.05
  9
$TEXTSTYLE
  7
STANDARD
  9
$CLAYER
  8
0
  9
$CELTYPE
  6
BYLAYER
  9
$CECOLOR
 62
   256
  9
$DIMSCALE
 40
0.5
  9
$DIMASZ
 40
3.0
  9
$DIMEXO
 40
2.0
  9
$DIMDLI
 40
0.38
  9
$DIMRND
 40
0.0
  9
$DIMDLE
 40
0.0
  9
$DIMEXE
 40
2.0
  9
$DIMTP
 40
0.0
  9
$DIMTM
 40
0.0
  9
$DIMTXT
 40
3.0
  9
$DIMCEN
 40
0.0
  9
$DIMTSZ
 40
0.0
  9
$DIMTOL
 70
     0
  9
$DIMLIM
 70
     0
  9
$DIMTIH
 70
     0
  9
$DIMTOH
 70
     0
  9
$DIMSE1
 70
     0
  9
$DIMSE2
 70
     0
  9
$DIMTAD
 70
     1
  9
$DIMZIN
 70
     0
  9
$DIMBLK
  1

  9
$DIMASO
 70
     0
  9
$DIMSHO
 70
     0
  9
$DIMPOST
  1

  9
$DIMAPOST
  1

  9
$DIMALT
 70
     0
  9
$DIMALTD
 70
     2
  9
$DIMALTF
 40
25.399999999999999
  9
$DIMLFAC
 40
1.0
  9
$DIMTOFL
 70
     1
  9
$DIMTVP
 40
1.6000000000000001
  9
$DIMTIX
 70
     1
  9
$DIMSOXD
 70
     0
  9
$DIMSAH
 70
     0
  9
$DIMBLK1
  1

  9
$DIMBLK2
  1

  9
$DIMSTYLE
  2
STANDARD
  9
$DIMCLRD
 70
     0
  9
$DIMCLRE
 70
     0
  9
$DIMCLRT
 70
     0
  9
$DIMTFAC
 40
1.0
  9
$DIMGAP
 40
0.09
  9
$LUNITS
 70
     2
  9
$LUPREC
 70
     4
  9
$SKETCHINC
 40
0.1
  9
$FILLETRAD
 40
0.5
  9
$AUNITS
 70
     0
  9
$AUPREC
 70
     4
  9
$MENU
  1
E:\r13\win\SUPPORT\ACAD
  9
$ELEVATION
 40
0.0
  9
$PELEVATION
 40
0.0
  9
$THICKNESS
 40
0.0
  9
$LIMCHECK
 70
     0
  9
$BLIPMODE
 70
     0
  9
$CHAMFERA
 40
0.0
  9
$CHAMFERB
 40
0.0
  9
$SKPOLY
 70
     0
  9
$TDCREATE
 40
2449840.6116550928
  9
$TDUPDATE
 40
2456769.6699418058
  9
$TDINDWG
 40
0.0120300347
  9
$TDUSRTIMER
 40
0.0120300347
  9
$USRTIMER
 70
     1
  9
$ANGBASE
 50
0.0
  9
$ANGDIR
 70
     0
  9
$PDMODE
 70
     0
  9
$PDSIZE
 40
0.0
  9
$PLINEWID
 40
0.0
  9
$COORDS
 70
     1
  9
$SPLFRAME
 70
     0
  9
$SPLINETYPE
 70
     6
  9
$SPLINESEGS
 70
     8
  9
$ATTDIA
 70
     0
  9
$ATTREQ
 70
     1
  9
$HANDLING
 70
     1
  9
$HANDSEED
  5
961
  9
$SURFTAB1
 70
     6
  9
$SURFTAB2
 70
     6
  9
$SURFTYPE
 70
     6
  9
$SURFU
 70
     6
  9
$SURFV
 70
     6
  9
$UCSNAME
  2

  9
$UCSORG
 10
0.0
 20
0.0
 30
0.0
  9
$UCSXDIR
 10
1.0
 20
0.0
 30
0.0
  9
$UCSYDIR
 10
0.0
 20
1.0
 30
0.0
  9
$PUCSNAME
  2

  9
$PUCSORG
 10
0.0
 20
0.0
 30
0.0
  9
$PUCSXDIR
 10
1.0
 20
0.0
 30
0.0
  9
$PUCSYDIR
 10
0.0
 20
1.0
 30
0.0
  9
$USERI1
 70
     3
  9
$USERI2
 70
     1
  9
$USERI3
 70
     0
  9
$USERI4
 70
     0
  9
$USERI5
 70
     0
  9
$USERR1
 40
0.5
  9
$USERR2
 40
3.0
  9
$USERR3
 40
3.0
  9
$USERR4
 40
3.0
  9
$USERR5
 40
10.0
  9
$WORLDVIEW
 70
     1
  9
$SHADEDGE
 70
     3
  9
$SHADEDIF
 70
    70
  9
$TILEMODE
 70
     1
  9
$MAXACTVP
 70
    16
  9
$PLIMCHECK
 70
     0
  9
$PEXTMIN
 10
1.0000000000000000E+020
 20
1.0000000000000000E+020
 30
1.0000000000000000E+020
  9
$PEXTMAX
 10
-1.0000000000000000E+020
 20
-1.0000000000000000E+020
 30
-1.0000000000000000E+020
  9
$PLIMMIN
 10
0.0
 20
0.0
  9
$PLIMMAX
 10
12.0
 20
9.0
  9
$UNITMODE
 70
     0
  9
$VISRETAIN
 70
     0
  9
$PLINEGEN
 70
     0
  9
$PSLTSCALE
 70
     0
  0
ENDSEC
  0
SECTION
  2
TABLES
  0
TABLE
  2
VPORT
 70
     1
  0
VPORT
  2
*ACTIVE
 70
     0
 10
0.0
 20
0.0
 11
1.0
 21
1.0
 12
82.37702399197326
 22
47.194237695078037
 13
0.0
 23
0.0
 14
5.0
 24
5.0
 15
10.0
 25
10.0
 16
0.0
 26
0.0
 36
1.0
 17
0.0
 27
0.0
 37
0.0
 40
94.395630253007354
 41
1.7454798331015291
 42
50.0
 43
0.0
 44
0.0
 50
0.0
 51
0.0
 71
     0
 72
   100
 73
     1
 74
     0
 75
     0
 76
     0
 77
     0
 78
     0
  0
ENDTAB
  0
TABLE
  2
LTYPE
 70
     4
  0
LTYPE
  2
CONTINUOUS
 70
     0
  3
Solid Line
 72
    65
 73
     0
 40
0.0
  0
LTYPE
  2
CENTER
 70
     0
  3
____ _ ____ _ ____ _ ____ _ ____ _ ____ _ ____
 72
    65
 73
     4
 40
2.0
 49
1.25
 49
-0.25
 49
0.25
 49
-0.25
  0
LTYPE
  2
HIDDEN
 70
     0
  3
_ _ _ _ _ _ _ _ _ _ _ _ _ _ _ _ _ _ _ _ _ _ _
 72
    65
 73
     2
 40
0.375
 49
0.25
 49
-0.125
  0
LTYPE
  2
PHANTOM2
 70
     0
  3
___ _ _ ___ _ _ ___ _ _ ___ _ _
 72
    65
 73
     6
 40
1.25
 49
0.625
 49
-0.125
 49
0.125
 49
-0.125
 49
0.125
 49
-0.125
  0
ENDTAB
  0
TABLE
  2
LAYER
 70
     4
  0
LAYER
  2
0
 70
     0
 62
     7
  6
CONTINUOUS
  0
LAYER
  2
1
 70
     0
 62
     1
  6
CENTER
  0
LAYER
  2
2
 70
     0
 62
     2
  6
HIDDEN
  0
LAYER
  2
DEFPOINTS
 70
     0
 62
     7
  6
CONTINUOUS
  0
ENDTAB
  0
TABLE
  2
STYLE
 70
     2
  0
STYLE
  2
STANDARD
 70
     0
 40
0.0
 41
1.0
 50
0.0
 71
     0
 42
0.2
  3
TXT
  4
BIGFONT
  0
STYLE
  2
STANDARD1
 70
     0
 40
0.0
 41
1.0
 50
0.0
 71
     0
 42
3.0
  3
txt
  4

  0
ENDTAB
  0
TABLE
  2
VIEW
 70
     0
  0
ENDTAB
  0
TABLE
  2
UCS
 70
     0
  0
ENDTAB
  0
TABLE
  2
APPID
 70
     4
  0
APPID
  2
ACAD
 70
     0
  0
APPID
  2
ACAD_MLEADERVER
 70
     0
  0
APPID
  2
ACAD_NAV_VCDISPLAY
 70
     0
  0
APPID
  2
ACAD_EXEMPT_FROM_CAD_STANDARDS
 70
     0
  0
ENDTAB
  0
TABLE
  2
DIMSTYLE
 70
     1
  0
DIMSTYLE
  2
STANDARD
 70
     0
  3

  4

  5

  6

  7

 40
1.0
 41
0.18
 42
0.0625
 43
0.38
 44
0.18
 45
0.0
 46
0.0
 47
0.0
 48
0.0
140
0.18
141
0.09
142
0.0
143
25.399999999999999
144
1.0
145
0.0
146
1.0
147
0.09
 71
     0
 72
     0
 73
     1
 74
     1
 75
     0
 76
     0
 77
     0
 78
     0
170
     0
171
     2
172
     0
173
     0
174
     0
175
     0
176
     0
177
     0
178
     0
  0
ENDTAB
  0
ENDSEC
  0
SECTION
  2
BLOCKS
  0
BLOCK
  8
0
  2
$MODEL_SPACE
 70
     0
 10
0.0
 20
0.0
 30
0.0
  3
$MODEL_SPACE
  1

  0
ENDBLK
  5
DF
  8
0
  0
BLOCK
 67
     1
  8
0
  2
$PAPER_SPACE
 70
     0
 10
0.0
 20
0.0
 30
0.0
  3
$PAPER_SPACE
  1

  0
ENDBLK
  5
DD
 67
     1
  8
0
  0
ENDSEC
  0
SECTION
  2
ENTITIES
  0
TEXT
  5
1D1
  8
0
 62
     3
 10
0.0
 20
0.0
 30
0.0
 40
10.0
  1
GRL3508P-F-SUS
  7
STANDARD1
  0
ARC
  5
6EE
  8
2
 10
96.799999999999983
 20
60.699999999999989
 30
0.0
 40
0.3
 50
90.0
 51
180.0
  0
LINE
  5
6EF
  8
2
 10
103.2
 20
61.0
 30
0.0
 11
96.799999999999983
 21
61.0
 31
0.0
  0
ARC
  5
6F0
  8
2
 10
103.2
 20
60.699999999999989
 30
0.0
 40
0.3
 50
0.0
 51
90.0
  0
ARC
  5
6F1
  8
2
 10
96.799999999999983
 20
39.300000000000011
 30
0.0
 40
0.3
 50
180.0
 51
270.0
  0
LINE
  5
6F2
  8
2
 10
103.2
 20
39.0
 30
0.0
 11
96.799999999999983
 21
39.0
 31
0.0
  0
ARC
  5
6F3
  8
2
 10
103.2
 20
39.300000000000011
 30
0.0
 40
0.3
 50
270.0
 51
0.0
  0
ARC
  5
6F4
  8
2
 10
96.799999999999983
 20
45.699999999999989
 30
0.0
 40
0.3
 50
90.0
 51
180.0
  0
ARC
  5
6F5
  8
2
 10
103.2
 20
45.699999999999989
 30
0.0
 40
0.3
 50
0.0
 51
90.0
  0
ARC
  5
6F6
  8
2
 10
96.799999999999983
 20
54.300000000000011
 30
0.0
 40
0.3
 50
180.0
 51
270.0
  0
ARC
  5
6F7
  8
2
 10
103.2
 20
54.300000000000011
 30
0.0
 40
0.3
 50
270.0
 51
0.0
  0
CIRCLE
  5
6F8
  8
2
 10
99.999999999999986
 20
42.5
 30
0.0
 40
1.984499999999999
  0
LINE
  5
6F9
  8
2
 10
98.285869999999974
 20
43.5
 30
0.0
 11
97.837261999999981
 21
43.5
 31
0.0
  0
LINE
  5
6FA
  8
2
 10
98.285869999999974
 20
41.5
 30
0.0
 11
97.837261999999981
 21
41.5
 31
0.0
  0
ARC
  5
6FB
  8
2
 10
100.0299999999999
 20
42.5
 30
0.0
 40
2.0600000000000001
 50
150.95889999999989
 51
209.0411
  0
ARC
  5
6FC
  8
2
 10
100.0299999999999
 20
42.5
 30
0.0
 40
2.4100000000000001
 50
155.48460299999971
 51
204.51539700000029
  0
LINE
  5
6FD
  8
2
 10
101.71413
 20
43.5
 30
0.0
 11
102.16273799999991
 21
43.5
 31
0.0
  0
LINE
  5
6FE
  8
2
 10
101.71413
 20
41.5
 30
0.0
 11
102.16273799999991
 21
41.5
 31
0.0
  0
ARC
  5
6FF
  8
2
 10
99.969999999999985
 20
42.5
 30
0.0
 40
2.0600000000000001
 50
330.95890000000003
 51
29.041099999999961
  0
ARC
  5
700
  8
2
 10
99.969999999999985
 20
42.5
 30
0.0
 40
2.4100000000000001
 50
335.48460299999971
 51
24.515397000000299
  0
LINE
  5
701
  8
2
 10
96.499999999999986
 20
40.485000000000007
 30
0.0
 11
96.799999999999983
 21
40.485000000000007
 31
0.0
  0
LINE
  5
702
  8
2
 10
97.099999999999966
 20
40.409999999999989
 30
0.0
 11
96.799999999999983
 21
40.409999999999989
 31
0.0
  0
LINE
  5
703
  8
2
 10
96.499999999999986
 20
44.75
 30
0.0
 11
97.199999999999974
 21
44.75
 31
0.0
  0
LINE
  5
704
  8
2
 10
96.799999999999983
 20
44.649999999999999
 30
0.0
 11
97.099999999999966
 21
44.649999999999999
 31
0.0
  0
LINE
  5
705
  8
2
 10
97.199999999999974
 20
43.93
 30
0.0
 11
98.624013000000005
 21
43.93
 31
0.0
  0
LINE
  5
706
  8
2
 10
97.199999999999974
 20
44.75
 30
0.0
 11
97.199999999999974
 21
43.93
 31
0.0
  0
LINE
  5
707
  8
2
 10
97.099999999999966
 20
40.485000000000007
 30
0.0
 11
97.399999999999977
 21
40.485000000000007
 31
0.0
  0
LINE
  5
708
  8
2
 10
96.799999999999983
 20
40.909999999999997
 30
0.0
 11
96.799999999999983
 21
40.409999999999989
 31
0.0
  0
LINE
  5
709
  8
2
 10
97.099999999999966
 20
40.909999999999997
 30
0.0
 11
96.799999999999983
 21
40.909999999999997
 31
0.0
  0
LINE
  5
70A
  8
2
 10
97.099999999999966
 20
40.409999999999989
 30
0.0
 11
97.099999999999966
 21
40.909999999999997
 31
0.0
  0
LINE
  5
70B
  8
2
 10
96.799999999999983
 20
41.209999999999972
 30
0.0
 11
97.099999999999966
 21
40.909999999999997
 31
0.0
  0
LINE
  5
70C
  8
2
 10
96.799999999999983
 20
41.209999999999972
 30
0.0
 11
96.799999999999983
 21
44.649999999999999
 31
0.0
  0
LINE
  5
70D
  8
2
 10
97.399999999999977
 20
41.034264
 30
0.0
 11
97.099999999999966
 21
41.334264000000019
 31
0.0
  0
LINE
  5
70E
  8
2
 10
97.099999999999966
 20
41.334264000000019
 30
0.0
 11
97.099999999999966
 21
44.649999999999999
 31
0.0
  0
LINE
  5
70F
  8
2
 10
97.399999999999977
 20
40.485000000000007
 30
0.0
 11
97.399999999999977
 21
41.034264
 31
0.0
  0
LINE
  5
710
  8
2
 10
97.399999999999977
 20
41.0
 30
0.0
 11
98.700676999999985
 21
41.0
 31
0.0
  0
LINE
  5
711
  8
2
 10
103.4999999999999
 20
40.485000000000007
 30
0.0
 11
103.2
 21
40.485000000000007
 31
0.0
  0
LINE
  5
712
  8
2
 10
102.89999999999991
 20
40.409999999999989
 30
0.0
 11
103.2
 21
40.409999999999989
 31
0.0
  0
LINE
  5
713
  8
2
 10
103.4999999999999
 20
44.75
 30
0.0
 11
102.8
 21
44.75
 31
0.0
  0
LINE
  5
714
  8
2
 10
103.2
 20
44.649999999999999
 30
0.0
 11
102.89999999999991
 21
44.649999999999999
 31
0.0
  0
LINE
  5
715
  8
2
 10
102.8
 20
44.75
 30
0.0
 11
102.8
 21
43.93
 31
0.0
  0
LINE
  5
716
  8
2
 10
102.89999999999991
 20
40.485000000000007
 30
0.0
 11
102.59999999999989
 21
40.485000000000007
 31
0.0
  0
LINE
  5
717
  8
2
 10
103.2
 20
40.909999999999997
 30
0.0
 11
103.2
 21
40.409999999999989
 31
0.0
  0
LINE
  5
718
  8
2
 10
102.89999999999991
 20
40.909999999999997
 30
0.0
 11
103.2
 21
40.909999999999997
 31
0.0
  0
LINE
  5
719
  8
2
 10
102.89999999999991
 20
40.409999999999989
 30
0.0
 11
102.89999999999991
 21
40.909999999999997
 31
0.0
  0
LINE
  5
71A
  8
2
 10
103.2
 20
41.209999999999972
 30
0.0
 11
102.89999999999991
 21
40.909999999999997
 31
0.0
  0
LINE
  5
71B
  8
2
 10
103.2
 20
41.209999999999972
 30
0.0
 11
103.2
 21
44.649999999999999
 31
0.0
  0
LINE
  5
71C
  8
2
 10
102.59999999999989
 20
41.034264
 30
0.0
 11
102.89999999999991
 21
41.334264000000019
 31
0.0
  0
LINE
  5
71D
  8
2
 10
102.89999999999991
 20
41.334264000000019
 30
0.0
 11
102.89999999999991
 21
44.649999999999999
 31
0.0
  0
LINE
  5
71E
  8
2
 10
102.59999999999989
 20
40.485000000000007
 30
0.0
 11
102.59999999999989
 21
41.034264
 31
0.0
  0
LINE
  5
71F
  8
2
 10
101.37598699999999
 20
43.93
 30
0.0
 11
102.8
 21
43.93
 31
0.0
  0
LINE
  5
720
  8
2
 10
101.299323
 20
41.0
 30
0.0
 11
102.59999999999989
 21
41.0
 31
0.0
  0
CIRCLE
  5
721
  8
2
 10
99.999999999999986
 20
57.5
 30
0.0
 40
1.984499999999999
  0
LINE
  5
722
  8
2
 10
98.285869999999974
 20
56.5
 30
0.0
 11
97.837261999999981
 21
56.5
 31
0.0
  0
LINE
  5
723
  8
2
 10
98.285869999999974
 20
58.5
 30
0.0
 11
97.837261999999981
 21
58.5
 31
0.0
  0
ARC
  5
724
  8
2
 10
100.0299999999999
 20
57.5
 30
0.0
 40
2.0600000000000001
 50
150.95889999999989
 51
209.0411
  0
ARC
  5
725
  8
2
 10
100.0299999999999
 20
57.5
 30
0.0
 40
2.4100000000000001
 50
155.48460299999971
 51
204.51539700000029
  0
LINE
  5
726
  8
2
 10
101.71413
 20
56.5
 30
0.0
 11
102.16273799999991
 21
56.5
 31
0.0
  0
LINE
  5
727
  8
2
 10
101.71413
 20
58.5
 30
0.0
 11
102.16273799999991
 21
58.5
 31
0.0
  0
ARC
  5
728
  8
2
 10
99.969999999999985
 20
57.5
 30
0.0
 40
2.0600000000000001
 50
330.95890000000003
 51
29.041099999999961
  0
ARC
  5
729
  8
2
 10
99.969999999999985
 20
57.5
 30
0.0
 40
2.4100000000000001
 50
335.48460299999971
 51
24.515397000000299
  0
LINE
  5
72A
  8
2
 10
96.499999999999986
 20
59.514999999999993
 30
0.0
 11
96.799999999999983
 21
59.514999999999993
 31
0.0
  0
LINE
  5
72B
  8
2
 10
97.099999999999966
 20
59.590000000000003
 30
0.0
 11
96.799999999999983
 21
59.590000000000003
 31
0.0
  0
LINE
  5
72C
  8
2
 10
96.499999999999986
 20
55.25
 30
0.0
 11
97.199999999999974
 21
55.25
 31
0.0
  0
LINE
  5
72D
  8
2
 10
96.799999999999983
 20
55.350000000000001
 30
0.0
 11
97.099999999999966
 21
55.350000000000001
 31
0.0
  0
LINE
  5
72E
  8
2
 10
97.199999999999974
 20
56.069999999999993
 30
0.0
 11
98.624013000000005
 21
56.069999999999993
 31
0.0
  0
LINE
  5
72F
  8
2
 10
97.199999999999974
 20
55.25
 30
0.0
 11
97.199999999999974
 21
56.069999999999993
 31
0.0
  0
LINE
  5
730
  8
2
 10
97.099999999999966
 20
59.514999999999993
 30
0.0
 11
97.399999999999977
 21
59.514999999999993
 31
0.0
  0
LINE
  5
731
  8
2
 10
96.799999999999983
 20
59.090000000000003
 30
0.0
 11
96.799999999999983
 21
59.590000000000003
 31
0.0
  0
LINE
  5
732
  8
2
 10
97.099999999999966
 20
59.090000000000003
 30
0.0
 11
96.799999999999983
 21
59.090000000000003
 31
0.0
  0
LINE
  5
733
  8
2
 10
97.099999999999966
 20
59.590000000000003
 30
0.0
 11
97.099999999999966
 21
59.090000000000003
 31
0.0
  0
LINE
  5
734
  8
2
 10
96.799999999999983
 20
58.79000000000002
 30
0.0
 11
97.099999999999966
 21
59.090000000000003
 31
0.0
  0
LINE
  5
735
  8
2
 10
96.799999999999983
 20
58.79000000000002
 30
0.0
 11
96.799999999999983
 21
55.350000000000001
 31
0.0
  0
LINE
  5
736
  8
2
 10
97.399999999999977
 20
58.965735999999993
 30
0.0
 11
97.099999999999966
 21
58.665735999999981
 31
0.0
  0
LINE
  5
737
  8
2
 10
97.099999999999966
 20
58.665735999999981
 30
0.0
 11
97.099999999999966
 21
55.350000000000001
 31
0.0
  0
LINE
  5
738
  8
2
 10
97.399999999999977
 20
59.514999999999993
 30
0.0
 11
97.399999999999977
 21
58.965735999999993
 31
0.0
  0
LINE
  5
739
  8
2
 10
97.399999999999977
 20
59.0
 30
0.0
 11
98.700676999999985
 21
59.0
 31
0.0
  0
LINE
  5
73A
  8
2
 10
103.4999999999999
 20
59.514999999999993
 30
0.0
 11
103.2
 21
59.514999999999993
 31
0.0
  0
LINE
  5
73B
  8
2
 10
102.89999999999991
 20
59.590000000000003
 30
0.0
 11
103.2
 21
59.590000000000003
 31
0.0
  0
LINE
  5
73C
  8
2
 10
103.4999999999999
 20
55.25
 30
0.0
 11
102.8
 21
55.25
 31
0.0
  0
LINE
  5
73D
  8
2
 10
103.2
 20
55.350000000000001
 30
0.0
 11
102.89999999999991
 21
55.350000000000001
 31
0.0
  0
LINE
  5
73E
  8
2
 10
102.8
 20
55.25
 30
0.0
 11
102.8
 21
56.069999999999993
 31
0.0
  0
LINE
  5
73F
  8
2
 10
102.89999999999991
 20
59.514999999999993
 30
0.0
 11
102.59999999999989
 21
59.514999999999993
 31
0.0
  0
LINE
  5
740
  8
2
 10
103.2
 20
59.090000000000003
 30
0.0
 11
103.2
 21
59.590000000000003
 31
0.0
  0
LINE
  5
741
  8
2
 10
102.89999999999991
 20
59.090000000000003
 30
0.0
 11
103.2
 21
59.090000000000003
 31
0.0
  0
LINE
  5
742
  8
2
 10
102.89999999999991
 20
59.590000000000003
 30
0.0
 11
102.89999999999991
 21
59.090000000000003
 31
0.0
  0
LINE
  5
743
  8
2
 10
103.2
 20
58.79000000000002
 30
0.0
 11
102.89999999999991
 21
59.090000000000003
 31
0.0
  0
LINE
  5
744
  8
2
 10
103.2
 20
58.79000000000002
 30
0.0
 11
103.2
 21
55.350000000000001
 31
0.0
  0
LINE
  5
745
  8
2
 10
102.59999999999989
 20
58.965735999999993
 30
0.0
 11
102.89999999999991
 21
58.665735999999981
 31
0.0
  0
LINE
  5
746
  8
2
 10
102.89999999999991
 20
58.665735999999981
 30
0.0
 11
102.89999999999991
 21
55.350000000000001
 31
0.0
  0
LINE
  5
747
  8
2
 10
102.59999999999989
 20
59.514999999999993
 30
0.0
 11
102.59999999999989
 21
58.965735999999993
 31
0.0
  0
LINE
  5
748
  8
2
 10
101.37598699999999
 20
56.069999999999993
 30
0.0
 11
102.8
 21
56.069999999999993
 31
0.0
  0
LINE
  5
749
  8
2
 10
101.299323
 20
59.0
 30
0.0
 11
102.59999999999989
 21
59.0
 31
0.0
  0
LINE
  5
74A
  8
2
 10
96.499999999999986
 20
39.75
 30
0.0
 11
95.499999999999972
 21
39.75
 31
0.0
  0
LINE
  5
74B
  8
2
 10
103.4999999999999
 20
39.75
 30
0.0
 11
104.4999999999999
 21
39.75
 31
0.0
  0
LINE
  5
74C
  8
2
 10
96.499999999999986
 20
60.25
 30
0.0
 11
95.499999999999972
 21
60.25
 31
0.0
  0
LINE
  5
74D
  8
2
 10
103.4999999999999
 20
60.25
 30
0.0
 11
104.4999999999999
 21
60.25
 31
0.0
  0
LINE
  5
74E
  8
0
 10
95.499999999999972
 20
32.700000000000003
 30
0.0
 11
95.699999999999974
 21
32.5
 31
0.0
  0
LINE
  5
74F
  8
0
 10
104.3
 20
32.5
 30
0.0
 11
95.699999999999974
 21
32.5
 31
0.0
  0
LINE
  5
750
  8
0
 10
104.3
 20
32.5
 30
0.0
 11
104.4999999999999
 21
32.700000000000003
 31
0.0
  0
LINE
  5
751
  8
0
 10
95.499999999999972
 20
67.300000000000011
 30
0.0
 11
95.499999999999972
 21
32.700000000000003
 31
0.0
  0
LINE
  5
752
  8
0
 10
95.499999999999972
 20
67.300000000000011
 30
0.0
 11
95.699999999999974
 21
67.5
 31
0.0
  0
LINE
  5
753
  8
0
 10
104.3
 20
67.5
 30
0.0
 11
104.4999999999999
 21
67.300000000000011
 31
0.0
  0
LINE
  5
754
  8
0
 10
104.3
 20
67.5
 30
0.0
 11
95.699999999999974
 21
67.5
 31
0.0
  0
LINE
  5
755
  8
2
 10
96.499999999999986
 20
60.699999999999989
 30
0.0
 11
96.499999999999986
 21
39.300000000000011
 31
0.0
  0
LINE
  5
756
  8
0
 10
104.4999999999999
 20
67.300000000000011
 30
0.0
 11
104.4999999999999
 21
32.699999999999989
 31
0.0
  0
LINE
  5
757
  8
2
 10
96.799999999999983
 20
45.999999999999957
 30
0.0
 11
103.2
 21
45.999999999999957
 31
0.0
  0
LINE
  5
758
  8
2
 10
96.799999999999983
 20
53.999999999999972
 30
0.0
 11
103.2
 21
54.0
 31
0.0
  0
LINE
  5
759
  8
1
 10
92.5
 20
50.000000000000028
 30
0.0
 11
107.5
 21
49.999999999999972
 31
0.0
  0
LINE
  5
75A
  8
2
 10
103.4999999999999
 20
39.300000000000011
 30
0.0
 11
103.4999999999999
 21
60.699999999999989
 31
0.0
  0
LINE
  5
75B
  8
1
 10
29.500000000000011
 20
50.0
 30
0.0
 11
70.5
 21
50.0
 31
0.0
  0
LINE
  5
75C
  8
1
 10
50.0
 20
70.5
 30
0.0
 11
50.0
 21
29.5
 31
0.0
  0
CIRCLE
  5
75D
  8
0
 10
50.0
 20
50.0
 30
0.0
 40
10.25
  0
CIRCLE
  5
75E
  8
0
 10
50.0
 20
50.0
 30
0.0
 40
4.0
  0
CIRCLE
  5
75F
  8
2
 10
50.0
 20
50.0
 30
0.0
 40
11.0
  0
CIRCLE
  5
760
  8
0
 10
50.0
 20
50.0
 30
0.0
 40
5.25
  0
CIRCLE
  5
761
  8
0
 10
50.0
 20
50.0
 30
0.0
 40
9.5149999999999864
  0
CIRCLE
  5
762
  8
0
 10
50.0
 20
50.0
 30
0.0
 40
9.0900000000000034
  0
CIRCLE
  5
763
  8
0
 10
50.0
 20
50.0
 30
0.0
 40
17.5
  0
ENDSEC
  0
EOF
