  0
SECTION
  2
HEADER
  9
$ACADVER
  1
AC1009
  9
$INSBASE
 10
0.0
 20
0.0
 30
0.0
  9
$EXTMIN
 10
0.0
 20
-2.960436562073669
 30
0.0
  9
$EXTMAX
 10
858.30536513455115
 20
363.74201897222503
 30
0.0
  9
$LIMMIN
 10
0.0
 20
0.0
  9
$LIMMAX
 10
375.0
 20
270.0
  9
$ORTHOMODE
 70
     0
  9
$REGENMODE
 70
     1
  9
$FILLMODE
 70
     1
  9
$QTEXTMODE
 70
     0
  9
$MIRRTEXT
 70
     0
  9
$DRAGMODE
 70
     2
  9
$LTSCALE
 40
10.0
  9
$OSMODE
 70
    55
  9
$ATTMODE
 70
     1
  9
$TEXTSIZE
 40
2.0
  9
$TRACEWID
 40
0.05
  9
$TEXTSTYLE
  7
STANDARD
  9
$CLAYER
  8
0
  9
$CELTYPE
  6
BYLAYER
  9
$CECOLOR
 62
   256
  9
$DIMSCALE
 40
1.0
  9
$DIMASZ
 40
2.5
  9
$DIMEXO
 40
2.0
  9
$DIMDLI
 40
0.38
  9
$DIMRND
 40
0.0
  9
$DIMDLE
 40
0.0
  9
$DIMEXE
 40
2.0
  9
$DIMTP
 40
0.0
  9
$DIMTM
 40
0.0
  9
$DIMTXT
 40
3.0
  9
$DIMCEN
 40
0.09
  9
$DIMTSZ
 40
0.0
  9
$DIMTOL
 70
     0
  9
$DIMLIM
 70
     0
  9
$DIMTIH
 70
     0
  9
$DIMTOH
 70
     0
  9
$DIMSE1
 70
     0
  9
$DIMSE2
 70
     0
  9
$DIMTAD
 70
     1
  9
$DIMZIN
 70
     0
  9
$DIMBLK
  1

  9
$DIMASO
 70
     1
  9
$DIMSHO
 70
     0
  9
$DIMPOST
  1

  9
$DIMAPOST
  1

  9
$DIMALT
 70
     0
  9
$DIMALTD
 70
     2
  9
$DIMALTF
 40
25.399999999999999
  9
$DIMLFAC
 40
1.0
  9
$DIMTOFL
 70
     0
  9
$DIMTVP
 40
1.6000000000000001
  9
$DIMTIX
 70
     1
  9
$DIMSOXD
 70
     0
  9
$DIMSAH
 70
     0
  9
$DIMBLK1
  1

  9
$DIMBLK2
  1

  9
$DIMSTYLE
  2
STANDARD
  9
$DIMCLRD
 70
     0
  9
$DIMCLRE
 70
     0
  9
$DIMCLRT
 70
     0
  9
$DIMTFAC
 40
1.0
  9
$DIMGAP
 40
0.09
  9
$LUNITS
 70
     2
  9
$LUPREC
 70
     4
  9
$SKETCHINC
 40
0.1
  9
$FILLETRAD
 40
2.5
  9
$AUNITS
 70
     0
  9
$AUPREC
 70
     0
  9
$MENU
  1
E:\r13\win\SUPPORT\ACAD
  9
$ELEVATION
 40
0.0
  9
$PELEVATION
 40
0.0
  9
$THICKNESS
 40
0.0
  9
$LIMCHECK
 70
     0
  9
$BLIPMODE
 70
     0
  9
$CHAMFERA
 40
0.0
  9
$CHAMFERB
 40
0.0
  9
$SKPOLY
 70
     0
  9
$TDCREATE
 40
2448650.5678784722
  9
$TDUPDATE
 40
2456598.6875045029
  9
$TDINDWG
 40
0.0268690856
  9
$TDUSRTIMER
 40
0.0268690856
  9
$USRTIMER
 70
     1
  9
$ANGBASE
 50
0.0
  9
$ANGDIR
 70
     0
  9
$PDMODE
 70
     0
  9
$PDSIZE
 40
0.0
  9
$PLINEWID
 40
0.0
  9
$COORDS
 70
     1
  9
$SPLFRAME
 70
     0
  9
$SPLINETYPE
 70
     6
  9
$SPLINESEGS
 70
     8
  9
$ATTDIA
 70
     0
  9
$ATTREQ
 70
     1
  9
$HANDLING
 70
     1
  9
$HANDSEED
  5
86D
  9
$SURFTAB1
 70
     6
  9
$SURFTAB2
 70
     6
  9
$SURFTYPE
 70
     6
  9
$SURFU
 70
     6
  9
$SURFV
 70
     6
  9
$UCSNAME
  2

  9
$UCSORG
 10
0.0
 20
0.0
 30
0.0
  9
$UCSXDIR
 10
1.0
 20
0.0
 30
0.0
  9
$UCSYDIR
 10
0.0
 20
1.0
 30
0.0
  9
$PUCSNAME
  2

  9
$PUCSORG
 10
0.0
 20
0.0
 30
0.0
  9
$PUCSXDIR
 10
1.0
 20
0.0
 30
0.0
  9
$PUCSYDIR
 10
0.0
 20
1.0
 30
0.0
  9
$USERI1
 70
     0
  9
$USERI2
 70
     1
  9
$USERI3
 70
     1
  9
$USERI4
 70
     0
  9
$USERI5
 70
     0
  9
$USERR1
 40
0.0
  9
$USERR2
 40
0.0
  9
$USERR3
 40
0.0
  9
$USERR4
 40
0.0
  9
$USERR5
 40
0.0
  9
$WORLDVIEW
 70
     1
  9
$SHADEDGE
 70
     3
  9
$SHADEDIF
 70
    70
  9
$TILEMODE
 70
     1
  9
$MAXACTVP
 70
    16
  9
$PLIMCHECK
 70
     0
  9
$PEXTMIN
 10
1.0000000000000000E+020
 20
1.0000000000000000E+020
 30
1.0000000000000000E+020
  9
$PEXTMAX
 10
-1.0000000000000000E+020
 20
-1.0000000000000000E+020
 30
-1.0000000000000000E+020
  9
$PLIMMIN
 10
0.0
 20
0.0
  9
$PLIMMAX
 10
12.0
 20
9.0
  9
$UNITMODE
 70
     0
  9
$VISRETAIN
 70
     0
  9
$PLINEGEN
 70
     1
  9
$PSLTSCALE
 70
     0
  0
ENDSEC
  0
SECTION
  2
TABLES
  0
TABLE
  2
VPORT
 70
     1
  0
VPORT
  2
*ACTIVE
 70
     0
 10
0.0
 20
0.0
 11
1.0
 21
1.0
 12
429.15268456567321
 22
236.267699151882
 13
0.0
 23
0.0
 14
10.0
 24
10.0
 15
10.0
 25
10.0
 16
0.0
 26
0.0
 36
1.0
 17
0.0
 27
0.0
 37
0.0
 40
484.4203336799672
 41
1.7807262569832401
 42
50.0
 43
0.0
 44
0.0
 50
0.0
 51
0.0
 71
     0
 72
   500
 73
     1
 74
     0
 75
     0
 76
     0
 77
     0
 78
     2
  0
ENDTAB
  0
TABLE
  2
LTYPE
 70
     4
  0
LTYPE
  2
CONTINUOUS
 70
     0
  3
Solid Line
 72
    65
 73
     0
 40
0.0
  0
LTYPE
  2
CENTER
 70
     0
  3
____ _ ____ _ ____ _ ____ _ ____ _ ____ _ ____
 72
    65
 73
     4
 40
2.0
 49
1.25
 49
-0.25
 49
0.25
 49
-0.25
  0
LTYPE
  2
HIDDEN
 70
     0
  3
_ _ _ _ _ _ _ _ _ _ _ _ _ _ _ _ _ _ _ _ _ _ _
 72
    65
 73
     2
 40
0.375
 49
0.25
 49
-0.125
  0
LTYPE
  2
PHANTOM2
 70
     0
  3
___ _ _ ___ _ _ ___ _ _ ___ _ _
 72
    65
 73
     6
 40
1.25
 49
0.625
 49
-0.125
 49
0.125
 49
-0.125
 49
0.125
 49
-0.125
  0
ENDTAB
  0
TABLE
  2
LAYER
 70
     4
  0
LAYER
  2
0
 70
     0
 62
     7
  6
CONTINUOUS
  0
LAYER
  2
3
 70
     0
 62
     3
  6
CONTINUOUS
  0
LAYER
  2
2
 70
     0
 62
     2
  6
HIDDEN
  0
LAYER
  2
1
 70
     0
 62
     1
  6
CENTER
  0
ENDTAB
  0
TABLE
  2
STYLE
 70
     2
  0
STYLE
  2
STANDARD
 70
     0
 40
0.0
 41
1.0
 50
0.0
 71
     0
 42
2.0
  3
TXT
  4
BIGFONT
  0
STYLE
  2
STANDARD1
 70
     0
 40
0.0
 41
1.0
 50
0.0
 71
     0
 42
3.0
  3
txt
  4

  0
ENDTAB
  0
TABLE
  2
VIEW
 70
     1
  0
VIEW
  2
ALL
 70
     0
 40
270.0
 10
220.99159663865549
 20
135.0
 41
0.0
 11
0.0
 21
0.0
 31
1.0
 12
0.0
 22
0.0
 32
0.0
 42
0.0
 43
0.0
 44
0.0
 50
0.0
 71
     0
  0
ENDTAB
  0
TABLE
  2
UCS
 70
     0
  0
ENDTAB
  0
TABLE
  2
APPID
 70
     3
  0
APPID
  2
ACAD
 70
     0
  0
APPID
  2
ACAD_MLEADERVER
 70
     0
  0
APPID
  2
ACAD_NAV_VCDISPLAY
 70
     0
  0
ENDTAB
  0
TABLE
  2
DIMSTYLE
 70
     1
  0
DIMSTYLE
  2
STANDARD
 70
     0
  3

  4

  5

  6

  7

 40
1.0
 41
0.18
 42
0.0625
 43
0.38
 44
0.18
 45
0.0
 46
0.0
 47
0.0
 48
0.0
140
0.18
141
0.09
142
0.0
143
25.399999999999999
144
1.0
145
0.0
146
1.0
147
0.09
 71
     0
 72
     0
 73
     1
 74
     1
 75
     0
 76
     0
 77
     0
 78
     0
170
     0
171
     2
172
     0
173
     0
174
     0
175
     0
176
     0
177
     0
178
     0
  0
ENDTAB
  0
ENDSEC
  0
SECTION
  2
BLOCKS
  0
BLOCK
  8
0
  2
$MODEL_SPACE
 70
     0
 10
0.0
 20
0.0
 30
0.0
  3
$MODEL_SPACE
  1

  0
ENDBLK
  5
217
  8
0
  0
BLOCK
 67
     1
  8
0
  2
$PAPER_SPACE
 70
     0
 10
0.0
 20
0.0
 30
0.0
  3
$PAPER_SPACE
  1

  0
ENDBLK
  5
215
 67
     1
  8
0
  0
ENDSEC
  0
SECTION
  2
ENTITIES
  0
LINE
  5
64E
  8
1
 10
845.80536513455115
 20
309.74201897222503
 30
0.0
 11
810.80536513455195
 21
309.74201897222503
 31
0.0
  0
LINE
  5
64F
  8
1
 10
828.30536513455161
 20
292.24201897222531
 30
0.0
 11
828.30536513455161
 21
327.24201897222463
 31
0.0
  0
CIRCLE
  5
650
  8
0
 10
828.30536513455161
 20
309.74201897222503
 30
0.0
 40
7.4999999999996581
  0
CIRCLE
  5
651
  8
0
 10
828.30536513455161
 20
309.74201897222503
 30
0.0
 40
5.6339745962155803
  0
LINE
  5
652
  8
0
 10
831.30536513455115
 20
308.00996816465641
 30
0.0
 11
828.30536513455127
 21
306.2779173570874
 31
0.0
  0
LINE
  5
653
  8
0
 10
828.30536513455127
 20
306.2779173570874
 30
0.0
 11
825.30536513455172
 21
308.00996816465641
 31
0.0
  0
LINE
  5
654
  8
0
 10
825.30536513455172
 20
308.00996816465641
 30
0.0
 11
825.30536513455172
 21
311.4740697797946
 31
0.0
  0
LINE
  5
655
  8
0
 10
825.30536513455172
 20
311.4740697797946
 30
0.0
 11
828.30536513455161
 21
313.20612058736288
 31
0.0
  0
LINE
  5
656
  8
0
 10
828.30536513455161
 20
313.20612058736288
 30
0.0
 11
831.30536513455195
 21
311.47406977979358
 31
0.0
  0
LINE
  5
657
  8
0
 10
831.30536513455195
 20
311.47406977979358
 30
0.0
 11
831.30536513455115
 21
308.00996816465641
 31
0.0
  0
CIRCLE
  5
658
  8
0
 10
828.30536513455161
 20
309.74201897222503
 30
0.0
 40
6.5
  0
LINE
  5
659
  8
0
 10
846.30536513455127
 20
342.40318420739248
 30
0.0
 11
810.30536513455149
 21
342.40318420739248
 31
0.0
  0
LINE
  5
65A
  8
0
 10
210.3053651345509
 20
342.40318420739248
 30
0.0
 11
246.30536513455081
 21
342.40318420739248
 31
0.0
  0
CIRCLE
  5
65B
  8
0
 10
228.3053651345505
 20
309.74201897222503
 30
0.0
 40
6.5
  0
LINE
  5
65C
  8
0
 10
225.30536513455019
 20
311.47406977979358
 30
0.0
 11
225.3053651345509
 21
308.00996816465641
 31
0.0
  0
LINE
  5
65D
  8
0
 10
228.3053651345505
 20
313.20612058736288
 30
0.0
 11
225.30536513455019
 21
311.47406977979358
 31
0.0
  0
LINE
  5
65E
  8
0
 10
231.3053651345505
 20
311.4740697797946
 30
0.0
 11
228.3053651345505
 21
313.20612058736288
 31
0.0
  0
LINE
  5
65F
  8
0
 10
231.3053651345505
 20
308.00996816465641
 30
0.0
 11
231.3053651345505
 21
311.4740697797946
 31
0.0
  0
LINE
  5
660
  8
0
 10
228.3053651345509
 20
306.2779173570874
 30
0.0
 11
231.3053651345505
 21
308.00996816465641
 31
0.0
  0
LINE
  5
661
  8
0
 10
225.3053651345509
 20
308.00996816465641
 30
0.0
 11
228.3053651345509
 21
306.2779173570874
 31
0.0
  0
CIRCLE
  5
662
  8
0
 10
228.3053651345505
 20
309.74201897222503
 30
0.0
 40
5.6339745962155803
  0
CIRCLE
  5
663
  8
0
 10
228.3053651345505
 20
309.74201897222503
 30
0.0
 40
7.4999999999996581
  0
LINE
  5
664
  8
1
 10
228.3053651345505
 20
292.24201897222531
 30
0.0
 11
228.3053651345505
 21
327.24201897222463
 31
0.0
  0
LINE
  5
665
  8
1
 10
210.8053651345509
 20
309.74201897222503
 30
0.0
 11
245.80536513455019
 21
309.74201897222503
 31
0.0
  0
LINE
  5
666
  8
0
 10
848.30536513455115
 20
296.24201897222503
 30
0.0
 11
808.30536513455115
 21
296.24201897222503
 31
0.0
  0
LINE
  5
667
  8
0
 10
848.30536513455115
 20
296.24201897222503
 30
0.0
 11
848.30536513455138
 21
363.74201897222503
 31
0.0
  0
LINE
  5
668
  8
0
 10
808.30536513455115
 20
296.24201897222503
 30
0.0
 11
808.30536513455115
 21
363.74201897222503
 31
0.0
  0
LINE
  5
669
  8
0
 10
208.30536513455101
 20
363.74201897222503
 30
0.0
 11
848.30536513455104
 21
363.74201897222491
 31
0.0
  0
LINE
  5
66A
  8
1
 10
198.30536513455101
 20
351.24201897222503
 30
0.0
 11
858.30536513455115
 21
351.24201897222503
 31
0.0
  0
LINE
  5
66B
  8
0
 10
248.3053651345511
 20
338.74201897222503
 30
0.0
 11
808.30536513455104
 21
338.74201897222503
 31
0.0
  0
LINE
  5
66C
  8
0
 10
248.3053651345509
 20
296.24201897222503
 30
0.0
 11
248.3053651345509
 21
363.74201897222503
 31
0.0
  0
LINE
  5
66D
  8
0
 10
208.3053651345509
 20
296.24201897222503
 30
0.0
 11
208.30536513455081
 21
363.74201897222503
 31
0.0
  0
LINE
  5
66E
  8
0
 10
208.3053651345509
 20
296.24201897222503
 30
0.0
 11
248.3053651345509
 21
296.24201897222503
 31
0.0
  0
LINE
  5
66F
  8
0
 10
846.3053651345507
 20
157.24201897222491
 30
0.0
 11
810.30536513455081
 21
157.24201897222491
 31
0.0
  0
LINE
  5
670
  8
0
 10
210.30536513455061
 20
157.24201897222491
 30
0.0
 11
246.30536513455081
 21
157.24201897222491
 31
0.0
  0
LINE
  5
671
  8
0
 10
848.30536513455093
 20
107.242018972225
 30
0.0
 11
808.30536513455104
 21
107.2420189722249
 31
0.0
  0
LINE
  5
672
  8
0
 10
848.30536513455093
 20
107.2420189722249
 30
0.0
 11
848.30536513455093
 21
206.242018972225
 31
0.0
  0
LINE
  5
673
  8
0
 10
808.30536513455081
 20
107.2420189722249
 30
0.0
 11
808.30536513455081
 21
206.242018972225
 31
0.0
  0
LINE
  5
674
  8
0
 10
824.30536513455104
 20
95.242018972224997
 30
0.0
 11
824.30536513455081
 21
91.442018972224901
 31
0.0
  0
LINE
  5
675
  8
3
 10
824.98186513455084
 20
95.242018972224983
 30
0.0
 11
824.98186513455084
 21
90.765518972225095
 31
0.0
  0
LINE
  5
676
  8
0
 10
832.30536513455081
 20
95.242018972224997
 30
0.0
 11
832.30536513455081
 21
91.442018972225014
 31
0.0
  0
LINE
  5
677
  8
3
 10
831.62886513455067
 20
95.242018972224983
 30
0.0
 11
831.62886513455101
 21
90.765518972225095
 31
0.0
  0
LINE
  5
678
  8
0
 10
832.30536513455081
 20
107.2420189722249
 30
0.0
 11
832.30536513455081
 21
103.242018972225
 31
0.0
  0
LINE
  5
679
  8
3
 10
831.62886513455067
 20
107.2420189722249
 30
0.0
 11
831.62886513455067
 21
103.2420189722249
 31
0.0
  0
LINE
  5
67A
  8
3
 10
824.98186513455084
 20
107.2420189722249
 30
0.0
 11
824.98186513455084
 21
103.2420189722249
 31
0.0
  0
LINE
  5
67B
  8
0
 10
824.30536513455081
 20
107.2420189722249
 30
0.0
 11
824.30536513455081
 21
103.2420189722249
 31
0.0
  0
LINE
  5
67C
  8
0
 10
820.5553651345507
 20
103.242018972225
 30
0.0
 11
836.05536513455081
 21
103.242018972225
 31
0.0
  0
LINE
  5
67D
  8
0
 10
820.5553651345507
 20
101.642018972225
 30
0.0
 11
836.05536513455081
 21
101.642018972225
 31
0.0
  0
LINE
  5
67E
  8
0
 10
820.5553651345507
 20
103.242018972225
 30
0.0
 11
820.55536513455104
 21
101.642018972225
 31
0.0
  0
LINE
  5
67F
  8
0
 10
836.05536513455081
 20
103.242018972225
 30
0.0
 11
836.05536513455081
 21
101.642018972225
 31
0.0
  0
LINE
  5
680
  8
0
 10
834.5553651345499
 20
95.242018972225026
 30
0.0
 11
822.05536513455161
 21
95.242018972225026
 31
0.0
  0
LINE
  5
681
  8
1
 10
828.3053651345507
 20
80.242018972224955
 30
0.0
 11
828.3053651345507
 21
172.74201897222491
 31
0.0
  0
LINE
  5
682
  8
0
 10
825.50536513455086
 20
90.242018972224955
 30
0.0
 11
831.10536513455077
 21
90.242018972224955
 31
0.0
  0
LINE
  5
683
  8
0
 10
824.30536513455081
 20
91.442018972224901
 30
0.0
 11
825.50536513455086
 21
90.242018972224955
 31
0.0
  0
LINE
  5
684
  8
0
 10
831.10536513455077
 20
90.242018972224955
 30
0.0
 11
832.30536513455081
 21
91.442018972225014
 31
0.0
  0
LINE
  5
685
  8
0
 10
824.30536513455081
 20
91.442018972224901
 30
0.0
 11
832.30536513455081
 21
91.442018972225014
 31
0.0
  0
LINE
  5
686
  8
0
 10
821.80536513455104
 20
101.49768140492689
 30
0.0
 11
822.05536513455218
 21
101.642018972225
 31
0.0
  0
ARC
  5
687
  8
0
 10
825.05536513455104
 20
92.110529269678224
 30
0.0
 40
9.3871521352487513
 50
69.743841999583225
 51
110.2561580004167
  0
ARC
  5
688
  8
0
 10
825.05536513455104
 20
104.7735086747717
 30
0.0
 40
9.3871521352487513
 50
249.7438419995832
 51
290.25615800041669
  0
LINE
  5
689
  8
0
 10
821.80536513455104
 20
95.386356539523078
 30
0.0
 11
822.05536513455218
 21
95.242018972225026
 31
0.0
  0
LINE
  5
68A
  8
0
 10
821.80536513455104
 20
101.49768140492689
 30
0.0
 11
821.80536513455104
 21
95.386356539523078
 31
0.0
  0
LINE
  5
68B
  8
0
 10
828.3053651345507
 20
100.9171248213257
 30
0.0
 11
828.3053651345507
 21
95.966913123123831
 31
0.0
  0
LINE
  5
68C
  8
0
 10
834.80536513455047
 20
101.49768140492689
 30
0.0
 11
834.80536513455047
 21
95.386356539523078
 31
0.0
  0
LINE
  5
68D
  8
0
 10
834.80536513455047
 20
95.386356539523078
 30
0.0
 11
834.55536513454933
 21
95.242018972225026
 31
0.0
  0
ARC
  5
68E
  8
0
 10
831.55536513455058
 20
104.7735086747717
 30
0.0
 40
9.3871521352487513
 50
249.7438419995832
 51
290.25615800041669
  0
ARC
  5
68F
  8
0
 10
831.55536513455058
 20
92.110529269678224
 30
0.0
 40
9.3871521352487513
 50
69.743841999583225
 51
110.2561580004167
  0
LINE
  5
690
  8
0
 10
834.80536513455047
 20
101.49768140492689
 30
0.0
 11
834.55536513454933
 21
101.642018972225
 31
0.0
  0
LINE
  5
691
  8
0
 10
834.55536513454933
 20
101.642018972225
 30
0.0
 11
822.05536513455218
 21
101.642018972225
 31
0.0
  0
LINE
  5
692
  8
0
 10
822.05536513455218
 20
95.242018972225026
 30
0.0
 11
834.55536513454933
 21
95.242018972225026
 31
0.0
  0
POLYLINE
  5
693
  8
0
 66
     1
 10
0.0
 20
0.0
 30
0.0
 70
     1
  0
VERTEX
  5
694
  8
0
 10
820.80536513455081
 20
170.50152544713771
 30
0.0
 42
-0.1001060387007134
  0
VERTEX
  5
695
  8
0
 10
821.37419080135282
 20
173.3141696569173
 30
0.0
 42
-0.0991456042333282
  0
VERTEX
  5
696
  8
0
 10
823.00206427565172
 20
175.710351526914
 30
0.0
 42
-0.0978169001966996
 70
     2
 50
44.485084187389212
  0
VERTEX
  5
697
  8
0
 10
825.42889669991666
 20
177.30518826407811
 30
0.0
 42
-0.0968976585370039
  0
VERTEX
  5
698
  8
0
 10
828.3053651345507
 20
177.8679179332
 30
0.0
 42
-0.0968976585369819
  0
VERTEX
  5
699
  8
0
 10
831.18183356918496
 20
177.3051882640782
 30
0.0
 42
-0.0978169001966655
  0
VERTEX
  5
69A
  8
0
 10
833.6086659934499
 20
175.710351526914
 30
0.0
 42
-0.0991456042332897
 70
     2
 50
315.51491581261081
  0
VERTEX
  5
69B
  8
0
 10
835.23653946774891
 20
173.3141696569175
 30
0.0
 42
-0.1001060387006858
  0
VERTEX
  5
69C
  8
0
 10
835.80536513455093
 20
170.50152544713771
 30
0.0
 42
-0.1001060387006799
  0
VERTEX
  5
69D
  8
0
 10
835.23653946774891
 20
167.68888123735769
 30
0.0
 42
-0.0991456042332728
  0
VERTEX
  5
69E
  8
0
 10
833.6086659934499
 20
165.29269936736139
 30
0.0
 42
-0.0978169001966698
 70
     2
 50
224.48508418738919
  0
VERTEX
  5
69F
  8
0
 10
831.18183356918496
 20
163.69786263019719
 30
0.0
 42
-0.0968976585369868
  0
VERTEX
  5
6A0
  8
0
 10
828.3053651345507
 20
163.13513296107541
 30
0.0
 42
-0.0968976585369868
  0
VERTEX
  5
6A1
  8
0
 10
825.42889669991655
 20
163.69786263019719
 30
0.0
 42
-0.0978169001966696
  0
VERTEX
  5
6A2
  8
0
 10
823.00206427565172
 20
165.29269936736139
 30
0.0
 42
-0.0991456042333058
 70
     2
 50
135.51491581261081
  0
VERTEX
  5
6A3
  8
0
 10
821.37419080135294
 20
167.68888123735769
 30
0.0
 42
-0.1001060387007191
  0
SEQEND
  5
6A4
  8
0
  0
LINE
  5
6A5
  8
0
 10
248.30536513455081
 20
181.242018972225
 30
0.0
 11
808.30536513455081
 21
181.242018972225
 31
0.0
  0
POLYLINE
  5
6A6
  8
0
 66
     1
 10
0.0
 20
0.0
 30
0.0
 70
     1
  0
VERTEX
  5
6A7
  8
0
 10
235.80536513455061
 20
170.50152544713771
 30
0.0
 42
0.1001060387007134
  0
VERTEX
  5
6A8
  8
0
 10
235.2365394677486
 20
173.3141696569173
 30
0.0
 42
0.0991456042333282
  0
VERTEX
  5
6A9
  8
0
 10
233.60866599344979
 20
175.710351526914
 30
0.0
 42
0.0978169001966996
 70
     2
 50
135.51491581261081
  0
VERTEX
  5
6AA
  8
0
 10
231.1818335691847
 20
177.30518826407811
 30
0.0
 42
0.0968976585370039
 50
135.51491581261081
  0
VERTEX
  5
6AB
  8
0
 10
228.3053651345507
 20
177.8679179332
 30
0.0
 42
0.0968976585369819
  0
VERTEX
  5
6AC
  8
0
 10
225.42889669991641
 20
177.3051882640782
 30
0.0
 42
0.0978169001966655
  0
VERTEX
  5
6AD
  8
0
 10
223.00206427565161
 20
175.710351526914
 30
0.0
 42
0.0991456042332897
 70
     2
 50
224.48508418738919
  0
VERTEX
  5
6AE
  8
0
 10
221.37419080135251
 20
173.3141696569175
 30
0.0
 42
0.1001060387006858
 50
224.48508418738919
  0
VERTEX
  5
6AF
  8
0
 10
220.80536513455061
 20
170.50152544713771
 30
0.0
 42
0.1001060387006799
  0
VERTEX
  5
6B0
  8
0
 10
221.37419080135251
 20
167.68888123735769
 30
0.0
 42
0.0991456042332728
  0
VERTEX
  5
6B1
  8
0
 10
223.00206427565161
 20
165.29269936736139
 30
0.0
 42
0.0978169001966698
 70
     2
 50
315.51491581261081
  0
VERTEX
  5
6B2
  8
0
 10
225.42889669991641
 20
163.69786263019719
 30
0.0
 42
0.0968976585369868
 50
315.51491581261081
  0
VERTEX
  5
6B3
  8
0
 10
228.3053651345507
 20
163.13513296107541
 30
0.0
 42
0.0968976585369868
  0
VERTEX
  5
6B4
  8
0
 10
231.1818335691849
 20
163.69786263019719
 30
0.0
 42
0.0978169001966696
  0
VERTEX
  5
6B5
  8
0
 10
233.60866599344979
 20
165.29269936736139
 30
0.0
 42
0.0991456042333058
 70
     2
 50
44.485084187389198
  0
VERTEX
  5
6B6
  8
0
 10
235.23653946774851
 20
167.68888123735769
 30
0.0
 42
0.1001060387007191
 50
44.485084187389198
  0
SEQEND
  5
6B7
  8
0
  0
LINE
  5
6B8
  8
1
 10
198.30536513455061
 20
193.742018972225
 30
0.0
 11
858.30536513455104
 21
193.742018972225
 31
0.0
  0
LINE
  5
6B9
  8
0
 10
208.30536513455061
 20
206.242018972225
 30
0.0
 11
848.30536513455093
 21
206.242018972225
 31
0.0
  0
LINE
  5
6BA
  8
0
 10
234.55536513454939
 20
95.242018972225026
 30
0.0
 11
222.05536513455209
 21
95.242018972225026
 31
0.0
  0
LINE
  5
6BB
  8
0
 10
222.05536513455201
 20
101.642018972225
 30
0.0
 11
234.55536513454931
 21
101.642018972225
 31
0.0
  0
LINE
  5
6BC
  8
0
 10
221.8053651345509
 20
101.49768140492689
 30
0.0
 11
222.05536513455201
 21
101.642018972225
 31
0.0
  0
ARC
  5
6BD
  8
0
 10
225.0553651345509
 20
92.110529269678224
 30
0.0
 40
9.3871521352487513
 50
69.743841999583225
 51
110.2561580004167
  0
ARC
  5
6BE
  8
0
 10
225.05536513455101
 20
104.7735086747717
 30
0.0
 40
9.3871521352487513
 50
249.7438419995832
 51
290.25615800041669
  0
LINE
  5
6BF
  8
0
 10
221.80536513455101
 20
95.386356539523078
 30
0.0
 11
222.05536513455209
 21
95.242018972225026
 31
0.0
  0
LINE
  5
6C0
  8
0
 10
221.8053651345509
 20
101.49768140492689
 30
0.0
 11
221.80536513455101
 21
95.386356539523078
 31
0.0
  0
LINE
  5
6C1
  8
0
 10
228.3053651345507
 20
100.9171248213257
 30
0.0
 11
228.3053651345507
 21
95.966913123123831
 31
0.0
  0
LINE
  5
6C2
  8
0
 10
234.80536513455041
 20
101.49768140492689
 30
0.0
 11
234.8053651345505
 21
95.386356539523078
 31
0.0
  0
LINE
  5
6C3
  8
0
 10
234.8053651345505
 20
95.386356539523078
 30
0.0
 11
234.55536513454939
 21
95.242018972225026
 31
0.0
  0
ARC
  5
6C4
  8
0
 10
231.5553651345505
 20
104.7735086747717
 30
0.0
 40
9.3871521352487513
 50
249.7438419995832
 51
290.25615800041669
  0
ARC
  5
6C5
  8
0
 10
231.55536513455041
 20
92.110529269678224
 30
0.0
 40
9.3871521352487513
 50
69.743841999583225
 51
110.2561580004167
  0
LINE
  5
6C6
  8
0
 10
234.80536513455041
 20
101.49768140492689
 30
0.0
 11
234.55536513454931
 21
101.642018972225
 31
0.0
  0
ARC
  5
6C7
  8
0
 10
82.805365134550641
 20
145.15496195279181
 30
0.0
 40
8.5
 50
0.0
 51
45.514915812607718
  0
LINE
  5
6C8
  8
0
 10
88.761515394827896
 20
151.21914154091419
 30
0.0
 11
54.62681832456002
 21
184.745751675907
 31
0.0
  0
ARC
  5
6C9
  8
0
 10
104.3053651345506
 20
151.36918888225281
 30
0.0
 40
14.0
 50
0.0
 51
45.514915812607718
  0
LINE
  5
6CA
  8
0
 10
114.1154949750071
 20
161.35724938033661
 30
0.0
 11
72.144199899383054
 21
202.58085373705629
 31
0.0
  0
LINE
  5
6CB
  8
0
 10
232.3053651345507
 20
91.442018972224901
 30
0.0
 11
224.3053651345507
 21
91.442018972225014
 31
0.0
  0
LINE
  5
6CC
  8
0
 10
225.50536513455069
 20
90.242018972224955
 30
0.0
 11
224.3053651345507
 21
91.442018972225014
 31
0.0
  0
LINE
  5
6CD
  8
0
 10
232.3053651345507
 20
91.442018972224901
 30
0.0
 11
231.1053651345506
 21
90.242018972224955
 31
0.0
  0
LINE
  5
6CE
  8
0
 10
231.1053651345506
 20
90.242018972224955
 30
0.0
 11
225.50536513455069
 21
90.242018972224955
 31
0.0
  0
LINE
  5
6CF
  8
1
 10
228.3053651345507
 20
80.242018972224955
 30
0.0
 11
228.3053651345505
 21
172.74201897222491
 31
0.0
  0
LINE
  5
6D0
  8
0
 10
222.05536513455169
 20
95.242018972225026
 30
0.0
 11
234.5553651345499
 21
95.242018972225026
 31
0.0
  0
LINE
  5
6D1
  8
0
 10
220.55536513455061
 20
103.242018972225
 30
0.0
 11
220.55536513455061
 21
101.642018972225
 31
0.0
  0
LINE
  5
6D2
  8
0
 10
236.05536513455061
 20
103.242018972225
 30
0.0
 11
236.0553651345505
 21
101.642018972225
 31
0.0
  0
LINE
  5
6D3
  8
0
 10
236.05536513455061
 20
101.642018972225
 30
0.0
 11
220.55536513455061
 21
101.642018972225
 31
0.0
  0
LINE
  5
6D4
  8
0
 10
236.05536513455061
 20
103.242018972225
 30
0.0
 11
220.55536513455061
 21
103.242018972225
 31
0.0
  0
LINE
  5
6D5
  8
0
 10
232.3053651345507
 20
107.2420189722249
 30
0.0
 11
232.3053651345507
 21
103.2420189722249
 31
0.0
  0
LINE
  5
6D6
  8
3
 10
231.62886513455069
 20
107.2420189722249
 30
0.0
 11
231.62886513455069
 21
103.2420189722249
 31
0.0
  0
LINE
  5
6D7
  8
3
 10
224.98186513455079
 20
107.2420189722249
 30
0.0
 11
224.98186513455079
 21
103.2420189722249
 31
0.0
  0
LINE
  5
6D8
  8
0
 10
224.3053651345507
 20
107.2420189722249
 30
0.0
 11
224.3053651345507
 21
103.242018972225
 31
0.0
  0
LINE
  5
6D9
  8
3
 10
224.9818651345507
 20
95.242018972224983
 30
0.0
 11
224.98186513455039
 21
90.765518972225095
 31
0.0
  0
LINE
  5
6DA
  8
0
 10
224.3053651345507
 20
95.242018972224997
 30
0.0
 11
224.3053651345507
 21
91.442018972225014
 31
0.0
  0
LINE
  5
6DB
  8
3
 10
231.62886513455061
 20
95.242018972224983
 30
0.0
 11
231.62886513455069
 21
90.765518972225095
 31
0.0
  0
LINE
  5
6DC
  8
0
 10
232.3053651345505
 20
95.242018972224997
 30
0.0
 11
232.3053651345507
 21
91.442018972224901
 31
0.0
  0
LINE
  5
6DD
  8
0
 10
248.30536513455061
 20
107.2420189722249
 30
0.0
 11
248.30536513455081
 21
206.242018972225
 31
0.0
  0
LINE
  5
6DE
  8
0
 10
208.30536513455061
 20
107.2420189722249
 30
0.0
 11
208.30536513455061
 21
206.242018972225
 31
0.0
  0
LINE
  5
6DF
  8
0
 10
208.30536513455081
 20
107.242018972225
 30
0.0
 11
248.3053651345505
 21
107.2420189722249
 31
0.0
  0
LINE
  5
6E0
  8
0
 10
108.8053651345505
 20
95.242018972225225
 30
0.0
 11
108.8053651345506
 21
91.442018972224901
 31
0.0
  0
LINE
  5
6E1
  8
3
 10
108.12886513455069
 20
95.242018972225253
 30
0.0
 11
108.12886513455069
 21
90.765518972225095
 31
0.0
  0
LINE
  5
6E2
  8
0
 10
100.8053651345506
 20
95.242018972225225
 30
0.0
 11
100.8053651345506
 21
91.442018972225014
 31
0.0
  0
LINE
  5
6E3
  8
3
 10
101.4818651345507
 20
95.242018972225253
 30
0.0
 11
101.4818651345504
 21
90.765518972225095
 31
0.0
  0
LINE
  5
6E4
  8
0
 10
100.8053651345506
 20
107.2420189722249
 30
0.0
 11
100.8053651345506
 21
103.242018972225
 31
0.0
  0
LINE
  5
6E5
  8
3
 10
101.4818651345508
 20
107.2420189722249
 30
0.0
 11
101.4818651345508
 21
103.242018972225
 31
0.0
  0
LINE
  5
6E6
  8
3
 10
108.12886513455069
 20
107.2420189722249
 30
0.0
 11
108.12886513455069
 21
103.242018972225
 31
0.0
  0
LINE
  5
6E7
  8
0
 10
108.8053651345506
 20
107.2420189722249
 30
0.0
 11
108.8053651345506
 21
103.242018972225
 31
0.0
  0
LINE
  5
6E8
  8
2
 10
97.305365134550527
 20
155.242018972225
 30
0.0
 11
97.305365134550996
 21
177.8679179332002
 31
0.0
  0
LINE
  5
6E9
  8
2
 10
112.3053651345504
 20
155.242018972225
 30
0.0
 11
112.3053651345508
 21
163.13513296107479
 31
0.0
  0
LINE
  5
6EA
  8
2
 10
100.3053651345505
 20
107.2420189722249
 30
0.0
 11
100.3053651345506
 21
155.242018972225
 31
0.0
  0
LINE
  5
6EB
  8
2
 10
109.3053651345505
 20
107.2420189722249
 30
0.0
 11
109.3053651345506
 21
155.242018972225
 31
0.0
  0
LINE
  5
6EC
  8
0
 10
112.5553651345506
 20
103.242018972225
 30
0.0
 11
97.055365134550655
 21
103.242018972225
 31
0.0
  0
LINE
  5
6ED
  8
0
 10
112.5553651345506
 20
101.642018972225
 30
0.0
 11
97.055365134550655
 21
101.642018972225
 31
0.0
  0
LINE
  5
6EE
  8
0
 10
112.5553651345506
 20
103.242018972225
 30
0.0
 11
112.5553651345505
 21
101.642018972225
 31
0.0
  0
LINE
  5
6EF
  8
0
 10
97.055365134550655
 20
103.242018972225
 30
0.0
 11
97.055365134550655
 21
101.642018972225
 31
0.0
  0
LINE
  5
6F0
  8
0
 10
111.0553651345499
 20
95.242018972225225
 30
0.0
 11
98.555365134552915
 21
95.242018972225225
 31
0.0
  0
LINE
  5
6F1
  8
0
 10
98.555365134551565
 20
101.642018972225
 30
0.0
 11
111.0553651345497
 21
101.642018972225
 31
0.0
  0
ARC
  5
6F2
  8
0
 10
110.43453025914989
 20
98.175111831976935
 30
0.0
 40
3.3225695729499738
 50
64.384247467826114
 51
124.3842474680384
  0
LINE
  5
6F3
  8
0
 10
112.3109186340162
 20
100.9171248213261
 30
0.0
 11
111.0553651345499
 21
101.642018972225
 31
0.0
  0
LINE
  5
6F4
  8
0
 10
112.3109186340162
 20
95.966913123124044
 30
0.0
 11
111.0553651345499
 21
95.242018972225225
 31
0.0
  0
ARC
  5
6F5
  8
0
 10
110.43453025914989
 20
98.708926112473264
 30
0.0
 40
3.3225695729499738
 50
235.61575253196159
 51
295.61575253217387
  0
LINE
  5
6F6
  8
0
 10
112.3109186340162
 20
100.9171248213261
 30
0.0
 11
112.3109186340162
 21
95.966913123124044
 31
0.0
  0
LINE
  5
6F7
  8
0
 10
108.55814188428189
 20
100.9171248213261
 30
0.0
 11
108.5581418842837
 21
95.966913123125565
 31
0.0
  0
LINE
  5
6F8
  8
0
 10
101.05258838482069
 20
100.9171248213261
 30
0.0
 11
101.0525883848188
 21
95.966913123125565
 31
0.0
  0
LINE
  5
6F9
  8
0
 10
97.299811635086428
 20
100.9171248213261
 30
0.0
 11
97.299811635086428
 21
95.966913123124044
 31
0.0
  0
ARC
  5
6FA
  8
0
 10
104.8053651345522
 20
107.8057999559156
 30
0.0
 40
12.41944341639239
 50
252.4120462259954
 51
287.58795377399781
  0
ARC
  5
6FB
  8
0
 10
99.176200009952765
 20
98.708926112473264
 30
0.0
 40
3.3225695729499738
 50
244.3842474678261
 51
304.38424746803832
  0
LINE
  5
6FC
  8
0
 10
97.299811635086428
 20
95.966913123124044
 30
0.0
 11
98.555365134552702
 21
95.242018972225225
 31
0.0
  0
LINE
  5
6FD
  8
0
 10
97.299811635086428
 20
100.9171248213261
 30
0.0
 11
98.555365134552702
 21
101.642018972225
 31
0.0
  0
ARC
  5
6FE
  8
0
 10
104.8053651345522
 20
89.078237988534553
 30
0.0
 40
12.41944341639239
 50
72.412046226002204
 51
107.5879537740046
  0
ARC
  5
6FF
  8
0
 10
99.176200009952765
 20
98.175111831976935
 30
0.0
 40
3.3225695729499738
 50
55.615752531961633
 51
115.6157525321738
  0
LINE
  5
700
  8
1
 10
104.8053651345506
 20
80.242018972224955
 30
0.0
 11
104.8053651345506
 21
172.742018972225
 31
0.0
  0
LINE
  5
701
  8
2
 10
111.3053651345505
 20
162.742018972225
 30
0.0
 11
111.3053651345505
 21
155.242018972225
 31
0.0
  0
LINE
  5
702
  8
2
 10
111.3053651345505
 20
155.242018972225
 30
0.0
 11
98.305365134550527
 21
155.242018972225
 31
0.0
  0
LINE
  5
703
  8
2
 10
98.305365134550527
 20
155.242018972225
 30
0.0
 11
98.305365134550527
 21
162.742018972225
 31
0.0
  0
LINE
  5
704
  8
2
 10
99.171390538334833
 20
163.24201897222491
 30
0.0
 11
110.43933973076609
 21
163.24201897222491
 31
0.0
  0
LINE
  5
705
  8
2
 10
98.305365134550527
 20
162.742018972225
 30
0.0
 11
111.3053651345505
 21
162.742018972225
 31
0.0
  0
LINE
  5
706
  8
2
 10
111.3053651345505
 20
162.742018972225
 30
0.0
 11
110.43933973076609
 21
163.24201897222491
 31
0.0
  0
LINE
  5
707
  8
2
 10
98.305365134550527
 20
162.742018972225
 30
0.0
 11
99.171390538334833
 21
163.24201897222491
 31
0.0
  0
LINE
  5
708
  8
0
 10
107.6053651345506
 20
90.242018972224955
 30
0.0
 11
102.0053651345507
 21
90.242018972224955
 31
0.0
  0
LINE
  5
709
  8
2
 10
100.8053651345506
 20
155.242018972225
 30
0.0
 11
100.8053651345506
 21
107.2420189722249
 31
0.0
  0
LINE
  5
70A
  8
2
 10
101.4818651345504
 20
119.2420189722249
 30
0.0
 11
101.4818651345503
 21
107.2420189722249
 31
0.0
  0
LINE
  5
70B
  8
2
 10
108.12886513455069
 20
119.2420189722249
 30
0.0
 11
108.12886513455069
 21
107.2420189722249
 31
0.0
  0
LINE
  5
70C
  8
2
 10
108.8053651345506
 20
155.242018972225
 30
0.0
 11
108.8053651345506
 21
107.2420189722249
 31
0.0
  0
LINE
  5
70D
  8
0
 10
108.8053651345506
 20
91.442018972224901
 30
0.0
 11
107.6053651345506
 21
90.242018972224955
 31
0.0
  0
LINE
  5
70E
  8
0
 10
102.0053651345507
 20
90.242018972224955
 30
0.0
 11
100.8053651345506
 21
91.442018972225014
 31
0.0
  0
LINE
  5
70F
  8
0
 10
108.8053651345506
 20
91.442018972224901
 30
0.0
 11
100.8053651345506
 21
91.442018972225014
 31
0.0
  0
LINE
  5
710
  8
2
 10
108.8053651345506
 20
119.2420189722249
 30
0.0
 11
100.8053651345506
 21
119.2420189722249
 31
0.0
  0
LINE
  5
711
  8
2
 10
108.12886513455069
 20
119.2420189722249
 30
0.0
 11
108.8053651345506
 21
120.4137513435451
 31
0.0
  0
LINE
  5
712
  8
2
 10
101.4818651345505
 20
119.2420189722249
 30
0.0
 11
100.8053651345506
 21
120.4137513435451
 31
0.0
  0
LINE
  5
713
  8
2
 10
97.305365134550414
 20
155.242018972225
 30
0.0
 11
112.3053651345504
 21
155.242018972225
 31
0.0
  0
LINE
  5
714
  8
0
 10
91.305365134550641
 20
107.2420189722249
 30
0.0
 11
91.305365134550641
 21
145.15496195279181
 31
0.0
  0
ARC
  5
715
  8
0
 10
63.305365134550762
 20
193.742018972225
 30
0.0
 40
12.5
 50
44.999999999999559
 51
226.02983162532661
  0
LINE
  5
716
  8
1
 10
40.805365134550748
 20
193.742018972225
 30
0.0
 11
85.805365134550755
 21
193.742018972225
 31
0.0
  0
LINE
  5
717
  8
1
 10
63.305365134550527
 20
171.242018972225
 30
0.0
 11
63.305365134550641
 21
216.242018972225
 31
0.0
  0
LINE
  5
718
  8
0
 10
118.3053651345506
 20
107.2420189722249
 30
0.0
 11
118.3053651345506
 21
151.36918888225281
 31
0.0
  0
LINE
  5
719
  8
0
 10
91.305365134550641
 20
107.2420189722249
 30
0.0
 11
118.3053651345506
 21
107.2420189722249
 31
0.0
  0
TEXT
  5
7D6
  8
0
 62
     3
 10
0.0
 20
0.0
 30
0.0
 40
10.0
  1
HH25-600-SUS
  7
STANDARD1
  0
ENDSEC
  0
EOF
