  0
SECTION
  2
HEADER
  9
$ACADVER
  1
AC1009
  9
$INSBASE
 10
0.0
 20
0.0
 30
0.0
  9
$EXTMIN
 10
0.0
 20
-2.960436562073669
 30
0.0
  9
$EXTMAX
 10
148.82716465979701
 20
151.8220257390175
 30
0.0
  9
$LIMMIN
 10
0.0
 20
0.0
  9
$LIMMAX
 10
375.0
 20
270.0
  9
$ORTHOMODE
 70
     0
  9
$REGENMODE
 70
     1
  9
$FILLMODE
 70
     1
  9
$QTEXTMODE
 70
     0
  9
$MIRRTEXT
 70
     0
  9
$DRAGMODE
 70
     2
  9
$LTSCALE
 40
10.0
  9
$OSMODE
 70
    55
  9
$ATTMODE
 70
     1
  9
$TEXTSIZE
 40
0.2
  9
$TRACEWID
 40
0.05
  9
$TEXTSTYLE
  7
STANDARD
  9
$CLAYER
  8
0
  9
$CELTYPE
  6
BYLAYER
  9
$CECOLOR
 62
   256
  9
$DIMSCALE
 40
1.0
  9
$DIMASZ
 40
3.0
  9
$DIMEXO
 40
2.0
  9
$DIMDLI
 40
10.0
  9
$DIMRND
 40
0.0
  9
$DIMDLE
 40
0.0
  9
$DIMEXE
 40
2.0
  9
$DIMTP
 40
0.0
  9
$DIMTM
 40
0.0
  9
$DIMTXT
 40
3.2000000000000002
  9
$DIMCEN
 40
0.09
  9
$DIMTSZ
 40
0.0
  9
$DIMTOL
 70
     0
  9
$DIMLIM
 70
     0
  9
$DIMTIH
 70
     0
  9
$DIMTOH
 70
     0
  9
$DIMSE1
 70
     0
  9
$DIMSE2
 70
     0
  9
$DIMTAD
 70
     1
  9
$DIMZIN
 70
     0
  9
$DIMBLK
  1

  9
$DIMASO
 70
     0
  9
$DIMSHO
 70
     0
  9
$DIMPOST
  1

  9
$DIMAPOST
  1

  9
$DIMALT
 70
     0
  9
$DIMALTD
 70
     2
  9
$DIMALTF
 40
25.399999999999999
  9
$DIMLFAC
 40
1.0
  9
$DIMTOFL
 70
     1
  9
$DIMTVP
 40
1.6000000000000001
  9
$DIMTIX
 70
     0
  9
$DIMSOXD
 70
     0
  9
$DIMSAH
 70
     0
  9
$DIMBLK1
  1

  9
$DIMBLK2
  1

  9
$DIMSTYLE
  2
STANDARD
  9
$DIMCLRD
 70
     0
  9
$DIMCLRE
 70
     0
  9
$DIMCLRT
 70
     0
  9
$DIMTFAC
 40
1.0
  9
$DIMGAP
 40
0.09
  9
$LUNITS
 70
     2
  9
$LUPREC
 70
     4
  9
$SKETCHINC
 40
0.1
  9
$FILLETRAD
 40
0.0
  9
$AUNITS
 70
     0
  9
$AUPREC
 70
     0
  9
$MENU
  1
E:\r13\win\SUPPORT\ACAD
  9
$ELEVATION
 40
0.0
  9
$PELEVATION
 40
0.0
  9
$THICKNESS
 40
0.0
  9
$LIMCHECK
 70
     0
  9
$BLIPMODE
 70
     0
  9
$CHAMFERA
 40
0.0
  9
$CHAMFERB
 40
0.0
  9
$SKPOLY
 70
     0
  9
$TDCREATE
 40
2449840.6171180559
  9
$TDUPDATE
 40
2456598.688214445
  9
$TDINDWG
 40
0.0291133102
  9
$TDUSRTIMER
 40
0.0291133102
  9
$USRTIMER
 70
     1
  9
$ANGBASE
 50
0.0
  9
$ANGDIR
 70
     0
  9
$PDMODE
 70
     0
  9
$PDSIZE
 40
0.0
  9
$PLINEWID
 40
0.0
  9
$COORDS
 70
     1
  9
$SPLFRAME
 70
     0
  9
$SPLINETYPE
 70
     6
  9
$SPLINESEGS
 70
     8
  9
$ATTDIA
 70
     0
  9
$ATTREQ
 70
     1
  9
$HANDLING
 70
     1
  9
$HANDSEED
  5
E03
  9
$SURFTAB1
 70
     6
  9
$SURFTAB2
 70
     6
  9
$SURFTYPE
 70
     6
  9
$SURFU
 70
     6
  9
$SURFV
 70
     6
  9
$UCSNAME
  2

  9
$UCSORG
 10
0.0
 20
0.0
 30
0.0
  9
$UCSXDIR
 10
1.0
 20
0.0
 30
0.0
  9
$UCSYDIR
 10
0.0
 20
1.0
 30
0.0
  9
$PUCSNAME
  2

  9
$PUCSORG
 10
0.0
 20
0.0
 30
0.0
  9
$PUCSXDIR
 10
1.0
 20
0.0
 30
0.0
  9
$PUCSYDIR
 10
0.0
 20
1.0
 30
0.0
  9
$USERI1
 70
     0
  9
$USERI2
 70
     1
  9
$USERI3
 70
     0
  9
$USERI4
 70
     0
  9
$USERI5
 70
     0
  9
$USERR1
 40
0.0
  9
$USERR2
 40
0.0
  9
$USERR3
 40
0.0
  9
$USERR4
 40
0.0
  9
$USERR5
 40
0.0
  9
$WORLDVIEW
 70
     1
  9
$SHADEDGE
 70
     3
  9
$SHADEDIF
 70
    70
  9
$TILEMODE
 70
     1
  9
$MAXACTVP
 70
    16
  9
$PLIMCHECK
 70
     0
  9
$PEXTMIN
 10
1.0000000000000000E+020
 20
1.0000000000000000E+020
 30
1.0000000000000000E+020
  9
$PEXTMAX
 10
-1.0000000000000000E+020
 20
-1.0000000000000000E+020
 30
-1.0000000000000000E+020
  9
$PLIMMIN
 10
0.0
 20
0.0
  9
$PLIMMAX
 10
12.0
 20
9.0
  9
$UNITMODE
 70
     0
  9
$VISRETAIN
 70
     0
  9
$PLINEGEN
 70
     0
  9
$PSLTSCALE
 70
     0
  0
ENDSEC
  0
SECTION
  2
TABLES
  0
TABLE
  2
VPORT
 70
     1
  0
VPORT
  2
*ACTIVE
 70
     0
 10
0.0
 20
0.0
 11
1.0
 21
1.0
 12
187.49427839065231
 22
174.91677254346851
 13
0.0
 23
0.0
 14
10.0
 24
10.0
 15
10.0
 25
10.0
 16
0.0
 26
0.0
 36
1.0
 17
0.0
 27
0.0
 37
0.0
 40
358.92027899574339
 41
1.7807262569832401
 42
50.0
 43
0.0
 44
0.0
 50
0.0
 51
0.0
 71
     0
 72
   100
 73
     1
 74
     0
 75
     0
 76
     0
 77
     0
 78
     0
  0
ENDTAB
  0
TABLE
  2
LTYPE
 70
     4
  0
LTYPE
  2
CONTINUOUS
 70
     0
  3
Solid Line
 72
    65
 73
     0
 40
0.0
  0
LTYPE
  2
CENTER
 70
     0
  3
____ _ ____ _ ____ _ ____ _ ____ _ ____ _ ____
 72
    65
 73
     4
 40
2.0
 49
1.25
 49
-0.25
 49
0.25
 49
-0.25
  0
LTYPE
  2
HIDDEN
 70
     0
  3
Hidden __ __ __ __ __ __ __ __ __ __ __ __ __ _
 72
    65
 73
     2
 40
0.375
 49
0.25
 49
-0.125
  0
LTYPE
  2
PHANTOM2
 70
     0
  3
___ _ _ ___ _ _ ___ _ _ ___ _ _
 72
    65
 73
     6
 40
1.25
 49
0.625
 49
-0.125
 49
0.125
 49
-0.125
 49
0.125
 49
-0.125
  0
ENDTAB
  0
TABLE
  2
LAYER
 70
     3
  0
LAYER
  2
0
 70
     0
 62
     7
  6
CONTINUOUS
  0
LAYER
  2
1
 70
     0
 62
     1
  6
CENTER
  0
LAYER
  2
2
 70
     0
 62
     2
  6
HIDDEN
  0
ENDTAB
  0
TABLE
  2
STYLE
 70
     2
  0
STYLE
  2
STANDARD
 70
     0
 40
0.0
 41
1.0
 50
0.0
 71
     0
 42
0.2
  3
TXT
  4
BIGFONT
  0
STYLE
  2
STANDARD1
 70
     0
 40
0.0
 41
1.0
 50
0.0
 71
     0
 42
3.0
  3
txt
  4

  0
ENDTAB
  0
TABLE
  2
VIEW
 70
     1
  0
VIEW
  2
ALL
 70
     0
 40
270.0
 10
220.99159700000001
 20
135.0
 41
0.0
 11
0.0
 21
0.0
 31
1.0
 12
0.0
 22
0.0
 32
0.0
 42
0.0
 43
0.0
 44
0.0
 50
0.0
 71
     0
  0
ENDTAB
  0
TABLE
  2
UCS
 70
     0
  0
ENDTAB
  0
TABLE
  2
APPID
 70
     6
  0
APPID
  2
ACAD
 70
     0
  0
APPID
  2
GENIUS_GENODEF_13
 70
     0
  0
APPID
  2
GENIUS_GENOREF_13
 70
     0
  0
APPID
  2
GENIUS_GENOBJ-N-CEN_13
 70
     0
  0
APPID
  2
ACAD_MLEADERVER
 70
     0
  0
APPID
  2
ACAD_NAV_VCDISPLAY
 70
     0
  0
ENDTAB
  0
TABLE
  2
DIMSTYLE
 70
     1
  0
DIMSTYLE
  2
STANDARD
 70
     0
  3

  4

  5

  6

  7

 40
1.0
 41
0.18
 42
0.0625
 43
0.38
 44
0.18
 45
0.0
 46
0.0
 47
0.0
 48
0.0
140
0.18
141
0.09
142
0.0
143
25.399999999999999
144
1.0
145
0.0
146
1.0
147
0.09
 71
     0
 72
     0
 73
     1
 74
     1
 75
     0
 76
     0
 77
     0
 78
     0
170
     0
171
     2
172
     0
173
     0
174
     0
175
     0
176
     0
177
     0
178
     0
  0
ENDTAB
  0
ENDSEC
  0
SECTION
  2
BLOCKS
  0
BLOCK
  8
0
  2
$MODEL_SPACE
 70
     0
 10
0.0
 20
0.0
 30
0.0
  3
$MODEL_SPACE
  1

  0
ENDBLK
  5
E8
  8
0
  0
BLOCK
 67
     1
  8
0
  2
$PAPER_SPACE
 70
     0
 10
0.0
 20
0.0
 30
0.0
  3
$PAPER_SPACE
  1

  0
ENDBLK
  5
E6
 67
     1
  8
0
  0
ENDSEC
  0
SECTION
  2
ENTITIES
  0
LINE
  5
C6D
  8
2
 10
118.8271921958149
 20
33.510028594332198
 30
0.0
 11
118.8271921958149
 21
50.822028594332089
 31
0.0
  0
LINE
  5
C6E
  8
2
 10
118.1391921958147
 20
32.822028594332039
 30
0.0
 11
119.6391921958148
 21
34.322028594332103
 31
0.0
  0
LINE
  5
C6F
  8
2
 10
128.82719219581489
 20
33.510028594332198
 30
0.0
 11
128.82719219581489
 21
50.822028594332089
 31
0.0
  0
LINE
  5
C70
  8
2
 10
129.51519219581519
 20
32.822028594332039
 30
0.0
 11
128.01519219581499
 21
34.322028594332103
 31
0.0
  0
LINE
  5
C71
  8
2
 10
128.01519219581499
 20
34.322028594332103
 30
0.0
 11
119.6391921958148
 21
34.322028594332103
 31
0.0
  0
LINE
  5
C72
  8
2
 10
128.82719219581469
 20
50.822028594332089
 30
0.0
 11
128.0151921958149
 21
52.228453850077763
 31
0.0
  0
LINE
  5
C73
  8
2
 10
118.8271921958145
 20
50.822028594332089
 30
0.0
 11
119.6391921958143
 21
52.228453850077763
 31
0.0
  0
LINE
  5
C74
  8
2
 10
118.8271921958148
 20
50.822028594332089
 30
0.0
 11
128.8271921958148
 21
50.822028594332089
 31
0.0
  0
LINE
  5
C75
  8
2
 10
119.6391921958148
 20
34.322028594332153
 30
0.0
 11
119.6391921958148
 21
53.822028594332153
 31
0.0
  0
LINE
  5
C76
  8
2
 10
119.6391921958145
 20
53.822028594332103
 30
0.0
 11
123.8271921958147
 21
56.338432866819737
 31
0.0
  0
LINE
  5
C77
  8
2
 10
128.01519219581499
 20
34.322028594332153
 30
0.0
 11
128.01519219581499
 21
53.822028594332153
 31
0.0
  0
LINE
  5
C78
  8
2
 10
119.6391921958148
 20
53.822028594332153
 30
0.0
 11
128.01519219581499
 21
53.822028594332153
 31
0.0
  0
LINE
  5
C79
  8
2
 10
128.0151921958149
 20
53.822028594332153
 30
0.0
 11
123.8271921958147
 21
56.338432866819737
 31
0.0
  0
LINE
  5
C7A
  8
2
 10
48.139192195814751
 20
32.822025739016617
 30
0.0
 11
49.639192195814871
 21
34.322025739016681
 31
0.0
  0
LINE
  5
C7B
  8
2
 10
58.015192195815068
 20
34.322025739016681
 30
0.0
 11
49.639192195814871
 21
34.322025739016681
 31
0.0
  0
LINE
  5
C7C
  8
2
 10
59.515192195815189
 20
32.822025739016617
 30
0.0
 11
58.015192195815068
 21
34.322025739016681
 31
0.0
  0
LINE
  5
C7D
  8
2
 10
48.827192195814519
 20
50.822025739016681
 30
0.0
 11
49.63919219581431
 21
52.228450994762341
 31
0.0
  0
LINE
  5
C7E
  8
2
 10
58.827192195814739
 20
50.822025739016681
 30
0.0
 11
58.015192195814961
 21
52.228450994762341
 31
0.0
  0
LINE
  5
C7F
  8
2
 10
58.015192195814961
 20
53.822025739016738
 30
0.0
 11
53.827192195814739
 21
56.338430011504329
 31
0.0
  0
LINE
  5
C80
  8
2
 10
49.63919219581453
 20
53.822025739016681
 30
0.0
 11
53.827192195814739
 21
56.338430011504329
 31
0.0
  0
LINE
  5
C81
  8
2
 10
49.639192195814871
 20
53.822025739016738
 30
0.0
 11
58.015192195815068
 21
53.822025739016738
 31
0.0
  0
LINE
  5
C82
  8
2
 10
48.82719219581486
 20
50.822025739016681
 30
0.0
 11
58.82719219581486
 21
50.822025739016681
 31
0.0
  0
LINE
  5
C83
  8
2
 10
58.827192195814973
 20
33.510025739016783
 30
0.0
 11
58.827192195814973
 21
50.822025739016681
 31
0.0
  0
LINE
  5
C84
  8
2
 10
58.015192195815068
 20
34.322025739016738
 30
0.0
 11
58.015192195815068
 21
53.822025739016738
 31
0.0
  0
LINE
  5
C85
  8
2
 10
49.639192195814871
 20
34.322025739016738
 30
0.0
 11
49.639192195814871
 21
53.822025739016738
 31
0.0
  0
LINE
  5
C86
  8
2
 10
48.827192195814973
 20
33.510025739016783
 30
0.0
 11
48.827192195814973
 21
50.822025739016681
 31
0.0
  0
LINE
  5
C87
  8
1
 10
23.827192195815091
 20
121.82202859433271
 30
0.0
 11
83.827192195814874
 21
121.82202859433271
 31
0.0
1001
GENIUS_GENOREF_13
1005
0
  0
LINE
  5
C88
  8
1
 10
53.827192195814973
 20
151.8220257390175
 30
0.0
 11
53.827192195814973
 21
91.822025739017477
 31
0.0
1001
GENIUS_GENOREF_13
1005
0
  0
ARC
  5
C89
  8
0
 10
53.827192195814973
 20
142.82198867287451
 30
0.0
 40
4.0000123854404563
 50
41.696113550725322
 51
138.30388644927521
  0
ARC
  5
C8A
  8
0
 10
37.340430967759403
 20
134.82914484481699
 30
0.0
 40
4.0000123854404563
 50
93.424677426677704
 51
189.754653611024
  0
ARC
  5
C8B
  8
0
 10
33.37848910287255
 20
117.04196454275041
 30
0.0
 40
4.0000123854404563
 50
145.13104091340381
 51
241.1832690276587
  0
ARC
  5
C8C
  8
0
 10
44.814839831540439
 20
102.8542649833161
 30
0.0
 40
4.0000123854404563
 50
196.55957319506089
 51
292.05611490440299
  0
ARC
  5
C8D
  8
0
 10
35.9067565658695
 20
158.7863340239515
 30
0.0
 40
20.000036273999211
 50
273.42467742668089
 51
318.30388644927473
  0
ARC
  5
C8E
  8
0
 10
13.68736778543996
 20
130.76282737704861
 30
0.0
 40
20.000036273999211
 50
325.13104091340512
 51
9.7546536110240147
  0
ARC
  5
C8F
  8
0
 10
21.810254068381141
 20
96.013970518401322
 30
0.0
 40
20.0
 50
16.559573195060121
 51
61.18326902765947
  0
ARC
  5
C90
  8
0
 10
62.839544560089386
 20
102.8542649833161
 30
0.0
 40
4.0000123854404563
 50
247.94388509559701
 51
343.44042680493908
  0
ARC
  5
C91
  8
0
 10
85.844130323248692
 20
96.013970518401322
 30
0.0
 40
20.0
 50
118.81673097234049
 51
163.4404268049399
  0
ARC
  5
C92
  8
0
 10
93.967016606189873
 20
130.76282737704861
 30
0.0
 40
20.000036273999211
 50
170.24534638897589
 51
214.868959086595
  0
ARC
  5
C93
  8
0
 10
74.275895288757283
 20
117.04196454275041
 30
0.0
 40
4.0000123854404563
 50
298.81673097234119
 51
34.868959086596121
  0
ARC
  5
C94
  8
0
 10
70.31395342387043
 20
134.82914484481699
 30
0.0
 40
4.0000123854404563
 50
350.24534638897597
 51
86.575322573322296
  0
ARC
  5
C95
  8
0
 10
71.747627825760333
 20
158.7863340239515
 30
0.0
 40
20.000036273999211
 50
221.6961135507253
 51
266.575322573319
  0
ARC
  5
C96
  8
0
 10
53.82719219581486
 20
80.610656926990075
 30
0.0
 40
20.0
 50
67.943885095597025
 51
112.0561149044029
  0
LINE
  5
C97
  8
0
 10
78.275907674197697
 20
58.888924714447192
 30
0.0
 11
78.275907674197811
 21
53.822025739016759
 31
0.0
  0
LINE
  5
C98
  8
1
  6
CENTER
 62
     1
 10
53.827192195814973
 20
71.822025739017477
 30
0.0
 11
53.827192195814973
 21
27.82202573901667
 31
0.0
  0
LINE
  5
C99
  8
0
  6
CONTINUOUS
 62
     7
 10
33.378476717432143
 20
49.822025739016652
 30
0.0
 11
74.275907674197811
 21
49.822025739016681
 31
0.0
  0
LINE
  5
C9A
  8
0
  6
CONTINUOUS
 62
     7
 10
44.827192195814973
 20
32.822025739016681
 30
0.0
 11
62.82719219581498
 21
32.822025739016681
 31
0.0
  0
LINE
  5
C9B
  8
0
  6
CONTINUOUS
 62
     7
 10
44.827192195814973
 20
48.122025739016657
 30
0.0
 11
44.827192195814973
 21
32.822025739016681
 31
0.0
  0
LINE
  5
C9C
  8
0
  6
CONTINUOUS
 62
     7
 10
62.82719219581486
 20
32.822025739016681
 30
0.0
 11
62.82719219581498
 21
48.122025739016657
 31
0.0
  0
ARC
  5
C9D
  8
0
  6
CONTINUOUS
 62
     7
 10
64.527192195814905
 20
48.122025739016657
 30
0.0
 40
1.700000000000004
 50
90.0
 51
180.0
  0
ARC
  5
C9E
  8
0
  6
CONTINUOUS
 62
     7
 10
43.127192195815041
 20
48.122025739016657
 30
0.0
 40
1.700000000000004
 50
0.0000008537736463
 51
90.0
  0
ARC
  5
C9F
  8
0
 10
53.827192195814973
 20
-28.17797426098252
 30
0.0
 40
95.0
 50
78.03647578224458
 51
101.96352421775541
  0
ARC
  5
CA0
  8
0
 10
72.275907674197583
 20
58.888924714447192
 30
0.0
 40
6.0
 50
0.0
 51
78.03647578224458
  0
ARC
  5
CA1
  8
0
 10
74.275907674197811
 20
53.822025739016681
 30
0.0
 40
4.0
 50
270.0
 51
0.0000000000016284
  0
ARC
  5
CA2
  8
0
 10
33.378476717432143
 20
53.822025739016681
 30
0.0
 40
4.0
 50
179.99999999999841
 51
270.0
  0
ARC
  5
CA3
  8
0
 10
35.378476717432363
 20
58.888924714447192
 30
0.0
 40
6.0
 50
101.96352421775541
 51
180.0
  0
LINE
  5
CA4
  8
0
 10
29.37847671743225
 20
58.888924714447192
 30
0.0
 11
29.378476717432129
 21
53.822025739016759
 31
0.0
  0
LINE
  5
CA5
  8
0
 10
64.57369280573937
 20
62.66633111523759
 30
0.0
 11
64.57369280573937
 21
50.993598614270518
 31
0.0
  0
LINE
  5
CA6
  8
0
 10
43.080691585890342
 20
62.66633111523754
 30
0.0
 11
43.080691585890229
 21
50.993598614270553
 31
0.0
  0
ARC
  5
CA7
  8
0
 10
53.827192195814973
 20
36.113936679760457
 30
0.0
 40
28.644666617300039
 50
67.96543644499036
 51
112.0345635550096
  0
ARC
  5
CA8
  8
0
 10
71.372298854257338
 20
52.955597918178363
 30
0.0
 40
11.854087203467479
 50
72.345391126384882
 51
124.9963473916042
  0
ARC
  5
CA9
  8
0
 10
36.282085537372609
 20
52.955597918178363
 30
0.0
 40
11.854087203467479
 50
55.003652608395818
 51
107.6546088736151
  0
ARC
  5
CAA
  8
0
 10
71.37229885425711
 20
69.618139464096686
 30
0.0
 40
19.826612571737709
 50
249.946157018956
 51
284.74645525181609
  0
ARC
  5
CAB
  8
0
 10
53.82719219581486
 20
99.695089903214651
 30
0.0
 40
49.87306416419797
 50
257.55648387755377
 51
282.44351612244623
  0
ARC
  5
CAC
  8
0
 10
36.282085537372843
 20
69.618139464096686
 30
0.0
 40
19.826612571737709
 50
255.2535447481838
 51
290.053842981044
  0
LINE
  5
CAD
  8
0
 10
100.8594161993578
 20
59.189611700048232
 30
0.0
 11
100.8594161993577
 21
53.822028594332181
 31
0.0
  0
ARC
  5
CAE
  8
0
 10
104.8594161993577
 20
53.822028594332103
 30
0.0
 40
4.0
 50
179.99999999999841
 51
270.0
  0
ARC
  5
CAF
  8
0
 10
144.82716465979701
 20
53.822028594332103
 30
0.0
 40
4.0
 50
270.0
 51
0.0000000000016284
  0
ARC
  5
CB0
  8
0
 10
123.8271921958149
 20
-28.177971405667108
 30
0.0
 40
95.0
 50
77.6734661219933
 51
100.99067134570519
  0
ARC
  5
CB1
  8
0
  6
CONTINUOUS
 62
     7
 10
113.127192195815
 20
48.122028594332079
 30
0.0
 40
1.700000000000004
 50
0.0000008537736463
 51
90.0
  0
ARC
  5
CB2
  8
0
  6
CONTINUOUS
 62
     7
 10
134.52719219581491
 20
48.122028594332079
 30
0.0
 40
1.700000000000004
 50
90.0
 51
180.0
  0
LINE
  5
CB3
  8
0
  6
CONTINUOUS
 62
     7
 10
132.8271921958148
 20
32.822028594332103
 30
0.0
 11
132.827192195815
 21
48.122028594332079
 31
0.0
  0
LINE
  5
CB4
  8
0
  6
CONTINUOUS
 62
     7
 10
114.827192195815
 20
48.122028594332079
 30
0.0
 11
114.827192195815
 21
32.822028594332103
 31
0.0
  0
LINE
  5
CB5
  8
0
  6
CONTINUOUS
 62
     7
 10
114.827192195815
 20
32.822028594332103
 30
0.0
 11
132.827192195815
 21
32.822028594332103
 31
0.0
  0
LINE
  5
CB6
  8
0
  6
CONTINUOUS
 62
     7
 10
104.8594161993577
 20
49.822028594332068
 30
0.0
 11
144.82716465979701
 21
49.822028594332089
 31
0.0
  0
LINE
  5
CB7
  8
1
  6
CENTER
 62
     1
 10
123.8271921958149
 20
71.822028594332892
 30
0.0
 11
123.8271921958149
 21
27.822028594332082
 31
0.0
  0
LINE
  5
CB8
  8
0
 10
148.82716465979689
 20
58.770295088656688
 30
0.0
 11
148.82716465979701
 21
53.822028594332181
 31
0.0
  0
ARC
  5
CB9
  8
0
 10
106.8594161993578
 20
59.18961170004809
 30
0.0
 40
6.0
 50
100.99067134570519
 51
179.99999999999841
  0
ARC
  5
CBA
  8
0
 10
142.82716465979689
 20
58.770295088656553
 30
0.0
 40
6.0
 50
0.0000000000016284
 51
77.6734661219933
  0
LINE
  5
CBB
  8
0
 10
139.31947264335309
 20
62.666333970552927
 30
0.0
 11
139.31947264335301
 21
50.99360146958594
 31
0.0
  0
ARC
  5
CBC
  8
0
 10
144.07331865157479
 20
58.60095549044695
 30
0.0
 40
6.2551062386178691
 50
99.673478173896086
 51
139.46370837176039
  0
ARC
  5
CBD
  8
0
 10
144.07331865157491
 20
59.355023256182733
 30
0.0
 40
9.6183380146086037
 50
240.37981365551209
 51
262.36174574969078
  0
LINE
  5
CBE
  8
0
 10
118.1366342176262
 20
62.666333970552927
 30
0.0
 11
118.1366342176262
 21
50.99360146958594
 31
0.0
  0
ARC
  5
CBF
  8
0
 10
128.72805343048969
 20
36.927453795321981
 30
0.0
 40
27.83286032044694
 50
67.633081428186415
 51
112.3669185718136
  0
ARC
  5
CC0
  8
0
 10
128.72805343048961
 20
98.242265288568944
 30
0.0
 40
48.42121842355769
 50
257.3652508217624
 51
282.6347491782376
  0
ARC
  5
CC1
  8
0
 10
109.6957530552161
 20
46.868804667534221
 30
0.0
 40
17.911181057587068
 50
61.883672737142
 51
113.9147430570597
  0
ARC
  5
CC2
  8
0
 10
109.6957530552161
 20
80.488344624297383
 30
0.0
 40
30.678793140544649
 50
256.16416982360943
 51
285.97019816291697
  0
TEXT
  5
D6C
  8
0
 62
     3
 10
0.0
 20
0.0
 30
0.0
 40
10.0
  1
HK50NT-SUS
  7
STANDARD1
  0
ENDSEC
  0
EOF
