  0
SECTION
  2
HEADER
  9
$ACADVER
  1
AC1009
  9
$INSBASE
 10
0.0
 20
0.0
 30
0.0
  9
$EXTMIN
 10
0.0
 20
-2.960436562073669
 30
0.0
  9
$EXTMAX
 10
452.59047259946249
 20
545.63966871386015
 30
0.0
  9
$LIMMIN
 10
0.0
 20
0.0
  9
$LIMMAX
 10
750.0
 20
540.0
  9
$ORTHOMODE
 70
     1
  9
$REGENMODE
 70
     1
  9
$FILLMODE
 70
     1
  9
$QTEXTMODE
 70
     0
  9
$MIRRTEXT
 70
     0
  9
$DRAGMODE
 70
     2
  9
$LTSCALE
 40
20.0
  9
$OSMODE
 70
    55
  9
$ATTMODE
 70
     1
  9
$TEXTSIZE
 40
0.2
  9
$TRACEWID
 40
0.05
  9
$TEXTSTYLE
  7
STANDARD
  9
$CLAYER
  8
0
  9
$CELTYPE
  6
BYLAYER
  9
$CECOLOR
 62
   256
  9
$DIMSCALE
 40
2.0
  9
$DIMASZ
 40
3.0
  9
$DIMEXO
 40
2.0
  9
$DIMDLI
 40
0.38
  9
$DIMRND
 40
0.0
  9
$DIMDLE
 40
0.0
  9
$DIMEXE
 40
2.0
  9
$DIMTP
 40
0.0
  9
$DIMTM
 40
0.0
  9
$DIMTXT
 40
3.2000000000000002
  9
$DIMCEN
 40
0.0
  9
$DIMTSZ
 40
0.0
  9
$DIMTOL
 70
     0
  9
$DIMLIM
 70
     0
  9
$DIMTIH
 70
     0
  9
$DIMTOH
 70
     0
  9
$DIMSE1
 70
     0
  9
$DIMSE2
 70
     0
  9
$DIMTAD
 70
     1
  9
$DIMZIN
 70
     0
  9
$DIMBLK
  1

  9
$DIMASO
 70
     0
  9
$DIMSHO
 70
     0
  9
$DIMPOST
  1

  9
$DIMAPOST
  1

  9
$DIMALT
 70
     0
  9
$DIMALTD
 70
     2
  9
$DIMALTF
 40
25.399999999999999
  9
$DIMLFAC
 40
1.0
  9
$DIMTOFL
 70
     1
  9
$DIMTVP
 40
1.6000000000000001
  9
$DIMTIX
 70
     1
  9
$DIMSOXD
 70
     0
  9
$DIMSAH
 70
     0
  9
$DIMBLK1
  1

  9
$DIMBLK2
  1

  9
$DIMSTYLE
  2
STANDARD
  9
$DIMCLRD
 70
     0
  9
$DIMCLRE
 70
     0
  9
$DIMCLRT
 70
     0
  9
$DIMTFAC
 40
1.0
  9
$DIMGAP
 40
0.09
  9
$LUNITS
 70
     2
  9
$LUPREC
 70
     4
  9
$SKETCHINC
 40
0.1
  9
$FILLETRAD
 40
0.0
  9
$AUNITS
 70
     0
  9
$AUPREC
 70
     4
  9
$MENU
  1
E:\r13\win\SUPPORT\ACAD
  9
$ELEVATION
 40
0.0
  9
$PELEVATION
 40
0.0
  9
$THICKNESS
 40
0.0
  9
$LIMCHECK
 70
     0
  9
$BLIPMODE
 70
     0
  9
$CHAMFERA
 40
0.0
  9
$CHAMFERB
 40
0.0
  9
$SKPOLY
 70
     0
  9
$TDCREATE
 40
2449840.6096990742
  9
$TDUPDATE
 40
2456598.6914637848
  9
$TDINDWG
 40
0.3134405556
  9
$TDUSRTIMER
 40
0.3134405556
  9
$USRTIMER
 70
     1
  9
$ANGBASE
 50
0.0
  9
$ANGDIR
 70
     0
  9
$PDMODE
 70
     0
  9
$PDSIZE
 40
0.0
  9
$PLINEWID
 40
0.0
  9
$COORDS
 70
     1
  9
$SPLFRAME
 70
     0
  9
$SPLINETYPE
 70
     6
  9
$SPLINESEGS
 70
     8
  9
$ATTDIA
 70
     0
  9
$ATTREQ
 70
     1
  9
$HANDLING
 70
     1
  9
$HANDSEED
  5
3BAE
  9
$SURFTAB1
 70
     6
  9
$SURFTAB2
 70
     6
  9
$SURFTYPE
 70
     6
  9
$SURFU
 70
     6
  9
$SURFV
 70
     6
  9
$UCSNAME
  2

  9
$UCSORG
 10
0.0
 20
0.0
 30
0.0
  9
$UCSXDIR
 10
1.0
 20
0.0
 30
0.0
  9
$UCSYDIR
 10
0.0
 20
1.0
 30
0.0
  9
$PUCSNAME
  2

  9
$PUCSORG
 10
0.0
 20
0.0
 30
0.0
  9
$PUCSXDIR
 10
1.0
 20
0.0
 30
0.0
  9
$PUCSYDIR
 10
0.0
 20
1.0
 30
0.0
  9
$USERI1
 70
     0
  9
$USERI2
 70
     1
  9
$USERI3
 70
     0
  9
$USERI4
 70
     0
  9
$USERI5
 70
     0
  9
$USERR1
 40
0.0
  9
$USERR2
 40
0.0
  9
$USERR3
 40
0.0
  9
$USERR4
 40
0.0
  9
$USERR5
 40
0.0
  9
$WORLDVIEW
 70
     1
  9
$SHADEDGE
 70
     3
  9
$SHADEDIF
 70
    70
  9
$TILEMODE
 70
     1
  9
$MAXACTVP
 70
    16
  9
$PLIMCHECK
 70
     0
  9
$PEXTMIN
 10
1.0000000000000000E+020
 20
1.0000000000000000E+020
 30
1.0000000000000000E+020
  9
$PEXTMAX
 10
-1.0000000000000000E+020
 20
-1.0000000000000000E+020
 30
-1.0000000000000000E+020
  9
$PLIMMIN
 10
0.0
 20
0.0
  9
$PLIMMAX
 10
12.0
 20
9.0
  9
$UNITMODE
 70
     0
  9
$VISRETAIN
 70
     0
  9
$PLINEGEN
 70
     0
  9
$PSLTSCALE
 70
     0
  0
ENDSEC
  0
SECTION
  2
TABLES
  0
TABLE
  2
VPORT
 70
     1
  0
VPORT
  2
*ACTIVE
 70
     0
 10
0.0
 20
0.0
 11
1.0
 21
1.0
 12
374.98855678130468
 22
354.55652359996702
 13
0.0
 23
0.0
 14
20.0
 24
20.0
 15
20.0
 25
20.0
 16
0.0
 26
0.0
 36
1.0
 17
0.0
 27
0.0
 37
0.0
 40
721.36374252082794
 41
1.7807262569832401
 42
50.0
 43
0.0
 44
0.0
 50
0.0
 51
0.0
 71
     0
 72
   500
 73
     1
 74
     0
 75
     0
 76
     0
 77
     0
 78
     2
  0
ENDTAB
  0
TABLE
  2
LTYPE
 70
     3
  0
LTYPE
  2
CONTINUOUS
 70
     0
  3
Solid Line
 72
    65
 73
     0
 40
0.0
  0
LTYPE
  2
CENTER
 70
     0
  3
____ _ ____ _ ____ _ ____ _ ____ _ ____ _ ____
 72
    65
 73
     4
 40
2.0
 49
1.25
 49
-0.25
 49
0.25
 49
-0.25
  0
LTYPE
  2
PHANTOM2
 70
     0
  3
___ _ _ ___ _ _ ___ _ _ ___ _ _
 72
    65
 73
     6
 40
1.25
 49
0.625
 49
-0.125
 49
0.125
 49
-0.125
 49
0.125
 49
-0.125
  0
ENDTAB
  0
TABLE
  2
LAYER
 70
     3
  0
LAYER
  2
0
 70
     0
 62
     7
  6
CONTINUOUS
  0
LAYER
  2
1
 70
     0
 62
     1
  6
CENTER
  0
LAYER
  2
3
 70
     0
 62
     3
  6
CONTINUOUS
  0
ENDTAB
  0
TABLE
  2
STYLE
 70
     2
  0
STYLE
  2
STANDARD
 70
     0
 40
0.0
 41
1.0
 50
0.0
 71
     0
 42
0.2
  3
TXT
  4
BIGFONT
  0
STYLE
  2
STANDARD1
 70
     0
 40
0.0
 41
1.0
 50
0.0
 71
     0
 42
3.0
  3
txt
  4

  0
ENDTAB
  0
TABLE
  2
VIEW
 70
     1
  0
VIEW
  2
ALL
 70
     0
 40
540.0
 10
441.98319327731087
 20
270.0
 41
0.0
 11
0.0
 21
0.0
 31
1.0
 12
0.0
 22
0.0
 32
0.0
 42
0.0
 43
0.0
 44
0.0
 50
0.0
 71
     0
  0
ENDTAB
  0
TABLE
  2
UCS
 70
     0
  0
ENDTAB
  0
TABLE
  2
APPID
 70
     3
  0
APPID
  2
ACAD
 70
     0
  0
APPID
  2
ACAD_MLEADERVER
 70
     0
  0
APPID
  2
ACAD_NAV_VCDISPLAY
 70
     0
  0
ENDTAB
  0
TABLE
  2
DIMSTYLE
 70
     1
  0
DIMSTYLE
  2
STANDARD
 70
     0
  3

  4

  5

  6

  7

 40
1.0
 41
0.18
 42
0.0625
 43
0.38
 44
0.18
 45
0.0
 46
0.0
 47
0.0
 48
0.0
140
0.18
141
0.09
142
0.0
143
25.399999999999999
144
1.0
145
0.0
146
1.0
147
0.09
 71
     0
 72
     0
 73
     1
 74
     1
 75
     0
 76
     0
 77
     0
 78
     0
170
     0
171
     2
172
     0
173
     0
174
     0
175
     0
176
     0
177
     0
178
     0
  0
ENDTAB
  0
ENDSEC
  0
SECTION
  2
BLOCKS
  0
BLOCK
  8
0
  2
$MODEL_SPACE
 70
     0
 10
0.0
 20
0.0
 30
0.0
  3
$MODEL_SPACE
  1

  0
ENDBLK
  5
1A2
  8
0
  0
BLOCK
 67
     1
  8
0
  2
$PAPER_SPACE
 70
     0
 10
0.0
 20
0.0
 30
0.0
  3
$PAPER_SPACE
  1

  0
ENDBLK
  5
1A0
 67
     1
  8
0
  0
ENDSEC
  0
SECTION
  2
ENTITIES
  0
ARC
  5
17C6
  8
0
 10
183.11734435997141
 20
98.531613943102457
 30
0.0
 40
2.2783097880693801
 50
266.60473667840972
 51
272.83587523673862
  0
LINE
  5
17FD
  8
0
 10
380.69047259946319
 20
90.638778142329784
 30
0.0
 11
381.45247259946291
 21
89.87677814232984
 31
0.0
  0
LINE
  5
17FE
  8
0
 10
380.69047259946319
 20
91.375378142329737
 30
0.0
 11
380.69047259946319
 21
90.638778142329784
 31
0.0
  0
LINE
  5
17FF
  8
0
 10
427.52847259946287
 20
89.876778142330295
 30
0.0
 11
381.4524725994624
 21
89.876778142330295
 31
0.0
  0
LINE
  5
1800
  8
0
 10
428.29047259946299
 20
91.375378142330177
 30
0.0
 11
428.29047259946299
 21
90.638778142330224
 31
0.0
  0
LINE
  5
1801
  8
0
 10
428.29047259946299
 20
90.638778142330224
 30
0.0
 11
427.52847259946287
 21
89.876778142330295
 31
0.0
  0
LINE
  5
1802
  8
0
 10
208.7823984302961
 20
497.09695452586021
 30
0.0
 11
208.7823984302961
 21
497.98238362476297
 31
0.0
  0
LINE
  5
1805
  8
0
 10
61.18241408680683
 20
497.09695416440832
 30
0.0
 11
61.18241408680683
 21
497.98238326331119
 31
0.0
  0
ARC
  5
1810
  8
0
 10
403.97425880655322
 20
117.0622871805583
 30
0.0
 40
18.890323718542732
 50
271.56591038197661
 51
29.959249384573219
  0
POLYLINE
  5
182D
  8
3
 66
     1
 10
0.0
 20
0.0
 30
0.0
 70
     2
  0
VERTEX
  5
182E
  8
3
 10
160.82856192699589
 20
309.9810242542203
 30
0.0
 42
0.016087974825564
  0
VERTEX
  5
182F
  8
3
 10
160.7186424356519
 20
309.69527612464458
 30
0.0
 42
0.0294565446244912
 70
     1
  0
VERTEX
  5
1830
  8
3
 10
160.6730228719077
 20
309.53430117271461
 30
0.0
 42
0.0048489197821614
  0
VERTEX
  5
1831
  8
3
 10
160.5877807473905
 20
309.12953047153309
 30
0.0
 42
0.0164706735313403
 70
     1
  0
VERTEX
  5
1832
  8
3
 10
160.567782684202
 20
309.00937601946538
 30
0.0
 42
0.020116973829013
  0
VERTEX
  5
1833
  8
3
 10
160.5516144246412
 20
308.83366468615532
 30
0.0
 42
0.0120363493538336
 70
     1
  0
VERTEX
  5
1834
  8
3
 10
160.54351986069781
 20
308.53893632003729
 30
0.0
 42
0.0357086660469519
  0
VERTEX
  5
1835
  8
3
 10
160.56805942154071
 20
308.17862187667288
 30
0.0
 42
0.0295206320738446
 70
     1
  0
VERTEX
  5
1836
  8
3
 10
160.6541338738659
 20
307.750513002432
 30
0.0
 42
0.0349866948399365
  0
VERTEX
  5
1837
  8
3
 10
160.80088739823211
 20
307.31837821627602
 30
0.0
 42
0.0390802449071797
 70
     1
  0
VERTEX
  5
1838
  8
3
 10
160.98796102289199
 20
306.95501346812853
 30
0.0
 42
0.0131502549876046
  0
VERTEX
  5
1839
  8
3
 10
161.1635628016156
 20
306.68690993560722
 30
0.0
 42
0.0213161985947591
 70
     1
  0
VERTEX
  5
183A
  8
3
 10
161.28306127890389
 20
306.52932238161088
 30
0.0
 42
0.0146984066312183
  0
VERTEX
  5
183B
  8
3
 10
161.46405672458059
 20
306.32329583845882
 30
0.0
 42
0.0165338450848803
 70
     1
  0
VERTEX
  5
183C
  8
3
 10
161.6360881239402
 20
306.15053111350812
 30
0.0
 42
0.0193710885677449
  0
VERTEX
  5
183D
  8
3
 10
161.92076542659919
 20
305.90299593190957
 30
0.0
 42
0.0194765494887473
 70
     1
  0
VERTEX
  5
183E
  8
3
 10
162.22215510402239
 20
305.67951613787977
 30
0.0
 42
0.0095365525332097
  0
VERTEX
  5
183F
  8
3
 10
162.29526025568339
 20
305.63161819578181
 30
0.0
 42
0.0017728574046837
 70
     1
  0
VERTEX
  5
1840
  8
3
 10
162.69419894091061
 20
305.3829471761353
 30
0.0
 42
0.0219140016916017
  0
VERTEX
  5
1841
  8
3
 10
162.96469327514569
 20
305.2316325047932
 30
0.0
 42
0.0139359446577048
 70
     1
  0
VERTEX
  5
1842
  8
3
 10
163.40586512411119
 20
305.02483093691279
 30
0.0
  0
SEQEND
  5
1843
  8
3
  0
POLYLINE
  5
1844
  8
3
 66
     1
 10
0.0
 20
0.0
 30
0.0
 70
     2
  0
VERTEX
  5
1845
  8
3
 10
162.04384202314981
 20
309.56146326864342
 30
0.0
 42
0.0026906740884828
  0
VERTEX
  5
1846
  8
3
 10
162.01587004308701
 20
309.4640846034099
 30
0.0
 42
0.0059061153621747
 70
     1
  0
VERTEX
  5
1847
  8
3
 10
162.00389099972469
 20
309.41950762522202
 30
0.0
 42
0.0005004175511189
  0
VERTEX
  5
1848
  8
3
 10
161.96008062579401
 20
309.24772602956091
 30
0.0
 42
0.0033639154750145
 70
     1
  0
VERTEX
  5
1849
  8
3
 10
161.95376099801609
 20
309.22212183443321
 30
0.0
 42
0.0119865293206523
  0
VERTEX
  5
184A
  8
3
 10
161.93989283729229
 20
309.15746385897643
 30
0.0
 42
0.0052964149707432
 70
     1
  0
VERTEX
  5
184B
  8
3
 10
161.91358587328199
 20
309.01015361847521
 30
0.0
 42
0.0162695922622576
  0
VERTEX
  5
184C
  8
3
 10
161.90495502964831
 20
308.94593149760391
 30
0.0
 42
0.0053195966319834
 70
     1
  0
VERTEX
  5
184D
  8
3
 10
161.88706488079879
 20
308.74860325209329
 30
0.0
 42
0.033491964524574
  0
VERTEX
  5
184E
  8
3
 10
161.8840438931079
 20
308.5129090111331
 30
0.0
 42
0.0268767850302914
 70
     1
  0
VERTEX
  5
184F
  8
3
 10
161.91565824261301
 20
308.22100340170408
 30
0.0
 42
0.0412387229764941
  0
VERTEX
  5
1850
  8
3
 10
161.97498861562849
 20
307.98274602483713
 30
0.0
 42
0.0358795951586934
 70
     1
  0
VERTEX
  5
1851
  8
3
 10
162.08437560948639
 20
307.72272723384248
 30
0.0
 42
0.0240922091235579
  0
VERTEX
  5
1852
  8
3
 10
162.22264131383869
 20
307.48018308517658
 30
0.0
 42
0.0264569452042216
 70
     1
  0
VERTEX
  5
1853
  8
3
 10
162.37021010670151
 20
307.27312484815252
 30
0.0
 42
0.0184737666807486
  0
VERTEX
  5
1854
  8
3
 10
162.54705903011379
 20
307.06697311538028
 30
0.0
 42
0.0193799598395393
 70
     1
  0
VERTEX
  5
1855
  8
3
 10
162.73002358450859
 20
306.88376639350759
 30
0.0
 42
0.0225332076539771
  0
VERTEX
  5
1856
  8
3
 10
162.83692965780929
 20
306.7933094770205
 30
0.0
 42
0.0059471246207348
 70
     1
  0
VERTEX
  5
1857
  8
3
 10
163.26064099609991
 20
306.47433821786808
 30
0.0
 42
0.0353330598295782
  0
VERTEX
  5
1858
  8
3
 10
163.46665261977071
 20
306.3443853143163
 30
0.0
 42
0.0205071194366446
 70
     1
  0
VERTEX
  5
1859
  8
3
 10
163.84402733564951
 20
306.1615725234513
 30
0.0
  0
SEQEND
  5
185A
  8
3
  0
POLYLINE
  5
185B
  8
3
 66
     1
 10
0.0
 20
0.0
 30
0.0
 70
     2
  0
VERTEX
  5
185C
  8
3
 10
163.40586512411119
 20
305.02483093691308
 30
0.0
 42
0.0176244373477952
  0
VERTEX
  5
185D
  8
3
 10
163.824287470652
 20
304.85027938766422
 30
0.0
 42
0.0328854733123376
 70
     1
  0
VERTEX
  5
185E
  8
3
 10
164.05700232010889
 20
304.7797624263917
 30
0.0
 42
0.0082251292192052
  0
VERTEX
  5
185F
  8
3
 10
164.73557515874921
 20
304.63369129042212
 30
0.0
 42
0.0245712095013932
 70
     1
  0
VERTEX
  5
1860
  8
3
 10
164.96556449719239
 20
304.59976778081318
 30
0.0
 42
0.0228323727866116
  0
VERTEX
  5
1861
  8
3
 10
165.31188640776961
 20
304.58186256961932
 30
0.0
 42
0.022064833152949
 70
     1
  0
VERTEX
  5
1862
  8
3
 10
165.67046088865371
 20
304.59553957890279
 30
0.0
 42
0.0282518710921609
  0
VERTEX
  5
1863
  8
3
 10
166.02906722340231
 20
304.64561267166528
 30
0.0
 42
0.0286764897911653
 70
     1
  0
VERTEX
  5
1864
  8
3
 10
166.37448259062739
 20
304.73475476550038
 30
0.0
 42
0.0311038056076382
  0
VERTEX
  5
1865
  8
3
 10
166.71987670101399
 20
304.8695500828149
 30
0.0
 42
0.0317234129409477
 70
     1
  0
VERTEX
  5
1866
  8
3
 10
167.03931123126719
 20
305.04310494064231
 30
0.0
 42
0.0217460373216174
  0
VERTEX
  5
1867
  8
3
 10
167.2509724866668
 20
305.18934724847799
 30
0.0
 42
0.0202483819797686
 70
     1
  0
VERTEX
  5
1868
  8
3
 10
167.46430087188151
 20
305.36490856005281
 30
0.0
 42
0.0361194286210756
  0
VERTEX
  5
1869
  8
3
 10
167.70718907861419
 20
305.61563963531489
 30
0.0
 42
0.0315648721496504
 70
     1
  0
VERTEX
  5
186A
  8
3
 10
167.94380538719989
 20
305.93732185180488
 30
0.0
 42
0.0366807199462765
  0
VERTEX
  5
186B
  8
3
 10
168.12320212085569
 20
306.2674629420103
 30
0.0
 42
0.0355689719279382
 70
     1
  0
VERTEX
  5
186C
  8
3
 10
168.2572648675131
 20
306.63097716601601
 30
0.0
 42
0.0287890758506687
  0
VERTEX
  5
186D
  8
3
 10
168.33828707437391
 20
306.98554811914892
 30
0.0
 42
0.0347215915989688
 70
     1
  0
VERTEX
  5
186E
  8
3
 10
168.3677063049104
 20
307.28579066451721
 30
0.0
 42
0.0285640589658631
  0
VERTEX
  5
186F
  8
3
 10
168.35856039522901
 20
307.60266595522808
 30
0.0
 42
0.0337950097058539
 70
     1
  0
VERTEX
  5
1870
  8
3
 10
168.31757127898859
 20
307.86753990183712
 30
0.0
 42
0.0264022688219265
  0
VERTEX
  5
1871
  8
3
 10
168.2298411794099
 20
308.17980360822003
 30
0.0
 42
0.0321667432376127
 70
     1
  0
VERTEX
  5
1872
  8
3
 10
168.1283461965981
 20
308.4260222681765
 30
0.0
 42
0.0166408695566333
  0
VERTEX
  5
1873
  8
3
 10
168.06607897900719
 20
308.5431610570422
 30
0.0
 42
0.0057302553841867
 70
     1
  0
VERTEX
  5
1874
  8
3
 10
167.87026740773439
 20
308.87482771404888
 30
0.0
 42
0.0295930352090003
  0
VERTEX
  5
1875
  8
3
 10
167.76037154391449
 20
309.03410829471892
 30
0.0
 42
0.0176508169558685
 70
     1
  0
VERTEX
  5
1876
  8
3
 10
167.55187171064969
 20
309.28244487922029
 30
0.0
  0
SEQEND
  5
1877
  8
3
  0
POLYLINE
  5
1878
  8
3
 66
     1
 10
0.0
 20
0.0
 30
0.0
 70
     2
  0
VERTEX
  5
1879
  8
3
 10
163.84402733564951
 20
306.1615725234513
 30
0.0
 42
0.0066867612104433
  0
VERTEX
  5
187A
  8
3
 10
164.01182089579379
 20
306.09046191604187
 30
0.0
 42
0.0112982152863167
 70
     1
  0
VERTEX
  5
187B
  8
3
 10
164.11258580376801
 20
306.05197087774968
 30
0.0
 42
0.0005582648989916
  0
VERTEX
  5
187C
  8
3
 10
164.30553922017859
 20
305.9834617088427
 30
0.0
 42
0.0058622915125066
 70
     1
  0
VERTEX
  5
187D
  8
3
 10
164.32399702445349
 20
305.9771738629795
 30
0.0
 42
0.0101331986227822
  0
VERTEX
  5
187E
  8
3
 10
164.43826317474301
 20
305.94228487410243
 30
0.0
 42
0.0081593251536861
 70
     1
  0
VERTEX
  5
187F
  8
3
 10
164.5816568357036
 20
305.90417647900972
 30
0.0
 42
0.0090056683056315
  0
VERTEX
  5
1880
  8
3
 10
164.68774233924341
 20
305.87984842017158
 30
0.0
 42
0.0067528608720449
 70
     1
  0
VERTEX
  5
1881
  8
3
 10
164.8301658375967
 20
305.8518795202346
 30
0.0
 42
0.0118684188552092
  0
VERTEX
  5
1882
  8
3
 10
164.91510894692331
 20
305.83846155358702
 30
0.0
 42
0.0061315337798189
 70
     1
  0
VERTEX
  5
1883
  8
3
 10
165.0803390858207
 20
305.818425727381
 30
0.0
 42
0.0242685370264668
  0
VERTEX
  5
1884
  8
3
 10
165.2679390305056
 20
305.80717870144281
 30
0.0
 42
0.0183741728880429
 70
     1
  0
VERTEX
  5
1885
  8
3
 10
165.5160228650652
 20
305.8134792145807
 30
0.0
 42
0.0244246518201534
  0
VERTEX
  5
1886
  8
3
 10
165.70025437902581
 20
305.8340086629712
 30
0.0
 42
0.0242967262906249
 70
     1
  0
VERTEX
  5
1887
  8
3
 10
165.88256914909701
 20
305.87256254926211
 30
0.0
 42
0.0232611460977368
  0
VERTEX
  5
1888
  8
3
 10
166.03072202935979
 20
305.91895978161801
 30
0.0
 42
0.0245956098636656
 70
     1
  0
VERTEX
  5
1889
  8
3
 10
166.16601157997749
 20
305.97603040404812
 30
0.0
 42
0.0259296141063704
  0
VERTEX
  5
188A
  8
3
 10
166.29437211125881
 20
306.04619083083708
 30
0.0
 42
0.0227731151755195
 70
     1
  0
VERTEX
  5
188B
  8
3
 10
166.43204317193181
 20
306.13989370411491
 30
0.0
 42
0.0256466950589102
  0
VERTEX
  5
188C
  8
3
 10
166.54780081316761
 20
306.23629735415898
 30
0.0
 42
0.0254487557106354
 70
     1
  0
VERTEX
  5
188D
  8
3
 10
166.6539406233623
 20
306.34484117488819
 30
0.0
 42
0.0335349936178697
  0
VERTEX
  5
188E
  8
3
 10
166.74918305112331
 20
306.46850945904481
 30
0.0
 42
0.0276670616934914
 70
     1
  0
VERTEX
  5
188F
  8
3
 10
166.8454313870516
 20
306.63131829643407
 30
0.0
 42
0.0283059780910356
  0
VERTEX
  5
1890
  8
3
 10
166.92731404432669
 20
306.81370181740613
 30
0.0
 42
0.0348313087845807
 70
     1
  0
VERTEX
  5
1891
  8
3
 10
166.97468696252119
 20
306.96917960119208
 30
0.0
 42
0.0226189204592732
  0
VERTEX
  5
1892
  8
3
 10
167.00218804513929
 20
307.11954839337881
 30
0.0
 42
0.0290301119937907
 70
     1
  0
VERTEX
  5
1893
  8
3
 10
167.0114263733239
 20
307.23833284781591
 30
0.0
 42
0.0193703576611247
  0
VERTEX
  5
1894
  8
3
 10
167.00910118295289
 20
307.35966082895629
 30
0.0
 42
0.0212958784611432
 70
     1
  0
VERTEX
  5
1895
  8
3
 10
166.99802781339761
 20
307.46949072402663
 30
0.0
 42
0.0235792843854353
  0
VERTEX
  5
1896
  8
3
 10
166.97732975855749
 20
307.57698716019968
 30
0.0
 42
0.020216974771488
 70
     1
  0
VERTEX
  5
1897
  8
3
 10
166.94232102288811
 20
307.69975141769169
 30
0.0
 42
0.0322042560048391
  0
VERTEX
  5
1898
  8
3
 10
166.8733387180896
 20
307.87115988453479
 30
0.0
 42
0.031590499312099
 70
     1
  0
VERTEX
  5
1899
  8
3
 10
166.7813641320908
 20
308.03552765660379
 30
0.0
 42
0.0138122285784445
  0
VERTEX
  5
189A
  8
3
 10
166.74302631519461
 20
308.09145295875811
 30
0.0
 42
0.0039341565331664
 70
     1
  0
VERTEX
  5
189B
  8
3
 10
166.60157057471901
 20
308.28286501519568
 30
0.0
 42
0.0238942743271562
  0
VERTEX
  5
189C
  8
3
 10
166.52066102894059
 20
308.38048311951479
 30
0.0
 42
0.01454363950929
 70
     1
  0
VERTEX
  5
189D
  8
3
 10
166.37586086930349
 20
308.53012862922009
 30
0.0
  0
SEQEND
  5
189E
  8
3
  0
POLYLINE
  5
189F
  8
3
 66
     1
 10
0.0
 20
0.0
 30
0.0
 70
     2
  0
VERTEX
  5
18A0
  8
3
 10
166.37586086930349
 20
308.53012862922009
 30
0.0
 42
0.0042884072656691
  0
VERTEX
  5
18A1
  8
3
 10
166.27162193605909
 20
308.63013931407568
 30
0.0
 42
0.0104253444952605
 70
     1
  0
VERTEX
  5
18A2
  8
3
 10
166.2275480114308
 20
308.6700023609917
 30
0.0
 42
0.0004303700512697
  0
VERTEX
  5
18A3
  8
3
 10
166.01075755363851
 20
308.85768695110983
 30
0.0
 42
0.0048545131816567
 70
     1
  0
VERTEX
  5
18A4
  8
3
 10
165.99136305518411
 20
308.87412218202991
 30
0.0
 42
0.0018883781722362
  0
VERTEX
  5
18A5
  8
3
 10
165.83242002630141
 20
309.00517191572823
 30
0.0
 42
0.0020671235557057
 70
     1
  0
VERTEX
  5
18A6
  8
3
 10
165.68627825757761
 20
309.12373738257361
 30
0.0
 42
0.0012761565761821
  0
VERTEX
  5
18A7
  8
3
 10
165.48924346148851
 20
309.28141967320062
 30
0.0
 42
0.0013478153827594
 70
     1
  0
VERTEX
  5
18A8
  8
3
 10
165.30190336787359
 20
309.42973745261452
 30
0.0
 42
0.0031964036520709
  0
VERTEX
  5
18A9
  8
3
 10
165.12647020880709
 20
309.56605315563519
 30
0.0
 42
-0.0019330719886059
 70
     1
  0
VERTEX
  5
18AA
  8
3
 10
164.83581851396181
 20
309.79072092044521
 30
0.0
 42
-0.003389088505753
  0
VERTEX
  5
18AB
  8
3
 10
164.5633884488488
 20
310.00597481200481
 30
0.0
 42
-0.0031535636327608
 70
     1
  0
VERTEX
  5
18AC
  8
3
 10
164.27366430027041
 20
310.24111578790888
 30
0.0
 42
-0.0095669005061381
  0
VERTEX
  5
18AD
  8
3
 10
164.0505532637689
 20
310.4318087789552
 30
0.0
 42
-0.0079526854073395
 70
     1
  0
VERTEX
  5
18AE
  8
3
 10
163.79036393974269
 20
310.67046283756872
 30
0.0
 42
-0.0059692919572473
  0
VERTEX
  5
18AF
  8
3
 10
163.7550909042038
 20
310.70467269303572
 30
0.0
 42
-0.0010740817462325
 70
     1
  0
VERTEX
  5
18B0
  8
3
 10
163.56176252149771
 20
310.89753242746218
 30
0.0
 42
-0.0180961488233923
  0
VERTEX
  5
18B1
  8
3
 10
163.49215280411221
 20
310.97251220601629
 30
0.0
 42
-0.0092715630341532
 70
     1
  0
VERTEX
  5
18B2
  8
3
 10
163.36452906641901
 20
311.12603305229732
 30
0.0
  0
SEQEND
  5
18B3
  8
3
  0
POLYLINE
  5
18B4
  8
3
 66
     1
 10
0.0
 20
0.0
 30
0.0
 70
     2
  0
VERTEX
  5
18B5
  8
3
 10
167.55187171064969
 20
309.28244487922001
 30
0.0
 42
0.0104917044821307
  0
VERTEX
  5
18B6
  8
3
 10
167.21156272726139
 20
309.62277934687239
 30
0.0
 42
0.0174585681791825
 70
     1
  0
VERTEX
  5
18B7
  8
3
 10
166.9959057470769
 20
309.81559573921709
 30
0.0
 42
0.0003567443599567
  0
VERTEX
  5
18B8
  8
3
 10
166.60490961084719
 20
310.14087900109831
 30
0.0
 42
0.0062396662288099
 70
     1
  0
VERTEX
  5
18B9
  8
3
 10
166.582310666349
 20
310.15918080838418
 30
0.0
 42
0.0010864601998443
  0
VERTEX
  5
18BA
  8
3
 10
166.321055761975
 20
310.3644940630993
 30
0.0
 42
0.0006995005794904
 70
     1
  0
VERTEX
  5
18BB
  8
3
 10
165.9141399938207
 20
310.6819337438817
 30
0.0
 42
0.0030496431519924
  0
VERTEX
  5
18BC
  8
3
 10
165.50736451329951
 20
310.99438609602731
 30
0.0
 42
-0.0043027235803143
 70
     1
  0
VERTEX
  5
18BD
  8
3
 10
165.21960734048179
 20
311.21656697218401
 30
0.0
 42
-0.0103092645921292
  0
VERTEX
  5
18BE
  8
3
 10
165.02158176138249
 20
311.3789178223642
 30
0.0
 42
-0.0094036086640033
 70
     1
  0
VERTEX
  5
18BF
  8
3
 10
164.81167211312959
 20
311.5653196822214
 30
0.0
 42
-0.00373343615963
  0
VERTEX
  5
18C0
  8
3
 10
164.7099593758175
 20
311.6605366011508
 30
0.0
 42
-0.004375693940079
 70
     1
  0
VERTEX
  5
18C1
  8
3
 10
164.62450437375881
 20
311.74317487781877
 30
0.0
 42
-0.0062109026071195
  0
VERTEX
  5
18C2
  8
3
 10
164.5345997855766
 20
311.83387732572101
 30
0.0
 42
-0.0061797018730248
 70
     1
  0
VERTEX
  5
18C3
  8
3
 10
164.4465278591374
 20
311.92724863187692
 30
0.0
 42
-0.0126320278016463
  0
VERTEX
  5
18C4
  8
3
 10
164.3701055547171
 20
312.0146328886849
 30
0.0
 42
-0.013795046931703
 70
     1
  0
VERTEX
  5
18C5
  8
3
 10
164.30444890263419
 20
312.09823764404291
 30
0.0
 42
-0.011154453089466
  0
VERTEX
  5
18C6
  8
3
 10
164.2913053447482
 20
312.11681162444529
 30
0.0
 42
-0.002436387141317
 70
     1
  0
VERTEX
  5
18C7
  8
3
 10
164.23347066631459
 20
312.20344215637778
 30
0.0
 42
-0.0242438232422245
  0
VERTEX
  5
18C8
  8
3
 10
164.2107891219475
 20
312.24168729615758
 30
0.0
 42
-0.0132689473200122
 70
     1
  0
VERTEX
  5
18C9
  8
3
 10
164.1747157971881
 20
312.31444471095119
 30
0.0
  0
SEQEND
  5
18CA
  8
3
  0
POLYLINE
  5
18CB
  8
3
 66
     1
 10
0.0
 20
0.0
 30
0.0
 70
     2
  0
VERTEX
  5
18CC
  8
3
 10
163.36452906641901
 20
311.12603305229732
 30
0.0
 42
-0.0222784758474348
  0
VERTEX
  5
18CD
  8
3
 10
163.16315576222311
 20
311.3972838397558
 30
0.0
 42
-0.037081560597345
 70
     1
  0
VERTEX
  5
18CE
  8
3
 10
163.06222910776091
 20
311.5735833745498
 30
0.0
 42
-0.0098012723125326
  0
VERTEX
  5
18CF
  8
3
 10
162.8823231340657
 20
311.96982426504201
 30
0.0
 42
-0.0264751799790933
 70
     1
  0
VERTEX
  5
18D0
  8
3
 10
162.82649386649399
 20
312.12104776472552
 30
0.0
 42
-0.0342422283409016
  0
VERTEX
  5
18D1
  8
3
 10
162.76082193823231
 20
312.39868926261261
 30
0.0
 42
-0.0326872453024134
 70
     1
  0
VERTEX
  5
18D2
  8
3
 10
162.73144612582649
 20
312.6960858374951
 30
0.0
 42
-0.0295119195028198
  0
VERTEX
  5
18D3
  8
3
 10
162.7387556347671
 20
312.97823498849402
 30
0.0
 42
-0.0313002056254777
 70
     1
  0
VERTEX
  5
18D4
  8
3
 10
162.7778668478158
 20
313.24149273522471
 30
0.0
 42
-0.027059155447131
  0
VERTEX
  5
18D5
  8
3
 10
162.8492620896015
 20
313.50543630406918
 30
0.0
 42
-0.0269469565375587
 70
     1
  0
VERTEX
  5
18D6
  8
3
 10
162.9491016866113
 20
313.76120673018181
 30
0.0
 42
-0.0267359634247539
  0
VERTEX
  5
18D7
  8
3
 10
163.09775239900819
 20
314.04708795246819
 30
0.0
 42
-0.0309971043176204
 70
     1
  0
VERTEX
  5
18D8
  8
3
 10
163.25355385379001
 20
314.27731737558628
 30
0.0
 42
-0.0217910362672572
  0
VERTEX
  5
18D9
  8
3
 10
163.39344467291451
 20
314.44323934118978
 30
0.0
 42
-0.0196546035086452
 70
     1
  0
VERTEX
  5
18DA
  8
3
 10
163.56322288581069
 20
314.61371069987331
 30
0.0
 42
-0.0298187091717417
  0
VERTEX
  5
18DB
  8
3
 10
163.79154202217981
 20
314.80158004674422
 30
0.0
 42
-0.0268982229979381
 70
     1
  0
VERTEX
  5
18DC
  8
3
 10
164.06654730277251
 20
314.97983823505569
 30
0.0
 42
-0.0319548823875989
  0
VERTEX
  5
18DD
  8
3
 10
164.33659712961889
 20
315.1127730432645
 30
0.0
 42
-0.0307556875846327
 70
     1
  0
VERTEX
  5
18DE
  8
3
 10
164.63222367948941
 20
315.21471231157437
 30
0.0
 42
-0.0291006965078079
  0
VERTEX
  5
18DF
  8
3
 10
164.96079040721091
 20
315.28556166118392
 30
0.0
 42
-0.0299664647488445
 70
     1
  0
VERTEX
  5
18E0
  8
3
 10
165.28576515441679
 20
315.31629130078659
 30
0.0
 42
-0.0215036906646015
  0
VERTEX
  5
18E1
  8
3
 10
165.6671320543355
 20
315.31299773195752
 30
0.0
 42
-0.0237466065196806
 70
     1
  0
VERTEX
  5
18E2
  8
3
 10
166.0108306234865
 20
315.27881795716598
 30
0.0
 42
-0.0152109995187875
  0
VERTEX
  5
18E3
  8
3
 10
166.14960262810919
 20
315.25399196983381
 30
0.0
 42
-0.0041215056944229
 70
     1
  0
VERTEX
  5
18E4
  8
3
 10
166.6577271261894
 20
315.1426640665286
 30
0.0
 42
-0.0319963560531604
  0
VERTEX
  5
18E5
  8
3
 10
166.94839131538899
 20
315.05659002905031
 30
0.0
 42
-0.0197079753126076
 70
     1
  0
VERTEX
  5
18E6
  8
3
 10
167.4030619029574
 20
314.8690130763357
 30
0.0
  0
SEQEND
  5
18E7
  8
3
  0
POLYLINE
  5
18E8
  8
3
 66
     1
 10
0.0
 20
0.0
 30
0.0
 70
     2
  0
VERTEX
  5
18E9
  8
3
 10
164.1747157971881
 20
312.31444471095102
 30
0.0
 42
-0.0432393810841627
  0
VERTEX
  5
18EA
  8
3
 10
164.09154236020549
 20
312.53869981449998
 30
0.0
 42
-0.0663142471158761
 70
     1
  0
VERTEX
  5
18EB
  8
3
 10
164.07029772612171
 20
312.69359909498672
 30
0.0
 42
-0.0148320706215727
  0
VERTEX
  5
18EC
  8
3
 10
164.07682693170429
 20
312.94665548070219
 30
0.0
 42
-0.0408627219107896
 70
     1
  0
VERTEX
  5
18ED
  8
3
 10
164.08940632947201
 20
313.03780799274909
 30
0.0
 42
-0.0244972978562581
  0
VERTEX
  5
18EE
  8
3
 10
164.12945508289289
 20
313.18376162240139
 30
0.0
 42
-0.0272342986872894
 70
     1
  0
VERTEX
  5
18EF
  8
3
 10
164.17884940295741
 20
313.31064370133572
 30
0.0
 42
-0.0308081971968687
  0
VERTEX
  5
18F0
  8
3
 10
164.26239391070379
 20
313.46829929519708
 30
0.0
 42
-0.0342331621261845
 70
     1
  0
VERTEX
  5
18F1
  8
3
 10
164.35536379145989
 20
313.59926358731877
 30
0.0
 42
-0.0284129382294813
  0
VERTEX
  5
18F2
  8
3
 10
164.45719755375279
 20
313.7102136990361
 30
0.0
 42
-0.0298700427972382
 70
     1
  0
VERTEX
  5
18F3
  8
3
 10
164.56568675867811
 20
313.80378108797368
 30
0.0
 42
-0.0257038408392226
  0
VERTEX
  5
18F4
  8
3
 10
164.67748519288401
 20
313.88035904849681
 30
0.0
 42
-0.022143654500798
 70
     1
  0
VERTEX
  5
18F5
  8
3
 10
164.81513297221221
 20
313.95643219256323
 30
0.0
 42
-0.0318213728480749
  0
VERTEX
  5
18F6
  8
3
 10
164.98899620885459
 20
314.02932344094319
 30
0.0
 42
-0.0299381336236059
 70
     1
  0
VERTEX
  5
18F7
  8
3
 10
165.18190920036969
 20
314.0834425801927
 30
0.0
 42
-0.0302275888812649
  0
VERTEX
  5
18F8
  8
3
 10
165.3789957179342
 20
314.11387690769561
 30
0.0
 42
-0.0300454246938698
 70
     1
  0
VERTEX
  5
18F9
  8
3
 10
165.57951786794499
 20
314.12043660777681
 30
0.0
 42
-0.0228964586457531
  0
VERTEX
  5
18FA
  8
3
 10
165.82820649715541
 20
314.10221095208948
 30
0.0
 42
-0.0255580546603104
 70
     1
  0
VERTEX
  5
18FB
  8
3
 10
166.04840083230741
 20
314.06440262778102
 30
0.0
 42
-0.0130327226436642
  0
VERTEX
  5
18FC
  8
3
 10
166.14475672011031
 20
314.0400845634295
 30
0.0
 42
-0.0034391727629165
 70
     1
  0
VERTEX
  5
18FD
  8
3
 10
166.50660625267801
 20
313.93597149581518
 30
0.0
 42
-0.0232376044518435
  0
VERTEX
  5
18FE
  8
3
 10
166.67874516579471
 20
313.87633515940712
 30
0.0
 42
-0.0135798663509841
 70
     1
  0
VERTEX
  5
18FF
  8
3
 10
166.96489969141879
 20
313.75293951864342
 30
0.0
  0
SEQEND
  5
1900
  8
3
  0
POLYLINE
  5
1901
  8
3
 66
     1
 10
0.0
 20
0.0
 30
0.0
 70
     2
  0
VERTEX
  5
1902
  8
3
 10
166.96489969141879
 20
313.75293951864342
 30
0.0
 42
-0.0206147575648495
  0
VERTEX
  5
1903
  8
3
 10
167.30368386610641
 20
313.5930286155417
 30
0.0
 42
-0.0359604190384782
 70
     1
  0
VERTEX
  5
1904
  8
3
 10
167.48646635201561
 20
313.47992423914252
 30
0.0
 42
-0.0119225670597539
  0
VERTEX
  5
1905
  8
3
 10
167.95451832016801
 20
313.124214907647
 30
0.0
 42
-0.036820959525064
 70
     1
  0
VERTEX
  5
1906
  8
3
 10
168.0943164790651
 20
312.99468027788072
 30
0.0
 42
-0.0268409540020999
  0
VERTEX
  5
1907
  8
3
 10
168.235307998726
 20
312.82599561863481
 30
0.0
 42
-0.0301114303995504
 70
     1
  0
VERTEX
  5
1908
  8
3
 10
168.3431067215613
 20
312.66229507788029
 30
0.0
 42
-0.0357637190142513
  0
VERTEX
  5
1909
  8
3
 10
168.468910361827
 20
312.4022827392555
 30
0.0
 42
-0.0450602851861374
 70
     1
  0
VERTEX
  5
190A
  8
3
 10
168.53431247895779
 20
312.18237586509508
 30
0.0
 42
-0.0155879884749883
  0
VERTEX
  5
190B
  8
3
 10
168.56833551742369
 20
311.98157695094687
 30
0.0
 42
-0.0257951280066992
 70
     1
  0
VERTEX
  5
190C
  8
3
 10
168.5787997604539
 20
311.85889822104218
 30
0.0
 42
-0.0101523712091553
  0
VERTEX
  5
190D
  8
3
 10
168.58084636558081
 20
311.70396829383481
 30
0.0
 42
-0.0152501953625965
 70
     1
  0
VERTEX
  5
190E
  8
3
 10
168.57696909789129
 20
311.60087876215113
 30
0.0
 42
-0.0147701852025388
  0
VERTEX
  5
190F
  8
3
 10
168.57287288653529
 20
311.55905532975788
 30
0.0
 42
-0.0025111835183259
 70
     1
  0
VERTEX
  5
1910
  8
3
 10
168.5403011770554
 20
311.31409112514638
 30
0.0
 42
-0.0285368618237795
  0
VERTEX
  5
1911
  8
3
 10
168.5110658553381
 20
311.16550129867301
 30
0.0
 42
-0.0178809002542473
 70
     1
  0
VERTEX
  5
1912
  8
3
 10
168.44266375391899
 20
310.93382038402768
 30
0.0
  0
SEQEND
  5
1913
  8
3
  0
POLYLINE
  5
1914
  8
3
 66
     1
 10
0.0
 20
0.0
 30
0.0
 70
     2
  0
VERTEX
  5
1915
  8
3
 10
167.4030619029574
 20
314.8690130763357
 30
0.0
 42
-0.0166271142141374
  0
VERTEX
  5
1916
  8
3
 10
167.82618521961371
 20
314.66710235339451
 30
0.0
 42
-0.0267626837069239
 70
     1
  0
VERTEX
  5
1917
  8
3
 10
168.07731443742071
 20
314.51928653848341
 30
0.0
 42
-0.0024411782260605
  0
VERTEX
  5
1918
  8
3
 10
168.48134906056649
 20
314.24853264683128
 30
0.0
 42
-0.0134619981120709
 70
     1
  0
VERTEX
  5
1919
  8
3
 10
168.5530303035361
 20
314.19712052567752
 30
0.0
 42
-0.0168260709941986
  0
VERTEX
  5
191A
  8
3
 10
168.7467340384537
 20
314.03959056485382
 30
0.0
 42
-0.0132515965413505
 70
     1
  0
VERTEX
  5
191B
  8
3
 10
168.98019316416551
 20
313.82516807851931
 30
0.0
 42
-0.0238116382139024
  0
VERTEX
  5
191C
  8
3
 10
169.17713686370729
 20
313.61535108737638
 30
0.0
 42
-0.0200589570299235
 70
     1
  0
VERTEX
  5
191D
  8
3
 10
169.38816941711909
 20
313.34679977821639
 30
0.0
 42
-0.0291178958858598
  0
VERTEX
  5
191E
  8
3
 10
169.55455429042459
 20
313.08589835623297
 30
0.0
 42
-0.0285963652600126
 70
     1
  0
VERTEX
  5
191F
  8
3
 10
169.69225452120119
 20
312.80250703736402
 30
0.0
 42
-0.0258207519370556
  0
VERTEX
  5
1920
  8
3
 10
169.8010144902637
 20
312.49843434258952
 30
0.0
 42
-0.03119635226544
 70
     1
  0
VERTEX
  5
1921
  8
3
 10
169.86183813865949
 20
312.23807173775617
 30
0.0
 42
-0.0157732716928988
  0
VERTEX
  5
1922
  8
3
 10
169.90124853657471
 20
311.94917311859632
 30
0.0
 42
-0.0239195189768752
 70
     1
  0
VERTEX
  5
1923
  8
3
 10
169.91205310712729
 20
311.75714153372292
 30
0.0
 42
-0.0095199086344052
  0
VERTEX
  5
1924
  8
3
 10
169.9102906336577
 20
311.59187257961912
 30
0.0
 42
-0.0110347684478277
 70
     1
  0
VERTEX
  5
1925
  8
3
 10
169.90291162705211
 20
311.44947035728728
 30
0.0
 42
-0.0182641547189294
  0
VERTEX
  5
1926
  8
3
 10
169.8955576793096
 20
311.3831079303136
 30
0.0
 42
-0.0032974246160984
 70
     1
  0
VERTEX
  5
1927
  8
3
 10
169.83903626888099
 20
311.01774746587921
 30
0.0
 42
-0.0357658726604807
  0
VERTEX
  5
1928
  8
3
 10
169.7910106654692
 20
310.8140855268266
 30
0.0
 42
-0.0218037129293077
 70
     1
  0
VERTEX
  5
1929
  8
3
 10
169.67447827314979
 20
310.49152456672027
 30
0.0
  0
SEQEND
  5
192A
  8
3
  0
POLYLINE
  5
192B
  8
3
 66
     1
 10
0.0
 20
0.0
 30
0.0
 70
     2
  0
VERTEX
  5
192C
  8
3
 10
136.9256758748875
 20
316.99144441636872
 30
0.0
 42
0.017819136591435
  0
VERTEX
  5
192D
  8
3
 10
136.82401507882329
 20
317.32440243492692
 30
0.0
 42
0.0273092572293038
 70
     1
  0
VERTEX
  5
192E
  8
3
 10
136.73833699828259
 20
317.53488403939559
 30
0.0
 42
0.0072423787584841
  0
VERTEX
  5
192F
  8
3
 10
136.58569688714121
 20
317.84635565918597
 30
0.0
 42
0.0130204188960313
 70
     1
  0
VERTEX
  5
1930
  8
3
 10
136.4938335996876
 20
318.01604422024889
 30
0.0
 42
0.058787359029338
  0
VERTEX
  5
1931
  8
3
 10
136.2724107735466
 20
318.31364458278591
 30
0.0
 42
0.0439493385154247
 70
     1
  0
VERTEX
  5
1932
  8
3
 10
135.9018695962281
 20
318.64248729362771
 30
0.0
 42
0.0551035063698463
  0
VERTEX
  5
1933
  8
3
 10
135.4835073673211
 20
318.88643923556452
 30
0.0
 42
0.0476378041764794
 70
     1
  0
VERTEX
  5
1934
  8
3
 10
134.95262298546521
 20
319.06390769700289
 30
0.0
 42
0.0268814478032709
  0
VERTEX
  5
1935
  8
3
 10
134.4840728283379
 20
319.14610225089842
 30
0.0
 42
0.0276067974168004
 70
     1
  0
VERTEX
  5
1936
  8
3
 10
134.0218178220027
 20
319.17605506540713
 30
0.0
 42
0.033563971685953
  0
VERTEX
  5
1937
  8
3
 10
133.36502493031909
 20
319.13818478670191
 30
0.0
 42
0.0398769145076216
 70
     1
  0
VERTEX
  5
1938
  8
3
 10
132.8225683313062
 20
319.0257306294705
 30
0.0
 42
0.0301940691824602
  0
VERTEX
  5
1939
  8
3
 10
132.39447908053711
 20
318.87213292649682
 30
0.0
 42
0.034751437707152
 70
     1
  0
VERTEX
  5
193A
  8
3
 10
132.04283708698469
 20
318.69158836417211
 30
0.0
 42
0.0314913755866799
  0
VERTEX
  5
193B
  8
3
 10
131.7003363563453
 20
318.45384963022479
 30
0.0
 42
0.034488138531239
 70
     1
  0
VERTEX
  5
193C
  8
3
 10
131.41881014192771
 20
318.197469640995
 30
0.0
 42
0.0331653111807803
  0
VERTEX
  5
193D
  8
3
 10
131.1511956206873
 20
317.87771234243178
 30
0.0
 42
0.0329554899797634
 70
     1
  0
VERTEX
  5
193E
  8
3
 10
130.9266452786801
 20
317.52323319259699
 30
0.0
 42
0.027683807875592
  0
VERTEX
  5
193F
  8
3
 10
130.7358508184688
 20
317.12153455672637
 30
0.0
 42
0.0264197149408835
 70
     1
  0
VERTEX
  5
1940
  8
3
 10
130.58255315220049
 20
316.68152103368328
 30
0.0
 42
0.0255314391665599
  0
VERTEX
  5
1941
  8
3
 10
130.4538893804347
 20
316.13536868438132
 30
0.0
 42
0.024291842783846
 70
     1
  0
VERTEX
  5
1942
  8
3
 10
130.37642823684681
 20
315.55077887629182
 30
0.0
 42
0.0218790676239961
  0
VERTEX
  5
1943
  8
3
 10
130.3573105625492
 20
315.06596270078541
 30
0.0
 42
0.018199055850694
 70
     1
  0
VERTEX
  5
1944
  8
3
 10
130.38106009058811
 20
314.4832291346284
 30
0.0
 42
0.0321749297334732
  0
VERTEX
  5
1945
  8
3
 10
130.48213203404359
 20
313.77348259374691
 30
0.0
 42
0.0365461525666568
 70
     1
  0
VERTEX
  5
1946
  8
3
 10
130.65590602137809
 20
313.16652014655477
 30
0.0
 42
0.028478377119045
  0
VERTEX
  5
1947
  8
3
 10
130.82225195725729
 20
312.78257690825097
 30
0.0
 42
0.0295110516860005
 70
     1
  0
VERTEX
  5
1948
  8
3
 10
131.02457413867111
 20
312.43310631061848
 30
0.0
 42
0.0352036536828959
  0
VERTEX
  5
1949
  8
3
 10
131.28247947658741
 20
312.09677077364989
 30
0.0
 42
0.0357183672888644
 70
     1
  0
VERTEX
  5
194A
  8
3
 10
131.58097121238001
 20
311.80451708878189
 30
0.0
 42
0.0403727918484451
  0
VERTEX
  5
194B
  8
3
 10
131.9575817417826
 20
311.53409579259011
 30
0.0
 42
0.0376100333978931
 70
     1
  0
VERTEX
  5
194C
  8
3
 10
132.40192818219089
 20
311.31014411496881
 30
0.0
 42
0.0263826521508296
  0
VERTEX
  5
194D
  8
3
 10
132.9247381724762
 20
311.12584979651638
 30
0.0
 42
0.03347238997665
 70
     1
  0
VERTEX
  5
194E
  8
3
 10
133.3513882553172
 20
311.03078571675587
 30
0.0
 42
0.0178770530949112
  0
VERTEX
  5
194F
  8
3
 10
133.7125194026157
 20
310.98849922270892
 30
0.0
 42
0.0198079660601866
 70
     1
  0
VERTEX
  5
1950
  8
3
 10
134.04041904796441
 20
310.9749812192531
 30
0.0
 42
0.029009638618319
  0
VERTEX
  5
1951
  8
3
 10
134.54666039523539
 20
311.00356915859811
 30
0.0
 42
0.0319810122438683
 70
     1
  0
VERTEX
  5
1952
  8
3
 10
134.9993841557409
 20
311.08518159806999
 30
0.0
 42
0.02184049250563
  0
VERTEX
  5
1953
  8
3
 10
135.45400256252469
 20
311.21885196091398
 30
0.0
 42
0.023755660795974
 70
     1
  0
VERTEX
  5
1954
  8
3
 10
135.85907961792961
 20
311.37930542185541
 30
0.0
 42
0.011609928805252
  0
VERTEX
  5
1955
  8
3
 10
136.0126194833428
 20
311.45306997538228
 30
0.0
 42
0.0043436972297539
 70
     1
  0
VERTEX
  5
1956
  8
3
 10
136.41645897187911
 20
311.66319635707441
 30
0.0
 42
0.033769702292163
  0
VERTEX
  5
1957
  8
3
 10
136.63199426114619
 20
311.7971201510336
 30
0.0
 42
0.0198948087364402
 70
     1
  0
VERTEX
  5
1958
  8
3
 10
136.97114553834899
 20
312.06211953656128
 30
0.0
  0
SEQEND
  5
1959
  8
3
  0
POLYLINE
  5
195A
  8
3
 66
     1
 10
0.0
 20
0.0
 30
0.0
 70
     2
  0
VERTEX
  5
195B
  8
3
 10
138.25669693257959
 20
317.32626648367608
 30
0.0
 42
0.0339419593629398
  0
VERTEX
  5
195C
  8
3
 10
138.07110021514811
 20
317.96599925343889
 30
0.0
 42
0.0493746642286232
 70
     1
  0
VERTEX
  5
195D
  8
3
 10
137.87212740100611
 20
318.37907276447982
 30
0.0
 42
0.0166116073865985
  0
VERTEX
  5
195E
  8
3
 10
137.46552744029941
 20
318.99862056384609
 30
0.0
 42
0.0387211412525177
 70
     1
  0
VERTEX
  5
195F
  8
3
 10
137.26256913765931
 20
319.24382804748302
 30
0.0
 42
0.0530781436558567
  0
VERTEX
  5
1960
  8
3
 10
136.8255153249774
 20
319.6089239631529
 30
0.0
 42
0.043773022703239
 70
     1
  0
VERTEX
  5
1961
  8
3
 10
136.220842740146
 20
319.94113259296608
 30
0.0
 42
0.032559218004047
  0
VERTEX
  5
1962
  8
3
 10
135.6399497582733
 20
320.15304259696182
 30
0.0
 42
0.0314369360602916
 70
     1
  0
VERTEX
  5
1963
  8
3
 10
135.01527693750111
 20
320.29394558472859
 30
0.0
 42
0.0361534376605744
  0
VERTEX
  5
1964
  8
3
 10
134.18531351049199
 20
320.36610227563779
 30
0.0
 42
0.0317026493904281
 70
     1
  0
VERTEX
  5
1965
  8
3
 10
133.23668349617529
 20
320.31964120051629
 30
0.0
 42
0.0298809112085205
  0
VERTEX
  5
1966
  8
3
 10
132.6823084512252
 20
320.22329941499362
 30
0.0
 42
0.0224478726004159
 70
     1
  0
VERTEX
  5
1967
  8
3
 10
131.96207594834181
 20
320.01876564315421
 30
0.0
 42
0.0648798824438124
  0
VERTEX
  5
1968
  8
3
 10
131.08110335055011
 20
319.59194121938913
 30
0.0
 42
0.0587415825347915
 70
     1
  0
VERTEX
  5
1969
  8
3
 10
130.25343993476281
 20
318.89750639347062
 30
0.0
 42
0.0571045363990083
  0
VERTEX
  5
196A
  8
3
 10
129.71396763879281
 20
318.1748592228314
 30
0.0
 42
0.0490482368416792
 70
     1
  0
VERTEX
  5
196B
  8
3
 10
129.27744975809881
 20
317.2209619103881
 30
0.0
 42
0.0404970210104461
  0
VERTEX
  5
196C
  8
3
 10
128.99797232226359
 20
316.12735614559512
 30
0.0
 42
0.0413485143955057
 70
     1
  0
VERTEX
  5
196D
  8
3
 10
128.9023470768104
 20
315.02591487309968
 30
0.0
 42
0.0406323663283454
  0
VERTEX
  5
196E
  8
3
 10
128.98131714631151
 20
314.00593293113798
 30
0.0
 42
0.0413529943079882
 70
     1
  0
VERTEX
  5
196F
  8
3
 10
129.2213921513553
 20
313.02975475657632
 30
0.0
 42
0.0559932271856256
  0
VERTEX
  5
1970
  8
3
 10
129.72145802428801
 20
311.95552083741183
 30
0.0
 42
0.0686128712899295
 70
     1
  0
VERTEX
  5
1971
  8
3
 10
130.3338708502672
 20
311.20522296455403
 30
0.0
 42
0.0372795701771003
  0
VERTEX
  5
1972
  8
3
 10
131.0335015801511
 20
310.64556111000911
 30
0.0
 42
0.0493655718021099
 70
     1
  0
VERTEX
  5
1973
  8
3
 10
131.6273878770325
 20
310.31994026669548
 30
0.0
 42
0.0226120535333457
  0
VERTEX
  5
1974
  8
3
 10
132.3731606583533
 20
310.04121940074862
 30
0.0
 42
0.03156131809951
 70
     1
  0
VERTEX
  5
1975
  8
3
 10
132.92619243769599
 20
309.90039448848938
 30
0.0
 42
0.0231949586492029
  0
VERTEX
  5
1976
  8
3
 10
133.53520245712929
 20
309.81465911102492
 30
0.0
 42
0.0227191239958728
 70
     1
  0
VERTEX
  5
1977
  8
3
 10
134.16236041815631
 20
309.78450275771479
 30
0.0
 42
0.0352112523003441
  0
VERTEX
  5
1978
  8
3
 10
135.01206853402249
 20
309.84218153176738
 30
0.0
 42
0.0356843313166471
 70
     1
  0
VERTEX
  5
1979
  8
3
 10
135.83409256485541
 20
310.0169674363799
 30
0.0
 42
0.0267629573326244
  0
VERTEX
  5
197A
  8
3
 10
136.2081851151888
 20
310.14692860583
 30
0.0
 42
0.0098174106030347
 70
     1
  0
VERTEX
  5
197B
  8
3
 10
137.19875515340121
 20
310.57452890577179
 30
0.0
 42
0.0398976699358185
  0
VERTEX
  5
197C
  8
3
 10
137.69455380478391
 20
310.8498403367621
 30
0.0
 42
0.0248491661712693
 70
     1
  0
VERTEX
  5
197D
  8
3
 10
138.42617476911801
 20
311.39040859906117
 30
0.0
  0
SEQEND
  5
197E
  8
3
  0
POLYLINE
  5
197F
  8
3
 66
     1
 10
0.0
 20
0.0
 30
0.0
 70
     2
  0
VERTEX
  5
1980
  8
3
 10
121.6436737829776
 20
313.9220153568495
 30
0.0
 42
-0.0014645435064655
  0
VERTEX
  5
1981
  8
3
 10
121.7189685786434
 20
313.9285144994638
 30
0.0
 42
-0.0030427121102958
 70
     1
  0
VERTEX
  5
1982
  8
3
 10
121.7552370805851
 20
313.93131591930091
 30
0.0
 42
-0.0000854431607953
  0
VERTEX
  5
1983
  8
3
 10
121.8710017381527
 20
313.9395294753931
 30
0.0
 42
-0.0008924845250878
 70
     1
  0
VERTEX
  5
1984
  8
3
 10
121.8820861428262
 20
313.94029413343151
 30
0.0
 42
-0.0052886611950692
  0
VERTEX
  5
1985
  8
3
 10
121.8966072880139
 20
313.94111565216559
 30
0.0
 42
-0.0006142248967603
 70
     1
  0
VERTEX
  5
1986
  8
3
 10
122.02171005869241
 20
313.94671248239069
 30
0.0
 42
-0.0162632095465827
  0
VERTEX
  5
1987
  8
3
 10
122.1922126730169
 20
313.948580591775
 30
0.0
 42
-0.0133211992309491
 70
     1
  0
VERTEX
  5
1988
  8
3
 10
122.4001236387471
 20
313.93854977992629
 30
0.0
 42
-0.0477006069522747
  0
VERTEX
  5
1989
  8
3
 10
122.5516697484618
 20
313.91250806888462
 30
0.0
 42
-0.0283998070708879
 70
     1
  0
VERTEX
  5
198A
  8
3
 10
122.7962822150668
 20
313.83082355280573
 30
0.0
 42
-0.0273981633840611
  0
VERTEX
  5
198B
  8
3
 10
123.02779304215071
 20
313.72356475865132
 30
0.0
 42
-0.0327387522943382
 70
     1
  0
VERTEX
  5
198C
  8
3
 10
123.2094308881214
 20
313.61117563073191
 30
0.0
 42
-0.0187576220252327
  0
VERTEX
  5
198D
  8
3
 10
123.4080194104608
 20
313.45798346869287
 30
0.0
 42
-0.0225324625867616
 70
     1
  0
VERTEX
  5
198E
  8
3
 10
123.56228162645949
 20
313.31723337713629
 30
0.0
 42
-0.0099269552910112
  0
VERTEX
  5
198F
  8
3
 10
123.8545607857813
 20
313.013545632898
 30
0.0
 42
-0.012227752698418
 70
     1
  0
VERTEX
  5
1990
  8
3
 10
124.0807025468452
 20
312.75671922880201
 30
0.0
 42
-0.0013426413572305
  0
VERTEX
  5
1991
  8
3
 10
124.1173382530978
 20
312.71276282835697
 30
0.0
 42
-0.0001802039162909
 70
     1
  0
VERTEX
  5
1992
  8
3
 10
124.3892998791716
 20
312.38442859080868
 30
0.0
 42
-0.0054337549652144
  0
VERTEX
  5
1993
  8
3
 10
124.5837517421096
 20
312.1442310499487
 30
0.0
 42
-0.0034840385462116
 70
     1
  0
VERTEX
  5
1994
  8
3
 10
124.8802871002854
 20
311.7642731453106
 30
0.0
  0
SEQEND
  5
1995
  8
3
  0
POLYLINE
  5
1996
  8
3
 66
     1
 10
0.0
 20
0.0
 30
0.0
 70
     2
  0
VERTEX
  5
1997
  8
3
 10
124.0039626772088
 20
314.23410259242632
 30
0.0
 42
-0.0044894702277692
  0
VERTEX
  5
1998
  8
3
 10
124.1297445295786
 20
314.18514262282861
 30
0.0
 42
-0.0084710444868231
 70
     1
  0
VERTEX
  5
1999
  8
3
 10
124.1957146956356
 20
314.15747447301192
 30
0.0
 42
-0.0004300344040424
  0
VERTEX
  5
199A
  8
3
 10
124.360603642941
 20
314.08484142613543
 30
0.0
 42
-0.0034085779563474
 70
     1
  0
VERTEX
  5
199B
  8
3
 10
124.3813357039125
 20
314.07551832387179
 30
0.0
 42
-0.0095159427323179
  0
VERTEX
  5
199C
  8
3
 10
124.4385535595865
 20
314.04798834634579
 30
0.0
 42
-0.0041794488888763
 70
     1
  0
VERTEX
  5
199D
  8
3
 10
124.5670546537017
 20
313.9817674672459
 30
0.0
 42
-0.0200867049039487
  0
VERTEX
  5
199E
  8
3
 10
124.6886441761235
 20
313.91144334494578
 30
0.0
 42
-0.0133739361765435
 70
     1
  0
VERTEX
  5
199F
  8
3
 10
124.86375267720859
 20
313.7938735780026
 30
0.0
 42
-0.0235017270378929
  0
VERTEX
  5
19A0
  8
3
 10
125.0538414197144
 20
313.64480944372281
 30
0.0
 42
-0.0156398654554291
 70
     1
  0
VERTEX
  5
19A1
  8
3
 10
125.321012696317
 20
313.39923997145303
 30
0.0
 42
-0.009126473971095
  0
VERTEX
  5
19A2
  8
3
 10
125.4194248421117
 20
313.29935555562503
 30
0.0
 42
-0.0023325248751969
 70
     1
  0
VERTEX
  5
19A3
  8
3
 10
125.7953960466068
 20
312.89984759087321
 30
0.0
 42
-0.0164945512902315
  0
VERTEX
  5
19A4
  8
3
 10
125.89652909554199
 20
312.78393409358341
 30
0.0
 42
-0.0077432598746015
 70
     1
  0
VERTEX
  5
19A5
  8
3
 10
126.0997008022086
 20
312.52692340973363
 30
0.0
  0
SEQEND
  5
19A6
  8
3
  0
POLYLINE
  5
19A7
  8
3
 66
     1
 10
0.0
 20
0.0
 30
0.0
 70
     2
  0
VERTEX
  5
19A8
  8
3
 10
122.9271583743016
 20
318.61779151069339
 30
0.0
 42
-0.0184135760200143
  0
VERTEX
  5
19A9
  8
3
 10
123.26331023598679
 20
318.63914950161637
 30
0.0
 42
-0.0308418755930612
 70
     1
  0
VERTEX
  5
19AA
  8
3
 10
123.4644077967659
 20
318.63210101285517
 30
0.0
 42
-0.004735954551352
  0
VERTEX
  5
19AB
  8
3
 10
123.8685875679366
 20
318.58902654748232
 30
0.0
 42
-0.0203797187123912
 70
     1
  0
VERTEX
  5
19AC
  8
3
 10
123.9619288272893
 20
318.57430801239411
 30
0.0
 42
-0.0211236367851763
  0
VERTEX
  5
19AD
  8
3
 10
124.09584848018849
 20
318.54162189213372
 30
0.0
 42
-0.0154816514375633
 70
     1
  0
VERTEX
  5
19AE
  8
3
 10
124.27478450666329
 20
318.48379153950492
 30
0.0
 42
-0.0415354393909057
  0
VERTEX
  5
19AF
  8
3
 10
124.4200228022564
 20
318.41778280136532
 30
0.0
 42
-0.024181643756072
 70
     1
  0
VERTEX
  5
19B0
  8
3
 10
124.6522232918814
 20
318.27286544872248
 30
0.0
 42
-0.060614599807184
  0
VERTEX
  5
19B1
  8
3
 10
124.8685719745217
 20
318.08026576783692
 30
0.0
 42
-0.0532040478914251
 70
     1
  0
VERTEX
  5
19B2
  8
3
 10
125.0590835960429
 20
317.81114874884651
 30
0.0
 42
-0.0482229465645848
  0
VERTEX
  5
19B3
  8
3
 10
125.18295436783229
 20
317.5287294828222
 30
0.0
 42
-0.0513384563102753
 70
     1
  0
VERTEX
  5
19B4
  8
3
 10
125.2445995524096
 20
317.24559754640342
 30
0.0
 42
-0.0280373558727356
  0
VERTEX
  5
19B5
  8
3
 10
125.2608740449013
 20
316.9538937607922
 30
0.0
 42
-0.0397203081252042
 70
     1
  0
VERTEX
  5
19B6
  8
3
 10
125.2444370678235
 20
316.74816118490838
 30
0.0
 42
-0.0258352000950426
  0
VERTEX
  5
19B7
  8
3
 10
125.2102239916351
 20
316.58825821105938
 30
0.0
 42
-0.021027307813456
 70
     1
  0
VERTEX
  5
19B8
  8
3
 10
125.1500028280406
 20
316.39663185373053
 30
0.0
 42
-0.0494663517931025
  0
VERTEX
  5
19B9
  8
3
 10
125.033912547794
 20
316.15345146877462
 30
0.0
 42
-0.0435058055169045
 70
     1
  0
VERTEX
  5
19BA
  8
3
 10
124.85320861431271
 20
315.90623504576661
 30
0.0
 42
-0.055316996899869
  0
VERTEX
  5
19BB
  8
3
 10
124.62123433978969
 20
315.69351901859108
 30
0.0
 42
-0.0537362322124924
 70
     1
  0
VERTEX
  5
19BC
  8
3
 10
124.3407948719275
 20
315.53137201846431
 30
0.0
 42
-0.0272580208127194
  0
VERTEX
  5
19BD
  8
3
 10
124.1597820128481
 20
315.4627509806769
 30
0.0
 42
-0.0099115392165896
 70
     1
  0
VERTEX
  5
19BE
  8
3
 10
123.649662907856
 20
315.31161823633852
 30
0.0
 42
-0.0333076049228025
  0
VERTEX
  5
19BF
  8
3
 10
123.34543680012391
 20
315.24943597711149
 30
0.0
 42
-0.0222967087822229
 70
     1
  0
VERTEX
  5
19C0
  8
3
 10
122.883755513747
 20
315.20756675107992
 30
0.0
  0
SEQEND
  5
19C1
  8
3
  0
POLYLINE
  5
19C2
  8
3
 66
     1
 10
0.0
 20
0.0
 30
0.0
 70
     2
  0
VERTEX
  5
19C3
  8
3
 10
122.77628176374689
 20
319.74419908281078
 30
0.0
 42
-0.0085310753529877
  0
VERTEX
  5
19C4
  8
3
 10
123.16776608943471
 20
319.774033174333
 30
0.0
 42
-0.0149930612611404
 70
     1
  0
VERTEX
  5
19C5
  8
3
 10
123.3911070968943
 20
319.78051523244221
 30
0.0
 42
-0.0009675801879079
  0
VERTEX
  5
19C6
  8
3
 10
123.8662925703975
 20
319.77913527224882
 30
0.0
 42
-0.0075173308423676
 70
     1
  0
VERTEX
  5
19C7
  8
3
 10
123.92744682190271
 20
319.77791975858349
 30
0.0
 42
-0.0110395070041624
  0
VERTEX
  5
19C8
  8
3
 10
124.1316277220467
 20
319.76627167984589
 30
0.0
 42
-0.0092145765546248
 70
     1
  0
VERTEX
  5
19C9
  8
3
 10
124.375471500259
 20
319.74242305518828
 30
0.0
 42
-0.0187917935049931
  0
VERTEX
  5
19CA
  8
3
 10
124.580449273195
 20
319.7107093648001
 30
0.0
 42
-0.0152497065287262
 70
     1
  0
VERTEX
  5
19CB
  8
3
 10
124.82976425849751
 20
319.65454476054128
 30
0.0
 42
-0.0215808049443763
  0
VERTEX
  5
19CC
  8
3
 10
124.97109183051001
 20
319.61156476329421
 30
0.0
 42
-0.015207859643915
 70
     1
  0
VERTEX
  5
19CD
  8
3
 10
125.1665723173269
 20
319.5360154812472
 30
0.0
 42
-0.0363885504586569
  0
VERTEX
  5
19CE
  8
3
 10
125.3710483810046
 20
319.43164509846071
 30
0.0
 42
-0.0275499701316877
 70
     1
  0
VERTEX
  5
19CF
  8
3
 10
125.6212054381992
 20
319.26058185536499
 30
0.0
 42
-0.0318047300326863
  0
VERTEX
  5
19D0
  8
3
 10
125.80730278696861
 20
319.09786804674241
 30
0.0
 42
-0.0248474815912613
 70
     1
  0
VERTEX
  5
19D1
  8
3
 10
126.0203553084273
 20
318.8640970863994
 30
0.0
 42
-0.0314613790024562
  0
VERTEX
  5
19D2
  8
3
 10
126.20889389662889
 20
318.60358810852722
 30
0.0
 42
-0.029959442799545
 70
     1
  0
VERTEX
  5
19D3
  8
3
 10
126.37186761041809
 20
318.30785391279801
 30
0.0
 42
-0.0343345552982049
  0
VERTEX
  5
19D4
  8
3
 10
126.5204812140218
 20
317.93044840380298
 30
0.0
 42
-0.0354537902039139
 70
     1
  0
VERTEX
  5
19D5
  8
3
 10
126.6121838246988
 20
317.54846395207159
 30
0.0
 42
-0.0177655217392747
  0
VERTEX
  5
19D6
  8
3
 10
126.64832812358171
 20
317.270278522431
 30
0.0
 42
-0.0202177455886955
 70
     1
  0
VERTEX
  5
19D7
  8
3
 10
126.6614486363582
 20
317.02410618188742
 30
0.0
 42
-0.0284065171026431
  0
VERTEX
  5
19D8
  8
3
 10
126.6479227287759
 20
316.71675803791823
 30
0.0
 42
-0.0265651787610086
 70
     1
  0
VERTEX
  5
19D9
  8
3
 10
126.59750040949871
 20
316.39170910334821
 30
0.0
 42
-0.0354884375718925
  0
VERTEX
  5
19DA
  8
3
 10
126.51770025825969
 20
316.11204968232869
 30
0.0
 42
-0.0306569534673999
 70
     1
  0
VERTEX
  5
19DB
  8
3
 10
126.3834867448636
 20
315.80342199550211
 30
0.0
 42
-0.0355555152817713
  0
VERTEX
  5
19DC
  8
3
 10
126.1835003352341
 20
315.47173640773741
 30
0.0
 42
-0.040838555510191
 70
     1
  0
VERTEX
  5
19DD
  8
3
 10
125.967395443482
 20
315.21270183567958
 30
0.0
 42
-0.0214631653080086
  0
VERTEX
  5
19DE
  8
3
 10
125.74823383499179
 20
315.0081408745545
 30
0.0
 42
-0.0287809593632373
 70
     1
  0
VERTEX
  5
19DF
  8
3
 10
125.5702543466072
 20
314.87270299078108
 30
0.0
 42
-0.0192128606271501
  0
VERTEX
  5
19E0
  8
3
 10
125.281591330222
 20
314.69392159567087
 30
0.0
 42
-0.024394981276277
 70
     1
  0
VERTEX
  5
19E1
  8
3
 10
125.0427949393129
 20
314.57342528442041
 30
0.0
 42
-0.0112485902959168
  0
VERTEX
  5
19E2
  8
3
 10
124.9490505183639
 20
314.53422728884919
 30
0.0
 42
-0.0028581055940072
 70
     1
  0
VERTEX
  5
19E3
  8
3
 10
124.57594164035341
 20
314.39044245419109
 30
0.0
 42
-0.0238295545447624
  0
VERTEX
  5
19E4
  8
3
 10
124.3628028244384
 20
314.32111753622848
 30
0.0
 42
-0.0144594328050035
 70
     1
  0
VERTEX
  5
19E5
  8
3
 10
124.0039626772088
 20
314.23410259242632
 30
0.0
  0
SEQEND
  5
19E6
  8
3
  0
POLYLINE
  5
19E7
  8
3
 66
     1
 10
0.0
 20
0.0
 30
0.0
 70
     2
  0
VERTEX
  5
19E8
  8
3
 10
105.26720696256299
 20
308.25962628796719
 30
0.0
 42
-0.0127250161895915
  0
VERTEX
  5
19E9
  8
3
 10
105.4130599947939
 20
307.9485935430958
 30
0.0
 42
-0.0204598800889071
 70
     1
  0
VERTEX
  5
19EA
  8
3
 10
105.49076527516689
 20
307.74950599649083
 30
0.0
 42
-0.0040438473165311
  0
VERTEX
  5
19EB
  8
3
 10
105.6139711983196
 20
307.38156964936661
 30
0.0
 42
-0.0123045902458041
 70
     1
  0
VERTEX
  5
19EC
  8
3
 10
105.6504926866255
 20
307.25937353439741
 30
0.0
 42
-0.0415856651362703
  0
VERTEX
  5
19ED
  8
3
 10
105.6891341804639
 20
307.05022251484928
 30
0.0
 42
-0.0361945345377361
 70
     1
  0
VERTEX
  5
19EE
  8
3
 10
105.6957806369867
 20
306.80604458900081
 30
0.0
 42
-0.0592931940251781
  0
VERTEX
  5
19EF
  8
3
 10
105.6582811145244
 20
306.57886748816532
 30
0.0
 42
-0.0531555929412785
 70
     1
  0
VERTEX
  5
19F0
  8
3
 10
105.56111705502551
 20
306.34130952191799
 30
0.0
 42
-0.0303463394590899
  0
VERTEX
  5
19F1
  8
3
 10
105.4429514894577
 20
306.15077975561189
 30
0.0
 42
-0.0400656130894471
 70
     1
  0
VERTEX
  5
19F2
  8
3
 10
105.3340153237482
 20
306.02036441514201
 30
0.0
 42
-0.0265329218267938
  0
VERTEX
  5
19F3
  8
3
 10
105.19535725104009
 20
305.89331005980512
 30
0.0
 42
-0.0271104659531532
 70
     1
  0
VERTEX
  5
19F4
  8
3
 10
105.0471162564554
 20
305.78420151145087
 30
0.0
 42
-0.030969019039178
  0
VERTEX
  5
19F5
  8
3
 10
104.8192285749665
 20
305.65421487791542
 30
0.0
 42
-0.0344409687400377
 70
     1
  0
VERTEX
  5
19F6
  8
3
 10
104.60077250179501
 20
305.56503079541523
 30
0.0
 42
-0.0221808363431575
  0
VERTEX
  5
19F7
  8
3
 10
104.4121194993986
 20
305.51192751420689
 30
0.0
 42
-0.0300788778216868
 70
     1
  0
VERTEX
  5
19F8
  8
3
 10
104.2696181197639
 20
305.487481933033
 30
0.0
 42
-0.0246646256893962
  0
VERTEX
  5
19F9
  8
3
 10
104.1347876236577
 20
305.47932368724332
 30
0.0
 42
-0.0244169317968067
 70
     1
  0
VERTEX
  5
19FA
  8
3
 10
103.9984389271619
 20
305.4844677904764
 30
0.0
 42
-0.0338938710790028
  0
VERTEX
  5
19FB
  8
3
 10
103.85264345820541
 20
305.5071436304242
 30
0.0
 42
-0.0301797414577134
 70
     1
  0
VERTEX
  5
19FC
  8
3
 10
103.69353829254391
 20
305.55330848172889
 30
0.0
 42
-0.0358911519267977
  0
VERTEX
  5
19FD
  8
3
 10
103.55920861657791
 20
305.61241103855082
 30
0.0
 42
-0.0330344694837603
 70
     1
  0
VERTEX
  5
19FE
  8
3
 10
103.423493190683
 20
305.6960466589282
 30
0.0
 42
-0.0381756157412703
  0
VERTEX
  5
19FF
  8
3
 10
103.2393395341323
 20
305.84947949734487
 30
0.0
 42
-0.0338514758985955
 70
     1
  0
VERTEX
  5
1A00
  8
3
 10
103.0586968773204
 20
306.05045889964691
 30
0.0
 42
-0.0116691987691563
  0
VERTEX
  5
1A01
  8
3
 10
102.98043159482771
 20
306.15532671413621
 30
0.0
 42
-0.0041674120526041
 70
     1
  0
VERTEX
  5
1A02
  8
3
 10
102.7707139483755
 20
306.45572465870151
 30
0.0
 42
-0.0207155980736608
  0
VERTEX
  5
1A03
  8
3
 10
102.6846709838228
 20
306.59305328853679
 30
0.0
 42
-0.0117765801076298
 70
     1
  0
VERTEX
  5
1A04
  8
3
 10
102.5493611692936
 20
306.84386631200567
 30
0.0
  0
SEQEND
  5
1A05
  8
3
  0
POLYLINE
  5
1A06
  8
3
 66
     1
 10
0.0
 20
0.0
 30
0.0
 70
     2
  0
VERTEX
  5
1A07
  8
3
 10
101.5138929241016
 20
306.1659549658516
 30
0.0
 42
0.029478567202888
  0
VERTEX
  5
1A08
  8
3
 10
101.7522764290338
 20
305.67298445197957
 30
0.0
 42
0.0430262302584257
 70
     1
  0
VERTEX
  5
1A09
  8
3
 10
101.9628760727507
 20
305.36206132628058
 30
0.0
 42
0.0149293614571674
  0
VERTEX
  5
1A0A
  8
3
 10
102.3584278658527
 20
304.9029892403878
 30
0.0
 42
0.0318620688162494
 70
     1
  0
VERTEX
  5
1A0B
  8
3
 10
102.56321557126419
 20
304.70598524107231
 30
0.0
 42
0.06056448939009
  0
VERTEX
  5
1A0C
  8
3
 10
102.96644645169719
 20
304.44102566122001
 30
0.0
 42
0.0592848390789657
 70
     1
  0
VERTEX
  5
1A0D
  8
3
 10
103.4307471195698
 20
304.27577540195472
 30
0.0
 42
0.0430645032946903
  0
VERTEX
  5
1A0E
  8
3
 10
103.8961970330019
 20
304.21140513317943
 30
0.0
 42
0.0526999251793731
 70
     1
  0
VERTEX
  5
1A0F
  8
3
 10
104.27996060356919
 20
304.232130478491
 30
0.0
 42
0.023561439769019
  0
VERTEX
  5
1A10
  8
3
 10
104.729078284523
 20
304.32615332371188
 30
0.0
 42
0.0330214968929469
 70
     1
  0
VERTEX
  5
1A11
  8
3
 10
105.0400760616496
 20
304.42904313170698
 30
0.0
 42
0.0157614541306591
  0
VERTEX
  5
1A12
  8
3
 10
105.377992575517
 20
304.57875011777742
 30
0.0
 42
0.0203252897652572
 70
     1
  0
VERTEX
  5
1A13
  8
3
 10
105.6310224881708
 20
304.71345578798719
 30
0.0
 42
0.0228841798495324
  0
VERTEX
  5
1A14
  8
3
 10
105.9219685090265
 20
304.9022553141258
 30
0.0
 42
0.0232034823399849
 70
     1
  0
VERTEX
  5
1A15
  8
3
 10
106.1905612390933
 20
305.11407662255237
 30
0.0
 42
0.0291711702428708
  0
VERTEX
  5
1A16
  8
3
 10
106.383218557215
 20
305.30182569806999
 30
0.0
 42
0.0235985627667978
 70
     1
  0
VERTEX
  5
1A17
  8
3
 10
106.5955406643688
 20
305.55762605795047
 30
0.0
 42
0.038938852720823
  0
VERTEX
  5
1A18
  8
3
 10
106.7718238454231
 20
305.83401359483878
 30
0.0
 42
0.0361073597996476
 70
     1
  0
VERTEX
  5
1A19
  8
3
 10
106.9152170215059
 20
306.15707198672129
 30
0.0
 42
0.0407450984439025
  0
VERTEX
  5
1A1A
  8
3
 10
107.0029491223909
 20
306.48149374371877
 30
0.0
 42
0.0416930720051112
 70
     1
  0
VERTEX
  5
1A1B
  8
3
 10
107.03552001623299
 20
306.80833413654392
 30
0.0
 42
0.0308884803729222
  0
VERTEX
  5
1A1C
  8
3
 10
107.01633784743061
 20
307.22714689665008
 30
0.0
 42
0.0363998874875476
 70
     1
  0
VERTEX
  5
1A1D
  8
3
 10
106.952517542705
 20
307.57728160001528
 30
0.0
 42
0.0119988529252411
  0
VERTEX
  5
1A1E
  8
3
 10
106.9028234743418
 20
307.75203164901268
 30
0.0
 42
0.0041465251332612
 70
     1
  0
VERTEX
  5
1A1F
  8
3
 10
106.7427931260047
 20
308.25273859436828
 30
0.0
 42
0.0217805768002259
  0
VERTEX
  5
1A20
  8
3
 10
106.64838569705989
 20
308.50264699154559
 30
0.0
 42
0.0130196063220713
 70
     1
  0
VERTEX
  5
1A21
  8
3
 10
106.4618190298674
 20
308.9086023937428
 30
0.0
  0
SEQEND
  5
1A22
  8
3
  0
CIRCLE
  5
1B67
  8
0
 10
404.49047259946292
 20
116.87677814233029
 30
0.0
 40
8.9280999999999224
  0
LINE
  5
1BA8
  8
0
 10
394.45747259946302
 20
88.301978142330199
 30
0.0
 11
394.45747259946302
 21
85.957081660355485
 31
0.0
  0
LINE
  5
1BA9
  8
0
 10
414.52347259946282
 20
88.301978142330199
 30
0.0
 11
414.52347259946282
 21
85.957081660355485
 31
0.0
  0
POLYLINE
  5
1BAA
  8
0
 66
     1
 10
0.0
 20
0.0
 30
0.0
 70
     2
  0
VERTEX
  5
1BAB
  8
0
 10
116.6515430400359
 20
143.5928754697249
 30
0.0
 42
0.0084262395008065
  0
VERTEX
  5
1BAC
  8
0
 10
121.2152166644009
 20
143.03227638293239
 30
0.0
 42
0.0084262395007825
 70
     1
  0
VERTEX
  5
1BAD
  8
0
 10
125.79518937943131
 20
142.62578134568841
 30
0.0
 42
0.0084255096566413
  0
VERTEX
  5
1BAE
  8
0
 10
130.38586099449461
 20
142.37386719806449
 30
0.0
 42
0.0084255096566528
 70
     1
  0
VERTEX
  5
1BAF
  8
0
 10
134.9824140868063
 20
142.27677814233061
 30
0.0
  0
SEQEND
  5
1BB0
  8
0
  0
POLYLINE
  5
1BB1
  8
0
 66
     1
 10
0.0
 20
0.0
 30
0.0
 70
     2
  0
VERTEX
  5
1BB2
  8
0
 10
153.31328513357721
 20
143.5928754697247
 30
0.0
 42
-0.0084262395008065
  0
VERTEX
  5
1BB3
  8
0
 10
148.74961150921209
 20
143.0322763829322
 30
0.0
 42
-0.0084262395007825
 70
     1
  0
VERTEX
  5
1BB4
  8
0
 10
144.16963879418199
 20
142.62578134568821
 30
0.0
 42
-0.0084255096566413
  0
VERTEX
  5
1BB5
  8
0
 10
139.57896717911851
 20
142.37386719806449
 30
0.0
 42
-0.0084255096566528
 70
     1
  0
VERTEX
  5
1BB6
  8
0
 10
134.98241408680681
 20
142.27677814233061
 30
0.0
  0
SEQEND
  5
1BB7
  8
0
  0
POLYLINE
  5
1BB8
  8
0
 66
     1
 10
0.0
 20
0.0
 30
0.0
 70
     2
  0
VERTEX
  5
1BB9
  8
0
 10
153.31328513357721
 20
153.66068081493609
 30
0.0
 42
0.0084262395008065
  0
VERTEX
  5
1BBA
  8
0
 10
148.74961150921209
 20
154.22127990172859
 30
0.0
 42
0.0084262395007825
 70
     1
  0
VERTEX
  5
1BBB
  8
0
 10
144.16963879418199
 20
154.62777493897261
 30
0.0
 42
0.0084255096566413
  0
VERTEX
  5
1BBC
  8
0
 10
139.57896717911851
 20
154.8796890865963
 30
0.0
 42
0.0084255096566528
 70
     1
  0
VERTEX
  5
1BBD
  8
0
 10
134.98241408680681
 20
154.9767781423302
 30
0.0
  0
SEQEND
  5
1BBE
  8
0
  0
POLYLINE
  5
1BBF
  8
0
 66
     1
 10
0.0
 20
0.0
 30
0.0
 70
     2
  0
VERTEX
  5
1BC0
  8
0
 10
116.6515430400359
 20
153.6606808149358
 30
0.0
 42
-0.0084262395008065
  0
VERTEX
  5
1BC1
  8
0
 10
121.2152166644009
 20
154.22127990172839
 30
0.0
 42
-0.0084262395007825
 70
     1
  0
VERTEX
  5
1BC2
  8
0
 10
125.79518937943131
 20
154.62777493897229
 30
0.0
 42
-0.0084255096566413
  0
VERTEX
  5
1BC3
  8
0
 10
130.38586099449461
 20
154.8796890865963
 30
0.0
 42
-0.0084255096566528
 70
     1
  0
VERTEX
  5
1BC4
  8
0
 10
134.9824140868063
 20
154.9767781423302
 30
0.0
  0
SEQEND
  5
1BC5
  8
0
  0
POLYLINE
  5
1BC6
  8
0
 66
     1
 10
0.0
 20
0.0
 30
0.0
 70
     2
  0
VERTEX
  5
1BC7
  8
0
 10
171.64408220013141
 20
143.59285564678541
 30
0.0
 42
-0.0165725809229096
  0
VERTEX
  5
1BC8
  8
0
 10
169.39009791571689
 20
143.0364421398483
 30
0.0
 42
-0.0165725809229397
 70
     1
  0
VERTEX
  5
1BC9
  8
0
 10
167.1042089201207
 20
142.63054480687009
 30
0.0
 42
-0.0165663367982783
  0
VERTEX
  5
1BCA
  8
0
 10
164.7973270150996
 20
142.37701304251161
 30
0.0
 42
-0.0165663367982143
 70
     1
  0
VERTEX
  5
1BCB
  8
0
 10
162.47872065696311
 20
142.27677814233061
 30
0.0
  0
SEQEND
  5
1BCC
  8
0
  0
POLYLINE
  5
1BCD
  8
0
 66
     1
 10
0.0
 20
0.0
 30
0.0
 70
     2
  0
VERTEX
  5
1BCE
  8
0
 10
153.31335911374961
 20
143.5928556467847
 30
0.0
 42
0.0165725809229096
  0
VERTEX
  5
1BCF
  8
0
 10
155.5673433981637
 20
143.03644213984799
 30
0.0
 42
0.0165725809229397
 70
     1
  0
VERTEX
  5
1BD0
  8
0
 10
157.85323239376021
 20
142.63054480686989
 30
0.0
 42
0.0165663367982783
  0
VERTEX
  5
1BD1
  8
0
 10
160.160114298781
 20
142.37701304251141
 30
0.0
 42
0.0165663367982143
 70
     1
  0
VERTEX
  5
1BD2
  8
0
 10
162.47872065691811
 20
142.27677814233061
 30
0.0
  0
SEQEND
  5
1BD3
  8
0
  0
POLYLINE
  5
1BD4
  8
0
 66
     1
 10
0.0
 20
0.0
 30
0.0
 70
     2
  0
VERTEX
  5
1BD5
  8
0
 10
171.64408220013141
 20
153.66070063787581
 30
0.0
 42
0.0165725809229096
  0
VERTEX
  5
1BD6
  8
0
 10
169.39009791571689
 20
154.21711414481271
 30
0.0
 42
0.0165725809229397
 70
     1
  0
VERTEX
  5
1BD7
  8
0
 10
167.1042089201205
 20
154.6230114777909
 30
0.0
 42
0.0165663367982783
  0
VERTEX
  5
1BD8
  8
0
 10
164.7973270150996
 20
154.87654324214941
 30
0.0
 42
0.0165663367982143
 70
     1
  0
VERTEX
  5
1BD9
  8
0
 10
162.47872065696279
 20
154.9767781423304
 30
0.0
  0
SEQEND
  5
1BDA
  8
0
  0
POLYLINE
  5
1BDB
  8
0
 66
     1
 10
0.0
 20
0.0
 30
0.0
 70
     2
  0
VERTEX
  5
1BDC
  8
0
 10
153.3133591137493
 20
153.66070063787561
 30
0.0
 42
-0.0165725809229096
  0
VERTEX
  5
1BDD
  8
0
 10
155.5673433981637
 20
154.21711414481271
 30
0.0
 42
-0.0165725809229397
 70
     1
  0
VERTEX
  5
1BDE
  8
0
 10
157.85323239376021
 20
154.6230114777909
 30
0.0
 42
-0.0165663367982783
  0
VERTEX
  5
1BDF
  8
0
 10
160.160114298781
 20
154.87654324214941
 30
0.0
 42
-0.0165663367982143
 70
     1
  0
VERTEX
  5
1BE0
  8
0
 10
162.4787206569178
 20
154.9767781423304
 30
0.0
  0
SEQEND
  5
1BE1
  8
0
  0
POLYLINE
  5
1BE2
  8
0
 66
     1
 10
0.0
 20
0.0
 30
0.0
 70
     2
  0
VERTEX
  5
1BE3
  8
0
 10
98.32074597348219
 20
143.59285564678521
 30
0.0
 42
0.0165725809229096
  0
VERTEX
  5
1BE4
  8
0
 10
100.5747302578966
 20
143.03644213984799
 30
0.0
 42
0.0165725809229397
 70
     1
  0
VERTEX
  5
1BE5
  8
0
 10
102.8606192534928
 20
142.63054480686989
 30
0.0
 42
0.0165663367982783
  0
VERTEX
  5
1BE6
  8
0
 10
105.1675011585139
 20
142.37701304251141
 30
0.0
 42
0.0165663367982143
 70
     1
  0
VERTEX
  5
1BE7
  8
0
 10
107.48610751665041
 20
142.27677814233039
 30
0.0
  0
SEQEND
  5
1BE8
  8
0
  0
POLYLINE
  5
1BE9
  8
0
 66
     1
 10
0.0
 20
0.0
 30
0.0
 70
     2
  0
VERTEX
  5
1BEA
  8
0
 10
116.651469059864
 20
143.5928556467847
 30
0.0
 42
-0.0165725809229096
  0
VERTEX
  5
1BEB
  8
0
 10
114.3974847754498
 20
143.03644213984779
 30
0.0
 42
-0.0165725809229397
 70
     1
  0
VERTEX
  5
1BEC
  8
0
 10
112.1115957798533
 20
142.63054480686969
 30
0.0
 42
-0.0165663367982783
  0
VERTEX
  5
1BED
  8
0
 10
109.8047138748325
 20
142.37701304251109
 30
0.0
 42
-0.0165663367982143
 70
     1
  0
VERTEX
  5
1BEE
  8
0
 10
107.4861075166955
 20
142.27677814233039
 30
0.0
  0
SEQEND
  5
1BEF
  8
0
  0
POLYLINE
  5
1BF0
  8
0
 66
     1
 10
0.0
 20
0.0
 30
0.0
 70
     2
  0
VERTEX
  5
1BF1
  8
0
 10
116.6514690598642
 20
153.66070063787561
 30
0.0
 42
0.0165725809229096
  0
VERTEX
  5
1BF2
  8
0
 10
114.3974847754498
 20
154.21711414481251
 30
0.0
 42
0.0165725809229397
 70
     1
  0
VERTEX
  5
1BF3
  8
0
 10
112.1115957798533
 20
154.62301147779061
 30
0.0
 42
0.0165663367982783
  0
VERTEX
  5
1BF4
  8
0
 10
109.8047138748325
 20
154.87654324214921
 30
0.0
 42
0.0165663367982143
 70
     1
  0
VERTEX
  5
1BF5
  8
0
 10
107.4861075166957
 20
154.9767781423302
 30
0.0
  0
SEQEND
  5
1BF6
  8
0
  0
POLYLINE
  5
1BF7
  8
0
 66
     1
 10
0.0
 20
0.0
 30
0.0
 70
     2
  0
VERTEX
  5
1BF8
  8
0
 10
98.32074597348219
 20
153.66070063787561
 30
0.0
 42
-0.0165725809229096
  0
VERTEX
  5
1BF9
  8
0
 10
100.5747302578966
 20
154.21711414481251
 30
0.0
 42
-0.0165725809229397
 70
     1
  0
VERTEX
  5
1BFA
  8
0
 10
102.860619253493
 20
154.62301147779061
 30
0.0
 42
-0.0165663367982783
  0
VERTEX
  5
1BFB
  8
0
 10
105.1675011585139
 20
154.87654324214921
 30
0.0
 42
-0.0165663367982143
 70
     1
  0
VERTEX
  5
1BFC
  8
0
 10
107.4861075166507
 20
154.9767781423302
 30
0.0
  0
SEQEND
  5
1BFD
  8
0
  0
LINE
  5
1BFE
  8
0
 10
171.6441561803444
 20
153.66068081493651
 30
0.0
 11
166.73241408680681
 21
154.9767781423302
 31
0.0
  0
LINE
  5
1BFF
  8
0
 10
166.7324140868063
 20
142.2767781423301
 30
0.0
 11
171.64415618034761
 21
143.5928754697245
 31
0.0
  0
LINE
  5
1C00
  8
0
 10
103.2324140868065
 20
142.2767781423301
 30
0.0
 11
98.32067199326822
 21
143.59287546972359
 31
0.0
  0
LINE
  5
1C01
  8
0
 10
103.2324140868065
 20
154.9767781423302
 30
0.0
 11
98.320671993348242
 21
153.66068081495831
 31
0.0
  0
POLYLINE
  5
1C02
  8
0
 66
     1
 10
0.0
 20
0.0
 30
0.0
  0
VERTEX
  5
3B5C
  8
0
 10
61.182414086806602
 20
125.35053127066431
 30
0.0
  0
VERTEX
  5
3B5D
  8
0
 10
61.32480450531488
 20
123.7834952587116
 30
0.0
  0
VERTEX
  5
3B5E
  8
0
 10
61.408738182929021
 20
121.9364242649967
 30
0.0
  0
SEQEND
  5
3B5F
  8
0
  0
POLYLINE
  5
1C03
  8
0
 66
     1
 10
0.0
 20
0.0
 30
0.0
  0
VERTEX
  5
3B60
  8
0
 10
208.78241408680651
 20
125.3505312706654
 30
0.0
  0
VERTEX
  5
3B61
  8
0
 10
208.64002366829851
 20
123.7834952587127
 30
0.0
  0
VERTEX
  5
3B62
  8
0
 10
208.55608999068431
 20
121.9364242649978
 30
0.0
  0
SEQEND
  5
3B63
  8
0
  0
LINE
  5
1C04
  8
0
 10
182.9824140868067
 20
108.1264781423301
 30
0.0
 11
183.23006408680661
 21
108.1264781423299
 31
0.0
  0
LINE
  5
1C05
  8
0
 10
182.9824140868067
 20
125.62707814233021
 30
0.0
 11
183.23006408680661
 21
125.62707814233021
 31
0.0
  0
LINE
  5
1C06
  8
0
 10
86.734764086806535
 20
125.62707814233021
 30
0.0
 11
86.982414086806784
 21
125.62707814233021
 31
0.0
  0
LINE
  5
1C07
  8
0
 10
86.734764086806535
 20
108.1264781423301
 30
0.0
 11
86.982414086806784
 21
108.1264781423301
 31
0.0
  0
LINE
  5
1C08
  8
0
 10
111.1824140868066
 20
91.476778142330204
 30
0.0
 11
111.1824140868066
 21
90.638778142329784
 31
0.0
  0
LINE
  5
1C09
  8
0
 10
111.1824140868066
 20
90.638778142329784
 30
0.0
 11
111.9444140868067
 21
89.87677814232984
 31
0.0
  0
LINE
  5
1C0A
  8
0
 10
158.78241408680651
 20
90.638778142330224
 30
0.0
 11
158.0204140868068
 21
89.876778142330295
 31
0.0
  0
LINE
  5
1C0B
  8
0
 10
158.78241408680651
 20
91.476778142330204
 30
0.0
 11
158.78241408680651
 21
90.638778142330224
 31
0.0
  0
LINE
  5
1C0C
  8
0
 10
145.01541408680669
 20
88.301978142330199
 30
0.0
 11
145.01541408680669
 21
85.957081660355485
 31
0.0
  0
LINE
  5
1C0D
  8
0
 10
124.9494140868066
 20
88.301978142330199
 30
0.0
 11
124.9494140868069
 21
85.957081660355485
 31
0.0
  0
POLYLINE
  5
1C0E
  8
0
 66
     1
 10
0.0
 20
0.0
 30
0.0
  0
VERTEX
  5
3B64
  8
0
 10
61.18241408680683
 20
500.35151464314248
 30
0.0
  0
VERTEX
  5
3B65
  8
0
 10
61.18643121272612
 20
500.76344741469939
 30
0.0
  0
VERTEX
  5
3B66
  8
0
 10
61.208572415440813
 20
501.4361124605166
 30
0.0
  0
VERTEX
  5
3B67
  8
0
 10
61.252292533388292
 20
502.20196993657282
 30
0.0
  0
VERTEX
  5
3B68
  8
0
 10
61.336661435016822
 20
503.35800716661493
 30
0.0
  0
VERTEX
  5
3B69
  8
0
 10
61.378914031122342
 20
503.99124994462841
 30
0.0
  0
VERTEX
  5
3B6A
  8
0
 10
61.400452270636841
 20
504.4509887100848
 30
0.0
  0
VERTEX
  5
3B6B
  8
0
 10
61.408738182928801
 20
504.8956833089623
 30
0.0
  0
SEQEND
  5
3B6C
  8
0
  0
POLYLINE
  5
1C0F
  8
0
 66
     1
 10
0.0
 20
0.0
 30
0.0
  0
VERTEX
  5
3B6D
  8
0
 10
61.18241408680683
 20
494.72782278457657
 30
0.0
  0
VERTEX
  5
3B6E
  8
0
 10
61.18643121272612
 20
494.31589001301973
 30
0.0
  0
VERTEX
  5
3B6F
  8
0
 10
61.208572415440813
 20
493.64322496720251
 30
0.0
  0
VERTEX
  5
3B70
  8
0
 10
61.252292533388292
 20
492.87736749114629
 30
0.0
  0
VERTEX
  5
3B71
  8
0
 10
61.336661435016822
 20
491.72133026110419
 30
0.0
  0
VERTEX
  5
3B72
  8
0
 10
61.378914031122342
 20
491.08808748309059
 30
0.0
  0
VERTEX
  5
3B73
  8
0
 10
61.400452270636841
 20
490.6283487176342
 30
0.0
  0
VERTEX
  5
3B74
  8
0
 10
61.408738182928801
 20
490.18365411875669
 30
0.0
  0
SEQEND
  5
3B75
  8
0
  0
POLYLINE
  5
1C10
  8
0
 66
     1
 10
0.0
 20
0.0
 30
0.0
 70
     2
  0
VERTEX
  5
1C11
  8
0
 10
208.55608999068431
 20
504.8956833089623
 30
0.0
 42
0.0033149232189063
  0
VERTEX
  5
1C12
  8
0
 10
208.58573254394511
 20
504.03879849469553
 30
0.0
 42
0.007334595455864
 70
     1
  0
VERTEX
  5
1C13
  8
0
 10
208.60737545245951
 20
503.65187983103323
 30
0.0
 42
0.0012601760631189
  0
VERTEX
  5
1C14
  8
0
 10
208.6992644107263
 20
502.39653093004648
 30
0.0
 42
-0.0044706967492235
 70
     1
  0
VERTEX
  5
1C15
  8
0
 10
208.72289342323941
 20
502.04251437429218
 30
0.0
 42
-0.0038017163205275
  0
VERTEX
  5
1C16
  8
0
 10
208.7270536258911
 20
501.95954906793298
 30
0.0
 42
-0.0002540910810558
 70
     1
  0
VERTEX
  5
1C17
  8
0
 10
208.7792268460023
 20
500.71777414233969
 30
0.0
 42
-0.0098439075956244
  0
VERTEX
  5
1C18
  8
0
 10
208.7907241982725
 20
500.19033471032338
 30
0.0
 42
-0.0053550934780461
 70
     1
  0
VERTEX
  5
1C19
  8
0
 10
208.7823824894644
 20
499.22065004470858
 30
0.0
  0
SEQEND
  5
1C1A
  8
0
  0
POLYLINE
  5
1C1B
  8
0
 66
     1
 10
0.0
 20
0.0
 30
0.0
 70
     2
  0
VERTEX
  5
1C1C
  8
0
 10
208.55608999068431
 20
490.18365411875669
 30
0.0
 42
-0.0033149232189063
  0
VERTEX
  5
1C1D
  8
0
 10
208.58573254394511
 20
491.04053893302353
 30
0.0
 42
-0.007334595455864
 70
     1
  0
VERTEX
  5
1C1E
  8
0
 10
208.60737545245951
 20
491.42745759668583
 30
0.0
 42
-0.0012601760631189
  0
VERTEX
  5
1C1F
  8
0
 10
208.6992644107263
 20
492.68280649767252
 30
0.0
 42
0.0044706967492235
 70
     1
  0
VERTEX
  5
1C20
  8
0
 10
208.72289342323941
 20
493.03682305342682
 30
0.0
 42
0.0038017163205275
  0
VERTEX
  5
1C21
  8
0
 10
208.7270536258911
 20
493.11978835978601
 30
0.0
 42
0.0002540910810558
 70
     1
  0
VERTEX
  5
1C22
  8
0
 10
208.7792268460023
 20
494.3615632853793
 30
0.0
 42
0.0098439075956244
  0
VERTEX
  5
1C23
  8
0
 10
208.7907241982725
 20
494.88900271739561
 30
0.0
 42
0.0053550934780461
 70
     1
  0
VERTEX
  5
1C24
  8
0
 10
208.7823824894644
 20
495.85868738301042
 30
0.0
  0
SEQEND
  5
1C25
  8
0
  0
LINE
  5
1C26
  8
0
 10
413.49047259946218
 20
42.276778142330159
 30
0.0
 11
395.49047259946229
 21
42.276778142330393
 31
0.0
  0
LINE
  5
1C27
  8
0
 10
392.49047259946252
 20
82.957081660355925
 30
0.0
 11
392.49047259946218
 21
45.276778142330379
 31
0.0
  0
LINE
  5
1C28
  8
3
 10
394.11447259946232
 20
84.714849118954135
 30
0.0
 11
394.11447259946232
 21
43.652778142330362
 31
0.0
  0
LINE
  5
1C29
  8
3
 10
414.86647259946261
 20
84.714849118955726
 30
0.0
 11
414.8664725994621
 21
43.652778142330128
 31
0.0
  0
LINE
  5
1C2A
  8
0
 10
416.49047259946241
 20
82.95708166035547
 30
0.0
 11
416.49047259946218
 21
45.276778142329931
 31
0.0
  0
LINE
  5
1C2B
  8
0
 10
416.49047259946218
 20
45.276778142329931
 30
0.0
 11
413.49047259946218
 21
42.276778142330159
 31
0.0
  0
LINE
  5
1C2C
  8
0
 10
395.49047259946229
 20
42.276778142330393
 30
0.0
 11
392.49047259946218
 21
45.276778142330379
 31
0.0
  0
LINE
  5
1C2D
  8
0
 10
416.49047259946241
 20
45.276778142330151
 30
0.0
 11
392.49047259946218
 21
45.276778142330379
 31
0.0
  0
LINE
  5
1C2E
  8
0
 10
392.49047259946252
 20
82.957081660355925
 30
0.0
 11
416.49047259946241
 21
82.957081660355698
 31
0.0
  0
LINE
  5
1C2F
  8
0
 10
416.49047259946292
 20
82.957081660355243
 30
0.0
 11
414.98472084045028
 21
84.462833419367826
 31
0.0
  0
LINE
  5
1C30
  8
0
 10
393.9962243584755
 20
84.462833419368508
 30
0.0
 11
392.49047259946292
 21
82.957081660355698
 31
0.0
  0
ARC
  5
1C31
  8
0
 10
389.8563423628861
 20
86.559056172185819
 30
0.0
 40
4.6403418803827199
 50
333.14469772740989
 51
352.54622186190619
  0
ARC
  5
1C32
  8
0
 10
419.1246028360469
 20
86.559056172186956
 30
0.0
 40
4.6403418803901779
 50
187.45377813809569
 51
206.85530227256609
  0
ARC
  5
1C33
  8
0
 10
149.6165443233908
 20
86.559056172186956
 30
0.0
 40
4.6403418803901779
 50
187.45377813809569
 51
206.85530227256609
  0
ARC
  5
1C34
  8
0
 10
120.34828385023
 20
86.559056172185819
 30
0.0
 40
4.6403418803827199
 50
333.14469772740989
 51
352.54622186190619
  0
LINE
  5
1C35
  8
0
 10
124.4881658458193
 20
84.462833419368508
 30
0.0
 11
122.9824140868065
 21
82.957081660355698
 31
0.0
  0
LINE
  5
1C36
  8
0
 10
146.9824140868065
 20
82.957081660355243
 30
0.0
 11
145.47666232779389
 21
84.462833419367826
 31
0.0
  0
LINE
  5
1C37
  8
0
 10
122.9824140868063
 20
82.957081660355925
 30
0.0
 11
146.9824140868063
 21
82.957081660355698
 31
0.0
  0
LINE
  5
1C38
  8
0
 10
146.9824140868063
 20
45.276778142330379
 30
0.0
 11
122.9824140868063
 21
45.276778142330613
 31
0.0
  0
LINE
  5
1C39
  8
0
 10
125.9824140868063
 20
42.276778142330613
 30
0.0
 11
122.9824140868063
 21
45.276778142330613
 31
0.0
  0
LINE
  5
1C3A
  8
0
 10
146.9824140868063
 20
45.276778142330151
 30
0.0
 11
143.9824140868063
 21
42.276778142330393
 31
0.0
  0
LINE
  5
1C3B
  8
0
 10
146.9824140868061
 20
82.95708166035547
 30
0.0
 11
146.9824140868063
 21
45.276778142330151
 31
0.0
  0
LINE
  5
1C3C
  8
3
 10
145.35841408680631
 20
84.714849118955726
 30
0.0
 11
145.35841408680631
 21
43.652778142330362
 31
0.0
  0
LINE
  5
1C3D
  8
3
 10
124.6064140868061
 20
84.714849118954135
 30
0.0
 11
124.6064140868061
 21
43.65277814233059
 31
0.0
  0
LINE
  5
1C3E
  8
0
 10
122.9824140868061
 20
82.957081660355925
 30
0.0
 11
122.9824140868063
 21
45.276778142330613
 31
0.0
  0
LINE
  5
1C3F
  8
0
 10
143.9824140868063
 20
42.276778142330393
 30
0.0
 11
125.9824140868063
 21
42.276778142330613
 31
0.0
  0
LINE
  5
1C40
  8
0
 10
75.406414086817222
 20
96.251978142330245
 30
0.0
 11
86.722414086806566
 21
96.251978142330017
 31
0.0
  0
LINE
  5
1C41
  8
0
 10
194.55841408680681
 20
96.251978142330245
 30
0.0
 11
183.45866408681101
 21
96.251978142330245
 31
0.0
  0
LINE
  5
1C42
  8
1
 10
452.59047259946249
 20
116.87677814233029
 30
0.0
 11
356.39047259946278
 21
116.87677814233029
 31
0.0
  0
LINE
  5
1C43
  8
1
 10
51.408738182928801
 20
116.87677814233029
 30
0.0
 11
218.5560899906846
 21
116.87677814233
 31
0.0
  0
LINE
  5
1C44
  8
1
 10
51.18241408680683
 20
497.53966871386001
 30
0.0
 11
218.7823984302961
 21
497.53966871385973
 31
0.0
  0
LINE
  5
1C45
  8
1
 10
134.98241408680681
 20
545.63966871386015
 30
0.0
 11
134.9824140868065
 21
449.43966871385982
 31
0.0
  0
LINE
  5
1C46
  8
1
 10
134.9824140868065
 20
345.27817814233009
 30
0.0
 11
134.9824140868065
 21
32.276778142330613
 31
0.0
  0
LINE
  5
1C47
  8
1
 10
404.49047259946292
 20
32.276778142330159
 30
0.0
 11
404.49047259946292
 21
345.27817814233049
 31
0.0
  0
LINE
  5
1C48
  8
0
 10
75.406414086817222
 20
518.16446871386029
 30
0.0
 11
86.487114086823567
 21
518.16446871386029
 31
0.0
  0
LINE
  5
1C49
  8
0
 10
75.406414086806976
 20
476.91486871386019
 30
0.0
 11
86.487114086806514
 21
476.91486871386019
 31
0.0
  0
LINE
  5
1C4A
  8
0
 10
194.55841408680291
 20
518.16446871386029
 30
0.0
 11
183.43961408680661
 21
518.16446871386029
 31
0.0
  0
LINE
  5
1C4B
  8
0
 10
194.55841408680499
 20
476.91486871386019
 30
0.0
 11
183.43961408680661
 21
476.91486871386019
 31
0.0
  0
LINE
  5
1C4C
  8
0
 10
116.6515430400359
 20
529.28966871386001
 30
0.0
 11
107.48610751665041
 21
513.41466871385967
 31
0.0
  0
LINE
  5
1C4D
  8
0
 10
153.31328513357741
 20
529.28966871385956
 30
0.0
 11
162.47872065696259
 21
513.41466871385956
 31
0.0
  0
LINE
  5
1C4E
  8
0
 10
116.6515430400359
 20
529.28966871386001
 30
0.0
 11
153.31328513357741
 21
529.28966871385956
 31
0.0
  0
LINE
  5
1C4F
  8
0
 10
116.6515430400361
 20
465.78966871386001
 30
0.0
 11
107.4861075166507
 21
481.66466871385978
 31
0.0
  0
LINE
  5
1C50
  8
0
 10
153.31328513357721
 20
465.78966871386001
 30
0.0
 11
162.634214602383
 21
481.93399212759732
 31
0.0
  0
LINE
  5
1C51
  8
0
 10
116.6515430400361
 20
465.78966871386001
 30
0.0
 11
153.31328513357721
 21
465.78966871386001
 31
0.0
  0
LINE
  5
1C53
  8
0
 10
86.982414086806756
 20
513.38966871385799
 30
0.0
 11
86.982414086806557
 21
535.63966871385992
 31
0.0
  0
LINE
  5
1C54
  8
0
 10
86.982414086806557
 20
459.43966871385999
 30
0.0
 11
86.982414086806344
 21
481.68966871386152
 31
0.0
  0
LINE
  5
1C55
  8
0
 10
182.9824140868067
 20
459.43966871385999
 30
0.0
 11
86.982414086806784
 21
459.43966871385999
 31
0.0
  0
LINE
  5
1C56
  8
0
 10
182.9824140868067
 20
481.68966871385999
 30
0.0
 11
182.9824140868067
 21
459.43966871385999
 31
0.0
  0
LINE
  5
1C57
  8
0
 10
182.9824140868067
 20
535.63966871385992
 30
0.0
 11
182.9824140868067
 21
513.38966871385981
 31
0.0
  0
LINE
  5
1C58
  8
0
 10
86.982414086806784
 20
535.63966871385992
 30
0.0
 11
182.9824140868067
 21
535.63966871385958
 31
0.0
  0
ARC
  5
1C59
  8
0
 10
134.9824140868065
 20
497.53966871386001
 30
0.0
 40
31.750000000000039
 50
209.94791958978109
 51
270.0000000000008
  0
ARC
  5
1C5A
  8
0
 10
134.9824140868065
 20
497.53966871386001
 30
0.0
 40
31.75000000000006
 50
270.0000000000008
 51
330.05208041021712
  0
ARC
  5
1C5B
  8
0
 10
134.9824140868065
 20
497.53966871386001
 30
0.0
 40
31.750000000000149
 50
29.947919589782021
 51
90.0
  0
ARC
  5
1C5C
  8
0
 10
134.9824140868065
 20
497.53966871386001
 30
0.0
 40
31.750000000000099
 50
90.0
 51
150.05208041021979
  0
LINE
  5
1C5D
  8
0
 10
86.715714086806656
 20
518.16035257980047
 30
0.0
 11
86.715714086806656
 21
514.52940353749273
 31
0.0
  0
LINE
  5
1C5E
  8
0
 10
86.715714086806656
 20
480.54993389022769
 30
0.0
 11
86.715714086806656
 21
476.91898484791989
 31
0.0
  0
LINE
  5
1C5F
  8
0
 10
61.408738182928801
 20
488.61156871386038
 30
0.0
 11
61.408738182928801
 21
490.18365411875669
 31
0.0
  0
LINE
  5
1C60
  8
0
 10
61.408738182929021
 20
504.89568330896373
 30
0.0
 11
61.408738182928801
 21
506.46776871385998
 31
0.0
  0
LINE
  5
1C61
  8
0
 10
183.2110140868067
 20
476.91898484791989
 30
0.0
 11
183.2110140868067
 21
480.54993389022769
 31
0.0
  0
LINE
  5
1C62
  8
0
 10
183.2110140868067
 20
514.52940353749273
 30
0.0
 11
183.2110140868067
 21
518.16035257980047
 31
0.0
  0
LINE
  5
1C63
  8
0
 10
208.5560899906846
 20
506.46776871386032
 30
0.0
 11
208.5560899906846
 21
504.8956833089639
 31
0.0
  0
LINE
  5
1C64
  8
0
 10
208.5560899906846
 20
490.18365411875652
 30
0.0
 11
208.5560899906846
 21
488.61156871386038
 31
0.0
  0
LINE
  5
1C65
  8
0
 10
86.715714086806656
 20
481.68966871386152
 30
0.0
 11
86.715714086806656
 21
480.54993389022769
 31
0.0
  0
LINE
  5
1C66
  8
0
 10
183.2110140868067
 20
480.54993389022769
 30
0.0
 11
183.21101408680661
 21
481.68966871385999
 31
0.0
  0
LINE
  5
1C67
  8
0
 10
61.18241408680683
 20
494.72782278457657
 30
0.0
 11
61.18241408680683
 21
495.88866871386011
 31
0.0
  0
LINE
  5
1C68
  8
0
 10
61.18241408680683
 20
499.19066871386008
 30
0.0
 11
61.18241408680683
 21
500.35151464314362
 31
0.0
  0
LINE
  5
1C69
  8
0
 10
86.715714086806656
 20
514.52940353749273
 30
0.0
 11
86.715714086806656
 21
513.38966871385799
 31
0.0
  0
LINE
  5
1C6A
  8
0
 10
183.21101408680661
 20
513.38966871385981
 30
0.0
 11
183.2110140868067
 21
514.52940353749273
 31
0.0
  0
LINE
  5
1C6B
  8
0
 10
61.18241408680683
 20
495.88866871385972
 30
0.0
 11
61.18241408680683
 21
499.19066871385979
 31
0.0
  0
LINE
  5
1C6C
  8
0
 10
208.7823824894644
 20
495.85868738301042
 30
0.0
 11
208.78241408680651
 21
499.19066871385871
 31
0.0
  0
ARC
  5
1C72
  8
0
 10
86.487114086806727
 20
511.81446871386021
 30
0.0
 40
6.350000000000092
 50
87.936906145513447
 51
90.0
  0
ARC
  5
1C73
  8
0
 10
86.487114086806727
 20
483.26486871385998
 30
0.0
 40
6.3500000000000023
 50
270.0000000000008
 51
272.06309385448742
  0
ARC
  5
1C74
  8
0
 10
75.406414086806762
 20
491.13886871386012
 30
0.0
 40
14.22400000000003
 50
190.23457225896061
 51
270.0000000000008
  0
ARC
  5
1C75
  8
0
 10
75.406414086806762
 20
503.94046871386041
 30
0.0
 40
14.22400000000003
 50
90.0
 51
169.76542774104041
  0
ARC
  5
1C76
  8
0
 10
183.43961408680661
 20
483.26486871385998
 30
0.0
 40
6.350000000000005
 50
267.93690614551338
 51
270.0000000000008
  0
ARC
  5
1C77
  8
0
 10
183.43961408680661
 20
511.81446871386021
 30
0.0
 40
6.3500000000000956
 50
90.0
 51
92.063093854487349
  0
ARC
  5
1C78
  8
0
 10
194.55841408680681
 20
503.94046871386041
 30
0.0
 40
14.22399999999997
 50
10.2345722589596
 51
90.0
  0
ARC
  5
1C79
  8
0
 10
194.55841408680681
 20
491.13886871386012
 30
0.0
 40
14.22399999999995
 50
270.0000000000008
 51
349.76542774104092
  0
LINE
  5
1C7A
  8
0
 10
394.45747259946302
 20
85.957081660355485
 30
0.0
 11
414.52347259946282
 21
85.957081660355485
 31
0.0
  0
LINE
  5
1C7B
  8
0
 10
414.52347259946282
 20
88.301978142330199
 30
0.0
 11
394.45747259946302
 21
88.301978142330199
 31
0.0
  0
LINE
  5
1C7C
  8
0
 10
442.59047259946283
 20
91.476778142330204
 30
0.0
 11
442.59047259946283
 21
142.2767781423301
 31
0.0
  0
LINE
  5
1C7D
  8
0
 10
388.61547259946292
 20
142.2767781423301
 30
0.0
 11
366.39047259946261
 21
142.2767781423301
 31
0.0
  0
LINE
  5
1C7E
  8
0
 10
442.59047259946283
 20
142.2767781423301
 30
0.0
 11
420.36547259946269
 21
142.2767781423301
 31
0.0
  0
LINE
  5
1C7F
  8
0
 10
366.39047259946261
 20
91.476778142330204
 30
0.0
 11
366.39047259946261
 21
142.2767781423301
 31
0.0
  0
LINE
  5
1C80
  8
0
 10
442.59047259946283
 20
91.476778142330204
 30
0.0
 11
366.39047259946261
 21
91.476778142330204
 31
0.0
  0
CIRCLE
  5
1C81
  8
0
 10
404.49047259946252
 20
116.87677814233029
 30
0.0
 40
8.163712126503416
  0
LINE
  5
1C82
  8
0
 10
372.74047259946292
 20
154.9767781423302
 30
0.0
 11
388.61547259946292
 21
154.9767781423302
 31
0.0
  0
LINE
  5
1C83
  8
0
 10
420.36547259946269
 20
154.9767781423302
 30
0.0
 11
436.24047259946292
 21
154.9767781423302
 31
0.0
  0
LINE
  5
1C84
  8
0
 10
372.74047259946292
 20
154.9767781423302
 30
0.0
 11
372.74047259946292
 21
142.2767781423301
 31
0.0
  0
LINE
  5
1C85
  8
0
 10
436.24047259946292
 20
154.9767781423302
 30
0.0
 11
436.24047259946292
 21
142.2767781423301
 31
0.0
  0
ARC
  5
1C86
  8
0
 10
405.00668639237159
 20
117.0622871805583
 30
0.0
 40
18.890323718542941
 50
150.04075061542011
 51
268.43408961802658
  0
ARC
  5
1C90
  8
0
 10
392.88267259946292
 20
88.301978142330199
 30
0.0
 40
1.5748000000000071
 50
0.0
 51
90.0
  0
ARC
  5
1C91
  8
0
 10
416.09827259946258
 20
88.301978142330199
 30
0.0
 40
1.5748000000000071
 50
90.0
 51
180.0
  0
LINE
  5
1C92
  8
0
 10
124.9494140868066
 20
85.957081660355485
 30
0.0
 11
145.01541408680669
 21
85.957081660355485
 31
0.0
  0
LINE
  5
1C93
  8
0
 10
145.01541408680669
 20
88.301978142330199
 30
0.0
 11
124.9494140868066
 21
88.301978142330199
 31
0.0
  0
LINE
  5
1C94
  8
0
 10
182.9824140868067
 20
91.476778142330204
 30
0.0
 11
86.982414086806784
 21
91.476778142330204
 31
0.0
  0
LINE
  5
1C95
  8
0
 10
182.9824140868067
 20
91.476778142330204
 30
0.0
 11
182.9824140868067
 21
142.2767781423301
 31
0.0
  0
LINE
  5
1C96
  8
0
 10
182.9824140868067
 20
142.2767781423301
 30
0.0
 11
86.982414086806784
 21
142.2767781423301
 31
0.0
  0
LINE
  5
1C97
  8
0
 10
86.982414086806784
 20
91.476778142330204
 30
0.0
 11
86.982414086806784
 21
142.2767781423301
 31
0.0
  0
LINE
  5
1C98
  8
0
 10
162.47872065696239
 20
154.9767781423302
 30
0.0
 11
166.73241408680681
 21
154.9767781423302
 31
0.0
  0
LINE
  5
1C99
  8
0
 10
103.2324140868065
 20
154.9767781423302
 30
0.0
 11
107.4861075166507
 21
154.9767781423302
 31
0.0
  0
LINE
  5
1C9A
  8
0
 10
158.0204140868068
 20
89.876778142330295
 30
0.0
 11
111.9444140868063
 21
89.876778142330295
 31
0.0
  0
LINE
  5
1C9B
  8
0
 10
134.9824140868065
 20
154.9767781423302
 30
0.0
 11
162.47872065696239
 21
154.9767781423302
 31
0.0
  0
LINE
  5
1C9C
  8
0
 10
171.64415618034761
 20
153.6606808149358
 30
0.0
 11
171.64415618034761
 21
143.5928754697245
 31
0.0
  0
LINE
  5
1C9D
  8
0
 10
107.4861075166507
 20
154.9767781423302
 30
0.0
 11
134.9824140868065
 21
154.9767781423302
 31
0.0
  0
LINE
  5
1C9E
  8
0
 10
153.31328513357721
 20
153.6606808149358
 30
0.0
 11
153.31328513357721
 21
143.5928754697245
 31
0.0
  0
LINE
  5
1C9F
  8
0
 10
98.32067199326525
 20
153.6606808149358
 30
0.0
 11
98.32067199326525
 21
143.5928754697245
 31
0.0
  0
LINE
  5
1CA0
  8
0
 10
116.6515430400359
 20
153.6606808149358
 30
0.0
 11
116.6515430400359
 21
143.5928754697245
 31
0.0
  0
LINE
  5
1CA1
  8
0
 62
     4
 10
208.78241408680651
 20
125.3505312706654
 30
0.0
 11
208.78241408680651
 21
125.8048781423301
 31
0.0
  0
LINE
  5
1CA2
  8
0
 10
61.182414086806602
 20
125.3505312706654
 30
0.0
 11
61.182414086806602
 21
125.8048781423301
 31
0.0
  0
LINE
  5
1CA3
  8
0
 10
89.332414086806693
 20
259.1167781423303
 30
0.0
 11
89.332414086806693
 21
233.71677814233021
 31
0.0
  0
ARC
  5
1CA4
  8
0
 10
142.53241408680651
 20
259.1167781423303
 30
0.0
 40
38.100000000000087
 50
0.0
 51
90.0
  0
LINE
  5
1CA5
  8
0
 10
61.182414086806602
 20
132.16367482020451
 30
0.0
 11
61.182414086806602
 21
271.67677814233002
 31
0.0
  0
LINE
  5
1CA6
  8
0
 10
208.78241408680651
 20
271.67677814233002
 30
0.0
 11
208.78241408680651
 21
132.16367482020451
 31
0.0
  0
LINE
  5
1CA7
  8
0
 10
173.29866408680661
 20
170.21677814233021
 30
0.0
 11
96.666164086806702
 21
170.21677814233021
 31
0.0
  0
ARC
  5
1CA8
  8
0
 10
124.6824140868066
 20
271.67677814233002
 30
0.0
 40
63.500000000000007
 50
90.0
 51
180.0
  0
ARC
  5
1CA9
  8
0
 10
127.4324140868066
 20
233.71677814233021
 30
0.0
 40
38.100000000000001
 50
180.0
 51
270.0000000000008
  0
ARC
  5
1CAA
  8
0
 10
142.53241408680651
 20
233.71677814233021
 30
0.0
 40
38.100000000000087
 50
270.0000000000008
 51
0.0
  0
LINE
  5
1CAB
  8
0
 10
127.4324140868091
 20
195.6167781423303
 30
0.0
 11
142.53241408680651
 21
195.6167781423303
 31
0.0
  0
LINE
  5
1CAC
  8
0
 10
86.734764086806749
 20
149.60114209460761
 30
0.0
 11
86.734764086806535
 21
132.16367482020451
 31
0.0
  0
LINE
  5
1CAD
  8
0
 10
180.63241408680659
 20
233.71677814233021
 30
0.0
 11
180.63241408680659
 21
259.1167781423303
 31
0.0
  0
ARC
  5
1CAE
  8
0
 10
145.28241408680651
 20
271.67677814233002
 30
0.0
 40
63.500000000000092
 50
0.0
 51
90.0
  0
LINE
  5
1CAF
  8
0
 10
124.6824140868066
 20
335.17677814233002
 30
0.0
 11
145.28241408680651
 21
335.17677814233002
 31
0.0
  0
ARC
  5
1CB0
  8
0
 10
127.4324140868066
 20
259.1167781423303
 30
0.0
 40
38.100000000000001
 50
90.0
 51
180.0
  0
LINE
  5
1CB1
  8
0
 10
142.53241408680651
 20
297.21677814233021
 30
0.0
 11
127.4324140868066
 21
297.21677814233021
 31
0.0
  0
LINE
  5
1CCC
  8
3
 10
157.74359692259571
 20
307.49506302741128
 30
0.0
 11
156.3939746389419
 21
307.80508346010379
 31
0.0
  0
LINE
  5
1CCD
  8
3
 10
160.01914689855721
 20
317.43638490241119
 30
0.0
 11
157.74359692259571
 21
307.49506302741128
 31
0.0
  0
LINE
  5
1CCE
  8
3
 10
158.75633033605729
 20
317.72573730625732
 30
0.0
 11
160.01914689855721
 21
317.43638490241119
 31
0.0
  0
LINE
  5
1CCF
  8
3
 10
156.97061264374949
 20
309.92148961394969
 30
0.0
 11
158.75633033605729
 21
317.72573730625732
 31
0.0
  0
LINE
  5
1CD0
  8
3
 10
153.5355862495189
 20
318.9203493735651
 30
0.0
 11
156.97061264374949
 21
309.92148961394969
 31
0.0
  0
LINE
  5
1CD1
  8
3
 10
152.18596396586511
 20
319.23036980625722
 30
0.0
 11
153.5355862495189
 21
318.9203493735651
 31
0.0
  0
LINE
  5
1CD2
  8
3
 10
151.1711637495186
 20
308.9996955274114
 30
0.0
 11
149.91041398990359
 21
309.2890479312573
 31
0.0
  0
LINE
  5
1CD3
  8
3
 10
156.3939746389419
 20
307.80508346010379
 30
0.0
 11
152.95894824471131
 21
316.8122104312572
 31
0.0
  0
LINE
  5
1CD4
  8
3
 10
149.91041398990359
 20
309.2890479312573
 30
0.0
 11
152.18596396586511
 21
319.23036980625722
 31
0.0
  0
LINE
  5
1CD5
  8
3
 10
152.95894824471131
 20
316.8122104312572
 30
0.0
 11
151.1711637495186
 21
308.9996955274114
 31
0.0
  0
LINE
  5
1CEB
  8
3
 10
117.2716232337111
 20
308.83580935282129
 30
0.0
 11
109.9241389789035
 21
306.72973721339832
 31
0.0
  0
LINE
  5
1CEC
  8
3
 10
116.9388679692879
 20
309.99735257397469
 30
0.0
 11
117.2716232337111
 21
308.83580935282129
 31
0.0
  0
LINE
  5
1CED
  8
3
 10
110.893469531788
 20
308.26537175666732
 30
0.0
 11
116.9388679692879
 21
309.99735257397469
 31
0.0
  0
LINE
  5
1CEE
  8
3
 10
109.60171772890359
 20
312.77306884801328
 30
0.0
 11
115.0498101327496
 21
314.33350502589838
 31
0.0
  0
LINE
  5
1CEF
  8
3
 10
108.73572732024959
 20
315.78853425666722
 30
0.0
 11
109.60171772890359
 21
312.77306884801328
 31
0.0
  0
LINE
  5
1CF0
  8
3
 10
109.9241389789035
 20
306.72973721339832
 30
0.0
 11
107.1008862385188
 21
316.57805295859021
 31
0.0
  0
LINE
  5
1CF1
  8
3
 10
109.9324061904419
 20
311.61772603551321
 30
0.0
 11
110.893469531788
 21
308.26537175666732
 31
0.0
  0
LINE
  5
1CF2
  8
3
 10
115.3804985942879
 20
313.17816221339791
 30
0.0
 11
109.9324061904419
 21
311.61772603551321
 31
0.0
  0
LINE
  5
1CF3
  8
3
 10
115.0498101327496
 20
314.33350502589838
 30
0.0
 11
115.3804985942879
 21
313.17816221339791
 31
0.0
  0
LINE
  5
1CF4
  8
3
 10
114.553777440442
 20
317.45644418455157
 30
0.0
 11
108.73572732024959
 21
315.78853425666722
 31
0.0
  0
LINE
  5
1CF5
  8
3
 10
114.22102217601871
 20
318.62005420859032
 30
0.0
 11
114.553777440442
 21
317.45644418455157
 31
0.0
  0
LINE
  5
1CF6
  8
3
 10
107.1008862385188
 20
316.57805295859021
 30
0.0
 11
114.22102217601871
 21
318.62005420859032
 31
0.0
  0
LINE
  5
1CF7
  8
3
 10
142.0070739555722
 20
315.7306946567532
 30
0.0
 11
147.66391345076451
 21
315.56121682021472
 31
0.0
  0
LINE
  5
1CF8
  8
3
 10
148.10827607095661
 20
309.65636097886892
 30
0.0
 11
140.47763982095691
 21
309.88370929617622
 31
0.0
  0
LINE
  5
1CF9
  8
3
 10
148.1434117199951
 20
310.86337386348418
 30
0.0
 11
148.10827607095661
 21
309.65636097886892
 31
0.0
  0
LINE
  5
1CFA
  8
3
 10
141.8665313594183
 20
311.0493861230994
 30
0.0
 11
148.1434117199951
 21
310.86337386348418
 31
0.0
  0
LINE
  5
1CFB
  8
3
 10
141.9719383065335
 20
314.52988218079167
 30
0.0
 11
141.8665313594183
 21
311.0493861230994
 31
0.0
  0
LINE
  5
1CFC
  8
3
 10
142.10008008537989
 20
318.86190102694582
 30
0.0
 11
142.0070739555722
 21
315.7306946567532
 31
0.0
  0
LINE
  5
1CFD
  8
3
 10
148.13927811422579
 20
318.68208917598417
 30
0.0
 11
142.10008008537989
 21
318.86190102694582
 31
0.0
  0
LINE
  5
1CFE
  8
3
 10
148.17648056614911
 20
319.88910206059933
 30
0.0
 11
148.13927811422579
 21
318.68208917598417
 31
0.0
  0
LINE
  5
1CFF
  8
3
 10
140.7835266478796
 20
320.1102499692534
 30
0.0
 11
148.17648056614911
 21
319.88910206059933
 31
0.0
  0
LINE
  5
1D00
  8
3
 10
140.47763982095691
 20
309.88370929617622
 30
0.0
 11
140.7835266478796
 21
320.1102499692534
 31
0.0
  0
LINE
  5
1D01
  8
3
 10
147.66391345076451
 20
315.56121682021472
 30
0.0
 11
147.62877780172579
 21
314.36040434425331
 31
0.0
  0
LINE
  5
1D02
  8
3
 10
147.62877780172579
 20
314.36040434425331
 30
0.0
 11
141.9719383065335
 21
314.52988218079167
 31
0.0
  0
LINE
  5
1D20
  8
3
 10
160.82856192699589
 20
309.9810242542203
 30
0.0
 11
162.04384202314981
 21
309.56146326864342
 31
0.0
  0
LINE
  5
1D21
  8
3
 10
169.67447827314979
 20
310.49152456672027
 30
0.0
 11
168.44266375391899
 21
310.93382038402768
 31
0.0
  0
LINE
  5
1D2D
  8
3
 10
105.26720696256299
 20
308.25962628796719
 30
0.0
 11
102.23314032794769
 21
314.65224761008272
 31
0.0
  0
LINE
  5
1D2E
  8
3
 10
103.46082124140911
 20
315.2330192206598
 30
0.0
 11
106.4618190298706
 21
308.90860239373609
 31
0.0
  0
LINE
  5
1D2F
  8
3
 10
101.5138929241016
 20
306.1659549658516
 30
0.0
 11
102.5493611692936
 21
306.84386631200567
 31
0.0
  0
LINE
  5
1D30
  8
3
 10
102.23314032794769
 20
314.65224761008272
 30
0.0
 11
103.46082124140911
 21
315.2330192206598
 31
0.0
  0
LINE
  5
1D31
  8
3
 10
136.97114553834899
 20
314.01731506540727
 30
0.0
 11
134.19336246142569
 21
314.01731506540727
 31
0.0
  0
LINE
  5
1D32
  8
3
 10
136.97114553834899
 20
312.06211953656128
 30
0.0
 11
136.97114553834899
 21
314.01731506540727
 31
0.0
  0
LINE
  5
1D33
  8
3
 10
138.25669693257959
 20
317.32626648367608
 30
0.0
 11
136.9256758748875
 21
316.99144441636872
 31
0.0
  0
LINE
  5
1D34
  8
3
 10
138.42617476911801
 20
315.20779352694581
 30
0.0
 11
138.42617476911801
 21
311.39040859906117
 31
0.0
  0
LINE
  5
1D35
  8
3
 10
134.19336246142569
 20
315.20779352694581
 30
0.0
 11
138.42617476911801
 21
315.20779352694581
 31
0.0
  0
LINE
  5
1D36
  8
3
 10
134.19336246142569
 20
314.01731506540727
 30
0.0
 11
134.19336246142569
 21
315.20779352694581
 31
0.0
  0
LINE
  5
1D37
  8
3
 10
122.92715837432389
 20
318.61779151069533
 30
0.0
 11
119.6905450570161
 21
318.34704033281059
 31
0.0
  0
LINE
  5
1D38
  8
3
 10
120.4531953214391
 20
309.25104083761829
 30
0.0
 11
119.0994394320162
 21
309.13736667896478
 31
0.0
  0
LINE
  5
1D39
  8
3
 10
120.0729035906699
 20
313.7918067751184
 30
0.0
 11
120.4531953214391
 21
309.25104083761829
 31
0.0
  0
LINE
  5
1D3A
  8
3
 10
121.6436737829776
 20
313.92201535684922
 30
0.0
 11
120.0729035906699
 21
313.7918067751184
 31
0.0
  0
LINE
  5
1D3B
  8
3
 10
126.4097212349006
 20
309.74914033281078
 30
0.0
 11
124.8802871002854
 21
311.7642731453106
 31
0.0
  0
LINE
  5
1D3C
  8
3
 10
128.1127668118238
 20
309.89381653473379
 30
0.0
 11
126.4097212349006
 21
309.74914033281078
 31
0.0
  0
LINE
  5
1D3D
  8
3
 10
126.0997008022086
 20
312.52692340973363
 30
0.0
 11
128.1127668118238
 21
309.89381653473379
 31
0.0
  0
LINE
  5
1D3E
  8
3
 10
118.24171623490059
 20
319.36390735204122
 30
0.0
 11
122.77628176374689
 21
319.74419908281078
 31
0.0
  0
LINE
  5
1D3F
  8
3
 10
119.0994394320162
 20
309.13736667896478
 30
0.0
 11
118.24171623490059
 21
319.36390735204122
 31
0.0
  0
LINE
  5
1D40
  8
3
 10
119.97369705220849
 20
314.9636840106952
 30
0.0
 11
122.883755513747
 21
315.20756675107992
 31
0.0
  0
LINE
  5
1D41
  8
3
 10
119.6905450570161
 20
318.34704033281059
 30
0.0
 11
119.97369705220849
 21
314.9636840106952
 31
0.0
  0
ARC
  5
1D42
  8
0
 10
96.666164086806702
 20
157.51677814233011
 30
0.0
 40
12.700000000000021
 50
90.0
 51
218.55593997770609
  0
ARC
  5
1D43
  8
0
 10
173.29866408680661
 20
157.51677814233011
 30
0.0
 40
12.699999999999999
 50
321.44406002229528
 51
90.0
  0
LINE
  5
1D44
  8
0
 10
86.734764086806535
 20
132.16367482020451
 30
0.0
 11
86.734764086806535
 21
128.56273183561939
 31
0.0
  0
LINE
  5
1D45
  8
0
 10
61.182414086806602
 20
125.3505312706654
 30
0.0
 11
61.182414086806602
 21
132.16367482020451
 31
0.0
  0
LINE
  5
1D46
  8
0
 10
208.78241408680651
 20
132.16367482020451
 30
0.0
 11
208.78241408680651
 21
125.3505312706654
 31
0.0
  0
LINE
  5
1D47
  8
0
 10
183.23006408680661
 20
128.56273183561939
 30
0.0
 11
183.23006408680661
 21
149.60114209460809
 31
0.0
  0
LINE
  5
1D48
  8
0
 10
183.23006408680661
 20
96.256094276390044
 30
0.0
 11
183.23006408680661
 21
128.56273183561939
 31
0.0
  0
LINE
  5
1D49
  8
0
 10
86.734764086806535
 20
128.56273183561939
 30
0.0
 11
86.734764086806535
 21
96.256094276390044
 31
0.0
  0
LINE
  5
1D4A
  8
0
 10
208.5560899906846
 20
121.9364242649976
 30
0.0
 11
208.5560899906846
 21
107.94867814233019
 31
0.0
  0
LINE
  5
1D4B
  8
0
 10
61.408738182928801
 20
107.94867814233019
 30
0.0
 11
61.408738182928801
 21
121.9364242649976
 31
0.0
  0
ARC
  5
1D4C
  8
0
 10
123.3746140868065
 20
88.301978142330199
 30
0.0
 40
1.5748000000000291
 50
0.0
 51
90.0
  0
ARC
  5
1D4D
  8
0
 10
146.5902140868065
 20
88.301978142330199
 30
0.0
 40
1.5748000000000291
 50
90.0
 51
180.0
  0
ARC
  5
1D4E
  8
0
 10
183.45866408680649
 20
102.6019781423301
 30
0.0
 40
6.350000000000005
 50
267.93690614551338
 51
270.0000000000008
  0
ARC
  5
1D4F
  8
0
 10
86.722414086806566
 20
102.6019781423301
 30
0.0
 40
6.3500000000000236
 50
270.0000000000008
 51
272.34662491626489
  0
ARC
  5
1D50
  8
0
 10
194.55841408680681
 20
110.47597814233021
 30
0.0
 40
14.22399999999999
 50
270.0000000000008
 51
349.76542774104092
  0
ARC
  5
1D51
  8
0
 10
75.406414086806762
 20
110.47597814233021
 30
0.0
 40
14.22400000000003
 50
190.23457225896061
 51
270.0000000000008
  0
ARC
  5
3A0E
  8
0
 10
192.93241408680649
 20
497.5396687138599
 30
0.0
 40
15.85
 50
270.00002829816918
 51
89.999971701830546
  0
ARC
  5
3A0F
  8
0
 10
77.032414086806824
 20
497.53966871385973
 30
0.0
 40
15.85
 50
89.999971701830546
 51
270.00002829816918
  0
LINE
  5
3A12
  8
0
 10
77.032421915062045
 20
513.38966871385776
 30
0.0
 11
192.9324140868062
 21
513.38966871385992
 31
0.0
  0
LINE
  5
3A13
  8
0
 10
192.93241408680649
 20
481.68966871385987
 30
0.0
 11
77.032421915061974
 21
481.68966871386158
 31
0.0
  0
ARC
  5
3A16
  8
0
 10
404.49047259946292
 20
319.32677814233
 30
0.0
 40
15.85
 50
0.0
 51
180.0
  0
LINE
  5
3A17
  8
0
 10
388.6404725994629
 20
319.32677814233
 30
0.0
 11
388.6404725994629
 21
126.4958112450927
 31
0.0
  0
LINE
  5
3A18
  8
0
 10
420.34047259946288
 20
319.32677814233
 30
0.0
 11
420.34047259946288
 21
126.49581124509071
 31
0.0
  0
POLYLINE
  5
3A19
  8
0
 66
     1
 10
0.0
 20
0.0
 30
0.0
  0
VERTEX
  5
3A1A
  8
0
 10
372.74047259946292
 20
153.6606808149358
 30
0.0
 42
-0.0022699246209546
  0
VERTEX
  5
3A1B
  8
0
 10
374.34801686594437
 20
153.90325221489999
 30
0.0
 42
-0.005896134003027
  0
VERTEX
  5
3A1C
  8
0
 10
374.96835864576087
 20
153.9865215416128
 30
0.0
 42
-0.0003612034276927
  0
VERTEX
  5
3A1D
  8
0
 10
378.5448092345905
 20
154.42110337062061
 30
0.0
 42
-0.0036940151599136
  0
VERTEX
  5
3A1E
  8
0
 10
378.89485498173281
 20
154.46075998816849
 30
0.0
 42
-0.0050276547916941
  0
VERTEX
  5
3A1F
  8
0
 10
380.63421613768151
 20
154.62713992696081
 30
0.0
 42
-0.0047430521502012
  0
VERTEX
  5
3A20
  8
0
 10
382.48103511392219
 20
154.767442774008
 30
0.0
 42
-0.0046159878594465
  0
VERTEX
  5
3A21
  8
0
 10
382.79125134870992
 20
154.7851773932025
 30
0.0
 42
-0.0004321750650288
  0
VERTEX
  5
3A22
  8
0
 10
386.10629134672081
 20
154.9411328338785
 30
0.0
 42
-0.0079853714414501
  0
VERTEX
  5
3A23
  8
0
 10
386.86168926074612
 20
154.96393418908289
 30
0.0
 42
-0.0034898396426769
  0
VERTEX
  5
3A24
  8
0
 10
388.6404725994629
 20
154.97678673700759
 30
0.0
  0
SEQEND
  5
3A25
  8
0
  0
POLYLINE
  5
3A26
  8
0
 66
     1
 10
0.0
 20
0.0
 30
0.0
  0
VERTEX
  5
3A27
  8
0
 10
372.74047259946292
 20
143.5928754697245
 30
0.0
 42
0.0008154835335832
  0
VERTEX
  5
3A28
  8
0
 10
373.33829147819779
 20
143.50132953855149
 30
0.0
 42
0.0017833032547074
  0
VERTEX
  5
3A29
  8
0
 10
373.61188157647871
 20
143.46088801014
 30
0.0
 42
0.0000173258440887
  0
VERTEX
  5
3A2A
  8
0
 10
374.63864962480147
 20
143.31288971180851
 30
0.0
 42
0.0006576159937861
  0
VERTEX
  5
3A2B
  8
0
 10
374.6657065644838
 20
143.3090270010691
 30
0.0
 42
0.0013530220057262
  0
VERTEX
  5
3A2C
  8
0
 10
374.91639487937209
 20
143.2742662101891
 30
0.0
 42
0.0004516955371658
  0
VERTEX
  5
3A2D
  8
0
 10
375.66768369320721
 20
143.1728539516798
 30
0.0
 42
0.0034492491334656
  0
VERTEX
  5
3A2E
  8
0
 10
376.81115460867289
 20
143.0275776144781
 30
0.0
 42
0.0025034901070755
  0
VERTEX
  5
3A2F
  8
0
 10
378.38886402668533
 20
142.8461904861995
 30
0.0
 42
0.0031614916959966
  0
VERTEX
  5
3A30
  8
0
 10
379.40704203094361
 20
142.74080559160299
 30
0.0
 42
0.0025867027924341
  0
VERTEX
  5
3A31
  8
0
 10
380.65286282929452
 20
142.62631815861531
 30
0.0
 42
0.0033491576681431
  0
VERTEX
  5
3A32
  8
0
 10
381.81358732454828
 20
142.53353247070109
 30
0.0
 42
0.0029054996601262
  0
VERTEX
  5
3A33
  8
0
 10
383.15277921991111
 20
142.44332390409451
 30
0.0
 42
0.0037506801820439
  0
VERTEX
  5
3A34
  8
0
 10
383.26473668689141
 20
142.4372783207973
 30
0.0
 42
0.0001718576986722
  0
VERTEX
  5
3A35
  8
0
 10
385.70905964700228
 20
142.32451147703449
 30
0.0
 42
0.0073340824119542
  0
VERTEX
  5
3A36
  8
0
 10
386.73313821978081
 20
142.29266273721049
 30
0.0
 42
0.0040447359348247
  0
VERTEX
  5
3A37
  8
0
 10
388.6404725994629
 20
142.27676941367531
 30
0.0
  0
SEQEND
  5
3A38
  8
0
  0
POLYLINE
  5
3A39
  8
0
 66
     1
 10
0.0
 20
0.0
 30
0.0
  0
VERTEX
  5
3A3A
  8
0
 10
436.24047259946292
 20
153.66068081493609
 30
0.0
 42
0.0022699246209546
  0
VERTEX
  5
3A3B
  8
0
 10
434.63292833298141
 20
153.90325221490019
 30
0.0
 42
0.005896134003027
  0
VERTEX
  5
3A3C
  8
0
 10
434.01258655316468
 20
153.986521541613
 30
0.0
 42
0.0003612034276927
  0
VERTEX
  5
3A3D
  8
0
 10
430.43613596433528
 20
154.42110337062081
 30
0.0
 42
0.0036940151599136
  0
VERTEX
  5
3A3E
  8
0
 10
430.0860902171928
 20
154.46075998816869
 30
0.0
 42
0.0050276547916941
  0
VERTEX
  5
3A3F
  8
0
 10
428.34672906124428
 20
154.62713992696081
 30
0.0
 42
0.0047430521502012
  0
VERTEX
  5
3A40
  8
0
 10
426.49991008500359
 20
154.767442774008
 30
0.0
 42
0.0046159878594465
  0
VERTEX
  5
3A41
  8
0
 10
426.18969385021592
 20
154.7851773932025
 30
0.0
 42
0.0004321750650288
  0
VERTEX
  5
3A42
  8
0
 10
422.87465385220497
 20
154.9411328338785
 30
0.0
 42
0.0079853714414501
  0
VERTEX
  5
3A43
  8
0
 10
422.11925593817978
 20
154.96393418908289
 30
0.0
 42
0.0034898396426769
  0
VERTEX
  5
3A44
  8
0
 10
420.34047259946288
 20
154.9767867370077
 30
0.0
  0
SEQEND
  5
3A45
  8
0
  0
POLYLINE
  5
3A46
  8
0
 66
     1
 10
0.0
 20
0.0
 30
0.0
  0
VERTEX
  5
3A47
  8
0
 10
436.24047259946292
 20
143.5928754697247
 30
0.0
 42
-0.0008154835335832
  0
VERTEX
  5
3A48
  8
0
 10
435.64265372072799
 20
143.50132953855169
 30
0.0
 42
-0.0017833032547074
  0
VERTEX
  5
3A49
  8
0
 10
435.36906362244707
 20
143.4608880101402
 30
0.0
 42
-0.0000173258440887
  0
VERTEX
  5
3A4A
  8
0
 10
434.34229557412431
 20
143.31288971180879
 30
0.0
 42
-0.0006576159937861
  0
VERTEX
  5
3A4B
  8
0
 10
434.31523863444198
 20
143.3090270010693
 30
0.0
 42
-0.0013530220057262
  0
VERTEX
  5
3A4C
  8
0
 10
434.06455031955369
 20
143.2742662101893
 30
0.0
 42
-0.0004516955371658
  0
VERTEX
  5
3A4D
  8
0
 10
433.31326150571857
 20
143.17285395168
 30
0.0
 42
-0.0034492491334656
  0
VERTEX
  5
3A4E
  8
0
 10
432.16979059025289
 20
143.0275776144783
 30
0.0
 42
-0.0025034901070755
  0
VERTEX
  5
3A4F
  8
0
 10
430.59208117224063
 20
142.8461904861997
 30
0.0
 42
-0.0031614916959966
  0
VERTEX
  5
3A50
  8
0
 10
429.57390316798222
 20
142.74080559160319
 30
0.0
 42
-0.0025867027924341
  0
VERTEX
  5
3A51
  8
0
 10
428.32808236963137
 20
142.62631815861531
 30
0.0
 42
-0.0033491576681431
  0
VERTEX
  5
3A52
  8
0
 10
427.1673578743775
 20
142.53353247070109
 30
0.0
 42
-0.0029054996601262
  0
VERTEX
  5
3A53
  8
0
 10
425.82816597901478
 20
142.44332390409451
 30
0.0
 42
-0.0037506801820439
  0
VERTEX
  5
3A54
  8
0
 10
425.71620851203443
 20
142.4372783207973
 30
0.0
 42
-0.0001718576986722
  0
VERTEX
  5
3A55
  8
0
 10
423.27188555192362
 20
142.32451147703449
 30
0.0
 42
-0.0073340824119542
  0
VERTEX
  5
3A56
  8
0
 10
422.24780697914503
 20
142.29266273721049
 30
0.0
 42
-0.0040447359348247
  0
VERTEX
  5
3A57
  8
0
 10
420.34047259946288
 20
142.27676941367531
 30
0.0
  0
SEQEND
  5
3A58
  8
0
  0
TEXT
  5
3AFD
  8
0
 62
     3
 10
0.0
 20
0.0
 30
0.0
 40
10.0
  1
HRE24L
  7
STANDARD1
  0
ENDSEC
  0
EOF
