  0
SECTION
  2
HEADER
  9
$ACADVER
  1
AC1009
  9
$INSBASE
 10
82.638099999999994
 20
103.82319099999999
 30
0.0
  9
$EXTMIN
 10
0.0
 20
-2.960436562073669
 30
0.0
  9
$EXTMAX
 10
532.47106048772196
 20
744.08670266415675
 30
0.0
  9
$LIMMIN
 10
0.0
 20
0.0
  9
$LIMMAX
 10
375.0
 20
270.0
  9
$ORTHOMODE
 70
     1
  9
$REGENMODE
 70
     1
  9
$FILLMODE
 70
     1
  9
$QTEXTMODE
 70
     0
  9
$MIRRTEXT
 70
     0
  9
$DRAGMODE
 70
     2
  9
$LTSCALE
 40
10.0
  9
$OSMODE
 70
    55
  9
$ATTMODE
 70
     1
  9
$TEXTSIZE
 40
0.06
  9
$TRACEWID
 40
0.05
  9
$TEXTSTYLE
  7
STANDARD
  9
$CLAYER
  8
0
  9
$CELTYPE
  6
BYLAYER
  9
$CECOLOR
 62
   256
  9
$DIMSCALE
 40
4.0
  9
$DIMASZ
 40
3.0
  9
$DIMEXO
 40
2.0
  9
$DIMDLI
 40
10.0
  9
$DIMRND
 40
0.0
  9
$DIMDLE
 40
0.0
  9
$DIMEXE
 40
2.0
  9
$DIMTP
 40
0.0
  9
$DIMTM
 40
0.0
  9
$DIMTXT
 40
3.0
  9
$DIMCEN
 40
0.0
  9
$DIMTSZ
 40
0.0
  9
$DIMTOL
 70
     0
  9
$DIMLIM
 70
     0
  9
$DIMTIH
 70
     0
  9
$DIMTOH
 70
     0
  9
$DIMSE1
 70
     0
  9
$DIMSE2
 70
     0
  9
$DIMTAD
 70
     1
  9
$DIMZIN
 70
     0
  9
$DIMBLK
  1

  9
$DIMASO
 70
     0
  9
$DIMSHO
 70
     0
  9
$DIMPOST
  1

  9
$DIMAPOST
  1

  9
$DIMALT
 70
     0
  9
$DIMALTD
 70
     2
  9
$DIMALTF
 40
25.399999999999999
  9
$DIMLFAC
 40
1.0
  9
$DIMTOFL
 70
     1
  9
$DIMTVP
 40
1.6000000000000001
  9
$DIMTIX
 70
     1
  9
$DIMSOXD
 70
     0
  9
$DIMSAH
 70
     0
  9
$DIMBLK1
  1

  9
$DIMBLK2
  1

  9
$DIMSTYLE
  2
STANDARD
  9
$DIMCLRD
 70
     0
  9
$DIMCLRE
 70
     0
  9
$DIMCLRT
 70
     0
  9
$DIMTFAC
 40
1.0
  9
$DIMGAP
 40
0.09
  9
$LUNITS
 70
     2
  9
$LUPREC
 70
     4
  9
$SKETCHINC
 40
0.1
  9
$FILLETRAD
 40
0.0
  9
$AUNITS
 70
     0
  9
$AUPREC
 70
     4
  9
$MENU
  1
E:\r13\win\SUPPORT\ACAD
  9
$ELEVATION
 40
0.0
  9
$PELEVATION
 40
0.0
  9
$THICKNESS
 40
0.0
  9
$LIMCHECK
 70
     0
  9
$BLIPMODE
 70
     0
  9
$CHAMFERA
 40
0.0
  9
$CHAMFERB
 40
0.0
  9
$SKPOLY
 70
     0
  9
$TDCREATE
 40
2449840.6096296301
  9
$TDUPDATE
 40
2456598.6916125701
  9
$TDINDWG
 40
0.1736396759
  9
$TDUSRTIMER
 40
0.1736396759
  9
$USRTIMER
 70
     1
  9
$ANGBASE
 50
0.0
  9
$ANGDIR
 70
     0
  9
$PDMODE
 70
     1
  9
$PDSIZE
 40
0.0
  9
$PLINEWID
 40
0.0
  9
$COORDS
 70
     1
  9
$SPLFRAME
 70
     0
  9
$SPLINETYPE
 70
     6
  9
$SPLINESEGS
 70
     8
  9
$ATTDIA
 70
     0
  9
$ATTREQ
 70
     1
  9
$HANDLING
 70
     1
  9
$HANDSEED
  5
646A
  9
$SURFTAB1
 70
     6
  9
$SURFTAB2
 70
     6
  9
$SURFTYPE
 70
     6
  9
$SURFU
 70
     6
  9
$SURFV
 70
     6
  9
$UCSNAME
  2

  9
$UCSORG
 10
0.0
 20
0.0
 30
0.0
  9
$UCSXDIR
 10
1.0
 20
0.0
 30
0.0
  9
$UCSYDIR
 10
0.0
 20
1.0
 30
0.0
  9
$PUCSNAME
  2

  9
$PUCSORG
 10
0.0
 20
0.0
 30
0.0
  9
$PUCSXDIR
 10
1.0
 20
0.0
 30
0.0
  9
$PUCSYDIR
 10
0.0
 20
1.0
 30
0.0
  9
$USERI1
 70
     3
  9
$USERI2
 70
     1
  9
$USERI3
 70
     0
  9
$USERI4
 70
     0
  9
$USERI5
 70
     0
  9
$USERR1
 40
1.0
  9
$USERR2
 40
3.0
  9
$USERR3
 40
3.0
  9
$USERR4
 40
3.0
  9
$USERR5
 40
10.0
  9
$WORLDVIEW
 70
     1
  9
$SHADEDGE
 70
     3
  9
$SHADEDIF
 70
    70
  9
$TILEMODE
 70
     1
  9
$MAXACTVP
 70
    16
  9
$PLIMCHECK
 70
     0
  9
$PEXTMIN
 10
1.0000000000000000E+020
 20
1.0000000000000000E+020
 30
1.0000000000000000E+020
  9
$PEXTMAX
 10
-1.0000000000000000E+020
 20
-1.0000000000000000E+020
 30
-1.0000000000000000E+020
  9
$PLIMMIN
 10
0.0
 20
0.0
  9
$PLIMMAX
 10
12.0
 20
9.0
  9
$UNITMODE
 70
     0
  9
$VISRETAIN
 70
     0
  9
$PLINEGEN
 70
     0
  9
$PSLTSCALE
 70
     0
  0
ENDSEC
  0
SECTION
  2
TABLES
  0
TABLE
  2
VPORT
 70
     1
  0
VPORT
  2
*ACTIVE
 70
     0
 10
0.0
 20
0.0
 11
1.0
 21
1.0
 12
266.23553148361663
 22
483.88306457510947
 13
0.0
 23
0.0
 14
5.0
 24
5.0
 15
10.0
 25
10.0
 16
0.0
 26
0.0
 36
1.0
 17
0.0
 27
0.0
 37
0.0
 40
982.30272322018959
 41
1.7807262569832401
 42
50.0
 43
0.0
 44
0.0
 50
0.0
 51
0.0
 71
     0
 72
   100
 73
     1
 74
     0
 75
     0
 76
     0
 77
     0
 78
     2
  0
ENDTAB
  0
TABLE
  2
LTYPE
 70
     3
  0
LTYPE
  2
CONTINUOUS
 70
     0
  3
Solid Line
 72
    65
 73
     0
 40
0.0
  0
LTYPE
  2
CENTER
 70
     0
  3
____ _ ____ _ ____ _ ____ _ ____ _ ____ _ ____
 72
    65
 73
     4
 40
2.0
 49
1.25
 49
-0.25
 49
0.25
 49
-0.25
  0
LTYPE
  2
PHANTOM2
 70
     0
  3
___ _ _ ___ _ _ ___ _ _ ___ _ _
 72
    65
 73
     6
 40
1.25
 49
0.625
 49
-0.125
 49
0.125
 49
-0.125
 49
0.125
 49
-0.125
  0
ENDTAB
  0
TABLE
  2
LAYER
 70
     3
  0
LAYER
  2
0
 70
     0
 62
     7
  6
CONTINUOUS
  0
LAYER
  2
1
 70
     0
 62
     1
  6
CENTER
  0
LAYER
  2
3
 70
     0
 62
     3
  6
CONTINUOUS
  0
ENDTAB
  0
TABLE
  2
STYLE
 70
     2
  0
STYLE
  2
STANDARD
 70
     0
 40
0.0
 41
1.0
 50
0.0
 71
     0
 42
0.06
  3
TXT
  4
BIGFONT
  0
STYLE
  2
STANDARD1
 70
     0
 40
0.0
 41
1.0
 50
0.0
 71
     0
 42
3.0
  3
txt
  4

  0
ENDTAB
  0
TABLE
  2
VIEW
 70
     0
  0
ENDTAB
  0
TABLE
  2
UCS
 70
     0
  0
ENDTAB
  0
TABLE
  2
APPID
 70
     4
  0
APPID
  2
ACAD
 70
     0
  0
APPID
  2
DCO15
 70
     0
  0
APPID
  2
ACAD_MLEADERVER
 70
     0
  0
APPID
  2
ACAD_NAV_VCDISPLAY
 70
     0
  0
ENDTAB
  0
TABLE
  2
DIMSTYLE
 70
     1
  0
DIMSTYLE
  2
STANDARD
 70
     0
  3

  4

  5

  6

  7

 40
1.0
 41
0.18
 42
0.0625
 43
0.38
 44
0.18
 45
0.0
 46
0.0
 47
0.0
 48
0.0
140
0.18
141
0.09
142
0.0
143
25.399999999999999
144
1.0
145
0.0
146
1.0
147
0.09
 71
     0
 72
     0
 73
     1
 74
     1
 75
     0
 76
     0
 77
     0
 78
     0
170
     0
171
     2
172
     0
173
     0
174
     0
175
     0
176
     0
177
     0
178
     0
  0
ENDTAB
  0
ENDSEC
  0
SECTION
  2
BLOCKS
  0
BLOCK
  8
0
  2
$MODEL_SPACE
 70
     0
 10
0.0
 20
0.0
 30
0.0
  3
$MODEL_SPACE
  1

  0
ENDBLK
  5
1AB
  8
0
  0
BLOCK
 67
     1
  8
0
  2
$PAPER_SPACE
 70
     0
 10
0.0
 20
0.0
 30
0.0
  3
$PAPER_SPACE
  1

  0
ENDBLK
  5
1A9
 67
     1
  8
0
  0
ENDSEC
  0
SECTION
  2
ENTITIES
  0
POLYLINE
  5
2683
  8
0
 66
     1
 10
0.0
 20
0.0
 30
0.0
  0
VERTEX
  5
2684
  8
0
 10
506.59606048772088
 20
184.08437235728931
 30
0.0
 42
0.000549913227105
  0
VERTEX
  5
2685
  8
0
 10
505.35295579651978
 20
184.26325364399
 30
0.0
 42
0.0015827550910141
  0
VERTEX
  5
2686
  8
0
 10
504.92078876021532
 20
184.3235616028461
 30
0.0
 42
0.000052423101305
  0
VERTEX
  5
2687
  8
0
 10
501.7839058974609
 20
184.75085294596599
 30
0.0
 42
0.0009546416289315
  0
VERTEX
  5
2688
  8
0
 10
501.61160033763713
 20
184.77397020573039
 30
0.0
 42
0.0032413413360266
  0
VERTEX
  5
2689
  8
0
 10
500.57800048452958
 20
184.9038221182345
 30
0.0
 42
0.0020794903276519
  0
VERTEX
  5
268A
  8
0
 10
498.96485597047081
 20
185.08906784433131
 30
0.0
 42
0.0048776633079462
  0
VERTEX
  5
268B
  8
0
 10
497.26416384681249
 20
185.26042795276541
 30
0.0
 42
0.0050593154330287
  0
VERTEX
  5
268C
  8
0
 10
495.62157194225159
 20
185.39301956255611
 30
0.0
 42
0.0027555686406441
  0
VERTEX
  5
268D
  8
0
 10
494.23357041820827
 20
185.48325077194249
 30
0.0
 42
0.0036084621964609
  0
VERTEX
  5
268E
  8
0
 10
493.1728390532125
 20
185.53865921732239
 30
0.0
 42
0.0015771609442857
  0
VERTEX
  5
268F
  8
0
 10
493.05761657317311
 20
185.543480336079
 30
0.0
 42
0.0000623427672622
  0
VERTEX
  5
2690
  8
0
 10
490.1423160889193
 20
185.6558870857254
 30
0.0
 42
0.002700094299106
  0
VERTEX
  5
2691
  8
0
 10
489.25411087473589
 20
185.68522056476621
 30
0.0
 42
0.001198931004731
  0
VERTEX
  5
2692
  8
0
 10
487.57106048772198
 20
185.72766856857399
 30
0.0
  0
SEQEND
  5
2693
  8
0
  0
POLYLINE
  5
2694
  8
0
 66
     1
 10
0.0
 20
0.0
 30
0.0
  0
VERTEX
  5
2695
  8
0
 10
506.59606048772088
 20
168.4562254085142
 30
0.0
 42
-0.000549913227105
  0
VERTEX
  5
2696
  8
0
 10
505.35295579651978
 20
168.27734412181351
 30
0.0
 42
-0.0015827550910141
  0
VERTEX
  5
2697
  8
0
 10
504.92078876021532
 20
168.21703616295741
 30
0.0
 42
-0.000052423101305
  0
VERTEX
  5
2698
  8
0
 10
501.7839058974609
 20
167.78974481983749
 30
0.0
 42
-0.0009546416289315
  0
VERTEX
  5
2699
  8
0
 10
501.61160033763713
 20
167.7666275600732
 30
0.0
 42
-0.0032413413360266
  0
VERTEX
  5
269A
  8
0
 10
500.57800048452958
 20
167.63677564756901
 30
0.0
 42
-0.0020794903276519
  0
VERTEX
  5
269B
  8
0
 10
498.96485597047081
 20
167.4515299214722
 30
0.0
 42
-0.0048776633079462
  0
VERTEX
  5
269C
  8
0
 10
497.26416384681249
 20
167.2801698130381
 30
0.0
 42
-0.0050593154330287
  0
VERTEX
  5
269D
  8
0
 10
495.62157194225159
 20
167.14757820324741
 30
0.0
 42
-0.0027555686406441
  0
VERTEX
  5
269E
  8
0
 10
494.23357041820827
 20
167.05734699386099
 30
0.0
 42
-0.0036084621964609
  0
VERTEX
  5
269F
  8
0
 10
493.1728390532125
 20
167.00193854848109
 30
0.0
 42
-0.0015771609442857
  0
VERTEX
  5
26A0
  8
0
 10
493.05761657317311
 20
166.99711742972451
 30
0.0
 42
-0.0000623427672622
  0
VERTEX
  5
26A1
  8
0
 10
490.1423160889193
 20
166.88471068007809
 30
0.0
 42
-0.002700094299106
  0
VERTEX
  5
26A2
  8
0
 10
489.25411087473589
 20
166.8553772010373
 30
0.0
 42
-0.001198931004731
  0
VERTEX
  5
26A3
  8
0
 10
487.57106048772198
 20
166.81292919722949
 30
0.0
  0
SEQEND
  5
26A4
  8
0
  0
POLYLINE
  5
26A5
  8
0
 66
     1
 10
0.0
 20
0.0
 30
0.0
  0
VERTEX
  5
26A6
  8
0
 10
424.046060487722
 20
168.4562254085142
 30
0.0
 42
0.000549913227105
  0
VERTEX
  5
26A7
  8
0
 10
425.28916517892321
 20
168.27734412181351
 30
0.0
 42
0.0015827550910141
  0
VERTEX
  5
26A8
  8
0
 10
425.72133221522739
 20
168.21703616295741
 30
0.0
 42
0.000052423101305
  0
VERTEX
  5
26A9
  8
0
 10
428.85821507798209
 20
167.78974481983749
 30
0.0
 42
0.0009546416289315
  0
VERTEX
  5
26AA
  8
0
 10
429.03052063780609
 20
167.7666275600732
 30
0.0
 42
0.0032413413360266
  0
VERTEX
  5
26AB
  8
0
 10
430.0641204909133
 20
167.63677564756901
 30
0.0
 42
0.0020794903276519
  0
VERTEX
  5
26AC
  8
0
 10
431.67726500497241
 20
167.4515299214722
 30
0.0
 42
0.0048776633079462
  0
VERTEX
  5
26AD
  8
0
 10
433.37795712863038
 20
167.2801698130381
 30
0.0
 42
0.0050593154330287
  0
VERTEX
  5
26AE
  8
0
 10
435.0205490331914
 20
167.14757820324741
 30
0.0
 42
0.0027555686406441
  0
VERTEX
  5
26AF
  8
0
 10
436.40855055723472
 20
167.05734699386099
 30
0.0
 42
0.0036084621964609
  0
VERTEX
  5
26B0
  8
0
 10
437.46928192223038
 20
167.00193854848109
 30
0.0
 42
0.0015771609442857
  0
VERTEX
  5
26B1
  8
0
 10
437.58450440226989
 20
166.99711742972451
 30
0.0
 42
0.0000623427672622
  0
VERTEX
  5
26B2
  8
0
 10
440.49980488652358
 20
166.88471068007809
 30
0.0
 42
0.002700094299106
  0
VERTEX
  5
26B3
  8
0
 10
441.38801010070699
 20
166.8553772010373
 30
0.0
 42
0.001198931004731
  0
VERTEX
  5
26B4
  8
0
 10
443.07106048772118
 20
166.81292919722949
 30
0.0
  0
SEQEND
  5
26B5
  8
0
  0
POLYLINE
  5
26B6
  8
0
 66
     1
 10
0.0
 20
0.0
 30
0.0
  0
VERTEX
  5
26B7
  8
0
 10
424.046060487722
 20
184.08437235728931
 30
0.0
 42
-0.000549913227105
  0
VERTEX
  5
26B8
  8
0
 10
425.28916517892321
 20
184.26325364399
 30
0.0
 42
-0.0015827550910141
  0
VERTEX
  5
26B9
  8
0
 10
425.72133221522739
 20
184.3235616028461
 30
0.0
 42
-0.000052423101305
  0
VERTEX
  5
26BA
  8
0
 10
428.85821507798209
 20
184.75085294596599
 30
0.0
 42
-0.0009546416289315
  0
VERTEX
  5
26BB
  8
0
 10
429.03052063780609
 20
184.77397020573039
 30
0.0
 42
-0.0032413413360266
  0
VERTEX
  5
26BC
  8
0
 10
430.0641204909133
 20
184.9038221182345
 30
0.0
 42
-0.0020794903276519
  0
VERTEX
  5
26BD
  8
0
 10
431.67726500497241
 20
185.08906784433131
 30
0.0
 42
-0.0048776633079462
  0
VERTEX
  5
26BE
  8
0
 10
433.37795712863038
 20
185.26042795276541
 30
0.0
 42
-0.0050593154330287
  0
VERTEX
  5
26BF
  8
0
 10
435.0205490331914
 20
185.39301956255611
 30
0.0
 42
-0.0027555686406441
  0
VERTEX
  5
26C0
  8
0
 10
436.40855055723472
 20
185.48325077194249
 30
0.0
 42
-0.0036084621964609
  0
VERTEX
  5
26C1
  8
0
 10
437.46928192223038
 20
185.53865921732239
 30
0.0
 42
-0.0015771609442857
  0
VERTEX
  5
26C2
  8
0
 10
437.58450440226989
 20
185.543480336079
 30
0.0
 42
-0.0000623427672622
  0
VERTEX
  5
26C3
  8
0
 10
440.49980488652358
 20
185.6558870857254
 30
0.0
 42
-0.002700094299106
  0
VERTEX
  5
26C4
  8
0
 10
441.38801010070699
 20
185.68522056476621
 30
0.0
 42
-0.001198931004731
  0
VERTEX
  5
26C5
  8
0
 10
443.07106048772118
 20
185.72766856857399
 30
0.0
  0
SEQEND
  5
26C6
  8
0
  0
LINE
  5
26F7
  8
1
 10
465.32106048772192
 20
24.20779888290167
 30
0.0
 11
465.32106048772192
 21
458.50779888290151
 31
0.0
  0
LINE
  5
26F8
  8
1
 10
398.17106048772172
 20
133.4077988829016
 30
0.0
 11
532.47106048772196
 21
133.4077988829016
 31
0.0
  0
LINE
  5
26F9
  8
1
 10
33.23480164061948
 20
133.40779888290169
 30
0.0
 11
248.83983404374339
 21
133.40779888290189
 31
0.0
  0
LINE
  5
26FA
  8
1
 10
141.03731784218101
 20
458.50779888290168
 30
0.0
 11
141.03731784218229
 21
24.20779888290167
 31
0.0
  0
LINE
  5
26FB
  8
1
 10
141.03731784218141
 20
744.08670266415675
 30
0.0
 11
141.03731784218101
 21
609.78670266415656
 31
0.0
  0
LINE
  5
26FC
  8
1
 10
32.987317842181263
 20
676.93670266415586
 30
0.0
 11
249.08731784218159
 21
676.93670266415586
 31
0.0
  0
LINE
  5
26FD
  8
0
 10
497.07106048772192
 20
100.0702988829016
 30
0.0
 11
497.07106048772192
 21
97.161798882901635
 31
0.0
  0
LINE
  5
26FE
  8
0
 10
497.07106048772192
 20
97.161798882901635
 30
0.0
 11
496.81706048772179
 21
96.907798882901602
 31
0.0
  0
LINE
  5
26FF
  8
0
 10
433.57106048772209
 20
97.161798882901635
 30
0.0
 11
433.82506048772211
 21
96.90779888290173
 31
0.0
  0
LINE
  5
2700
  8
0
 10
433.57106048772209
 20
100.0702988829016
 30
0.0
 11
433.57106048772209
 21
97.161798882901635
 31
0.0
  0
CIRCLE
  5
2701
  8
0
 10
465.32106048772152
 20
133.4077988829016
 30
0.0
 40
11.69670000000019
  0
POLYLINE
  5
2812
  8
3
 66
     1
 10
0.0
 20
0.0
 30
0.0
 70
     2
  0
VERTEX
  5
2813
  8
3
 10
186.01935909907019
 20
403.3213063876297
 30
0.0
 42
-0.0335805559752654
  0
VERTEX
  5
2814
  8
3
 10
186.43434579819399
 20
402.73987660775799
 30
0.0
 42
-0.0506303074252687
 70
     1
  0
VERTEX
  5
2815
  8
3
 10
186.64139295335909
 20
402.31297391331498
 30
0.0
 42
-0.0196039678402152
  0
VERTEX
  5
2816
  8
3
 10
186.9183608355101
 20
401.45188460193413
 30
0.0
 42
-0.0455987134562751
 70
     1
  0
VERTEX
  5
2817
  8
3
 10
186.98842973746281
 20
401.06869777539072
 30
0.0
 42
-0.0458496781547667
  0
VERTEX
  5
2818
  8
3
 10
186.98742550264021
 20
400.54272924976021
 30
0.0
 42
-0.0412730687489448
 70
     1
  0
VERTEX
  5
2819
  8
3
 10
186.88513568208739
 20
399.96769661743838
 30
0.0
 42
-0.041640016167997
  0
VERTEX
  5
281A
  8
3
 10
186.65682909073439
 20
399.32590879009882
 30
0.0
 42
-0.0449216136502647
 70
     1
  0
VERTEX
  5
281B
  8
3
 10
186.3458575770787
 20
398.77616300160412
 30
0.0
 42
-0.0325757749108638
  0
VERTEX
  5
281C
  8
3
 10
185.97703158791319
 20
398.31033719516307
 30
0.0
 42
-0.0369021218240415
 70
     1
  0
VERTEX
  5
281D
  8
3
 10
185.59753425244341
 20
397.94805402862062
 30
0.0
 42
-0.0333798538633478
  0
VERTEX
  5
281E
  8
3
 10
185.1288654663631
 20
397.6122699306776
 30
0.0
 42
-0.0355041550191684
 70
     1
  0
VERTEX
  5
281F
  8
3
 10
184.649001885421
 20
397.36001724901939
 30
0.0
 42
-0.0344373332198111
  0
VERTEX
  5
2820
  8
3
 10
184.12150866924409
 20
397.17095637875542
 30
0.0
 42
-0.0336256795311143
 70
     1
  0
VERTEX
  5
2821
  8
3
 10
183.56004163105351
 20
397.05241209140502
 30
0.0
 42
-0.0335430573665539
  0
VERTEX
  5
2822
  8
3
 10
182.90727656864959
 20
397.00415680835488
 30
0.0
 42
-0.0330708812857248
 70
     1
  0
VERTEX
  5
2823
  8
3
 10
182.24457614575559
 20
397.04355988274028
 30
0.0
 42
-0.0267281942265026
  0
VERTEX
  5
2824
  8
3
 10
181.5207018107312
 20
397.17449768993743
 30
0.0
 42
-0.0305315774385288
 70
     1
  0
VERTEX
  5
2825
  8
3
 10
180.9041111469173
 20
397.3608069614437
 30
0.0
 42
-0.021108248977078
  0
VERTEX
  5
2826
  8
3
 10
180.24665805865149
 20
397.63621365076739
 30
0.0
 42
-0.0188825643583379
 70
     1
  0
VERTEX
  5
2827
  8
3
 10
179.53871724663981
 20
398.0017777371288
 30
0.0
 42
-0.0187032907384945
  0
VERTEX
  5
2828
  8
3
 10
178.97240644477279
 20
398.3504100533242
 30
0.0
 42
-0.0155406317986646
 70
     1
  0
VERTEX
  5
2829
  8
3
 10
178.3212252441094
 20
398.81559580290292
 30
0.0
 42
-0.0371649718437815
  0
VERTEX
  5
282A
  8
3
 10
177.71562211744461
 20
399.35286867633249
 30
0.0
 42
-0.0328093102733677
 70
     1
  0
VERTEX
  5
282B
  8
3
 10
177.121363419521
 20
400.050962985323
 30
0.0
 42
-0.0443259032056972
  0
VERTEX
  5
282C
  8
3
 10
176.7571241054406
 20
400.64367441291267
 30
0.0
 42
-0.0397009998697377
 70
     1
  0
VERTEX
  5
282D
  8
3
 10
176.4669115166507
 20
401.3638230309657
 30
0.0
 42
-0.04466618911294
  0
VERTEX
  5
282E
  8
3
 10
176.2735782705704
 20
402.25150033052648
 30
0.0
 42
-0.0550317108618721
 70
     1
  0
VERTEX
  5
282F
  8
3
 10
176.26234271105611
 20
402.98954389173491
 30
0.0
 42
-0.0225978975174803
  0
VERTEX
  5
2830
  8
3
 10
176.3228651231525
 20
403.4192726607393
 30
0.0
 42
-0.0144549540609922
 70
     1
  0
VERTEX
  5
2831
  8
3
 10
176.4669115166507
 20
404.08203398107912
 30
0.0
 42
-0.0363701170180048
  0
VERTEX
  5
2832
  8
3
 10
176.56676046146731
 20
404.38780606291988
 30
0.0
 42
-0.0220246514264791
 70
     1
  0
VERTEX
  5
2833
  8
3
 10
176.78915326974311
 20
404.86969130349519
 30
0.0
  0
SEQEND
  5
2834
  8
3
  0
POLYLINE
  5
2835
  8
3
 66
     1
 10
0.0
 20
0.0
 30
0.0
 70
     2
  0
VERTEX
  5
2836
  8
3
 10
186.01935909907019
 20
403.32130638762959
 30
0.0
 42
0.0076222478027355
  0
VERTEX
  5
2837
  8
3
 10
185.67431194146229
 20
403.71896694698762
 30
0.0
 42
0.0177911647797033
 70
     1
  0
VERTEX
  5
2838
  8
3
 10
185.5179793702973
 20
403.88164843703322
 30
0.0
 42
0.0010535644471389
  0
VERTEX
  5
2839
  8
3
 10
184.8076205244852
 20
404.56717652411987
 30
0.0
 42
0.0087019327600199
 70
     1
  0
VERTEX
  5
283A
  8
3
 10
184.7200062148504
 20
404.64848747226682
 30
0.0
 42
0.0013689110685582
  0
VERTEX
  5
283B
  8
3
 10
184.295986014562
 20
405.02639544549987
 30
0.0
 42
0.001946819298708
 70
     1
  0
VERTEX
  5
283C
  8
3
 10
183.99607894212841
 20
405.29013992575898
 30
0.0
 42
0.0026357711709918
  0
VERTEX
  5
283D
  8
3
 10
183.7145066840767
 20
405.53322037138531
 30
0.0
 42
-0.0021820154821625
 70
     1
  0
VERTEX
  5
283E
  8
3
 10
183.37411516462589
 20
405.82654059204901
 30
0.0
 42
-0.0077970511900161
  0
VERTEX
  5
283F
  8
3
 10
183.00423213366409
 20
406.1583645467212
 30
0.0
 42
-0.0063468606749456
 70
     1
  0
VERTEX
  5
2840
  8
3
 10
182.56155518441031
 20
406.57868704005159
 30
0.0
 42
-0.0135034282255353
  0
VERTEX
  5
2841
  8
3
 10
182.2909606540106
 20
406.85685572290407
 30
0.0
 42
-0.0125252980315023
 70
     1
  0
VERTEX
  5
2842
  8
3
 10
182.01524058095029
 20
407.17151182450692
 30
0.0
 42
-0.0131766767462846
  0
VERTEX
  5
2843
  8
3
 10
181.95166438326669
 20
407.25206622162239
 30
0.0
 42
-0.0044655294644415
 70
     1
  0
VERTEX
  5
2844
  8
3
 10
181.7725958232663
 20
407.49619454167191
 30
0.0
 42
-0.037230101311305
  0
VERTEX
  5
2845
  8
3
 10
181.7111512071906
 20
407.59652545242119
 30
0.0
 42
-0.0191733196362175
 70
     1
  0
VERTEX
  5
2846
  8
3
 10
181.6146190149357
 20
407.80332261359109
 30
0.0
  0
SEQEND
  5
2847
  8
3
  0
POLYLINE
  5
2848
  8
3
 66
     1
 10
0.0
 20
0.0
 30
0.0
 70
     2
  0
VERTEX
  5
2849
  8
3
 10
181.6146190149357
 20
407.80332261359132
 30
0.0
 42
-0.0396924618802513
  0
VERTEX
  5
284A
  8
3
 10
181.52675619619819
 20
408.09055355541329
 30
0.0
 42
-0.0599879963110726
 70
     1
  0
VERTEX
  5
284B
  8
3
 10
181.50733407125239
 20
408.28875178055478
 30
0.0
 42
-0.0142851141408675
  0
VERTEX
  5
284C
  8
3
 10
181.52311593499459
 20
408.59964699102369
 30
0.0
 42
-0.0364038710929681
 70
     1
  0
VERTEX
  5
284D
  8
3
 10
181.54164033372669
 20
408.7205271332914
 30
0.0
 42
-0.0335632671512694
  0
VERTEX
  5
284E
  8
3
 10
181.61067251280841
 20
408.95023109916423
 30
0.0
 42
-0.0327429885691199
 70
     1
  0
VERTEX
  5
284F
  8
3
 10
181.7119297120507
 20
409.1742586111871
 30
0.0
 42
-0.0281593675806919
  0
VERTEX
  5
2850
  8
3
 10
181.83666935402201
 20
409.37942747126681
 30
0.0
 42
-0.0314740651949869
 70
     1
  0
VERTEX
  5
2851
  8
3
 10
181.96934031302951
 20
409.54844407406068
 30
0.0
 42
-0.0326489368660667
  0
VERTEX
  5
2852
  8
3
 10
182.11367903234981
 20
409.69040489873271
 30
0.0
 42
-0.0280863273345589
 70
     1
  0
VERTEX
  5
2853
  8
3
 10
182.3001681752348
 20
409.83384755756651
 30
0.0
 42
-0.0376818324012827
  0
VERTEX
  5
2854
  8
3
 10
182.4905272712881
 20
409.94389754178991
 30
0.0
 42
-0.0271310461631447
 70
     1
  0
VERTEX
  5
2855
  8
3
 10
182.77225470182699
 20
410.0612199359519
 30
0.0
 42
-0.0446810311014871
  0
VERTEX
  5
2856
  8
3
 10
183.1500523107988
 20
410.15810855037262
 30
0.0
 42
-0.046292275146346
 70
     1
  0
VERTEX
  5
2857
  8
3
 10
183.5256541390527
 20
410.18415113068301
 30
0.0
 42
-0.0280236995990447
  0
VERTEX
  5
2858
  8
3
 10
183.91404457626589
 20
410.15327672063552
 30
0.0
 42
-0.0326212471284511
 70
     1
  0
VERTEX
  5
2859
  8
3
 10
184.24212994347999
 20
410.08657289838419
 30
0.0
 42
-0.0130722929465174
  0
VERTEX
  5
285A
  8
3
 10
184.6464934816959
 20
409.96505039745392
 30
0.0
 42
-0.0191431513900822
 70
     1
  0
VERTEX
  5
285B
  8
3
 10
184.91675886782789
 20
409.8644415931181
 30
0.0
 42
-0.0108700753476541
  0
VERTEX
  5
285C
  8
3
 10
185.2725410782968
 20
409.70709850012781
 30
0.0
 42
-0.0117138932719338
 70
     1
  0
VERTEX
  5
285D
  8
3
 10
185.59577135868579
 20
409.5463289236871
 30
0.0
 42
-0.0127783019608065
  0
VERTEX
  5
285E
  8
3
 10
185.8432303715399
 20
409.40773684437897
 30
0.0
 42
-0.0086310315776662
 70
     1
  0
VERTEX
  5
285F
  8
3
 10
186.2004449070823
 20
409.18707616451712
 30
0.0
 42
-0.0263036936593989
  0
VERTEX
  5
2860
  8
3
 10
186.44500919102569
 20
409.01129225603421
 30
0.0
 42
-0.0149499460273842
 70
     1
  0
VERTEX
  5
2861
  8
3
 10
186.84817118827999
 20
408.66776538433737
 30
0.0
 42
-0.0487921578280705
  0
VERTEX
  5
2862
  8
3
 10
187.11562739681261
 20
408.37348988701928
 30
0.0
 42
-0.0359708901356216
 70
     1
  0
VERTEX
  5
2863
  8
3
 10
187.40560284716091
 20
407.9193632053732
 30
0.0
 42
-0.0674999521026813
  0
VERTEX
  5
2864
  8
3
 10
187.6333661367571
 20
407.31712122760422
 30
0.0
 42
-0.0787926996422725
 70
     1
  0
VERTEX
  5
2865
  8
3
 10
187.67173966657489
 20
406.7659572729944
 30
0.0
 42
-0.0159245320761496
  0
VERTEX
  5
2866
  8
3
 10
187.63957808401429
 20
406.49832281581212
 30
0.0
 42
-0.0106153866746538
 70
     1
  0
VERTEX
  5
2867
  8
3
 10
187.57010951134399
 20
406.10001558128778
 30
0.0
 42
-0.0258293278401323
  0
VERTEX
  5
2868
  8
3
 10
187.51126711012651
 20
405.86521601530831
 30
0.0
 42
-0.0172299193958898
 70
     1
  0
VERTEX
  5
2869
  8
3
 10
187.39315717599311
 20
405.52224539003367
 30
0.0
  0
SEQEND
  5
286A
  8
3
  0
POLYLINE
  5
286B
  8
3
 66
     1
 10
0.0
 20
0.0
 30
0.0
 70
     2
  0
VERTEX
  5
286C
  8
3
 10
178.43198680339719
 20
404.1827922650337
 30
0.0
 42
0.0069662764323257
  0
VERTEX
  5
286D
  8
3
 10
178.3562354058767
 20
403.97443287811211
 30
0.0
 42
0.0140603706829155
 70
     1
  0
VERTEX
  5
286E
  8
3
 10
178.32307203280789
 20
403.8696981101217
 30
0.0
 42
0.00393735663629
  0
VERTEX
  5
286F
  8
3
 10
178.22454647915859
 20
403.51461100049659
 30
0.0
 42
0.0092809551257473
 70
     1
  0
VERTEX
  5
2870
  8
3
 10
178.18674181218009
 20
403.3629057456186
 30
0.0
 42
0.035213120690817
  0
VERTEX
  5
2871
  8
3
 10
178.14849856961021
 20
403.11857919747899
 30
0.0
 42
0.0198400066387871
 70
     1
  0
VERTEX
  5
2872
  8
3
 10
178.12868564311111
 20
402.6804739589449
 30
0.0
 42
0.0326548223741612
  0
VERTEX
  5
2873
  8
3
 10
178.15171750599711
 20
402.29557799629077
 30
0.0
 42
0.0352562520054347
 70
     1
  0
VERTEX
  5
2874
  8
3
 10
178.22111866242579
 20
401.9451883558454
 30
0.0
 42
0.0327728070368322
  0
VERTEX
  5
2875
  8
3
 10
178.32537899274479
 20
401.64232608371412
 30
0.0
 42
0.0292187039179679
 70
     1
  0
VERTEX
  5
2876
  8
3
 10
178.4833854055255
 20
401.3197582600601
 30
0.0
 42
0.0241413131193587
  0
VERTEX
  5
2877
  8
3
 10
178.74092672626739
 20
400.91095652178171
 30
0.0
 42
0.0297133385992823
 70
     1
  0
VERTEX
  5
2878
  8
3
 10
178.98473009865981
 20
400.60313584592171
 30
0.0
 42
0.0135810381816171
  0
VERTEX
  5
2879
  8
3
 10
179.2610837941647
 20
400.31029012005041
 30
0.0
 42
0.0186330240027427
 70
     1
  0
VERTEX
  5
287A
  8
3
 10
179.47586776688971
 20
400.11022139979599
 30
0.0
 42
0.0119244798243323
  0
VERTEX
  5
287B
  8
3
 10
179.73818235999889
 20
399.89423809445498
 30
0.0
 42
0.0143728340973779
 70
     1
  0
VERTEX
  5
287C
  8
3
 10
179.9649460244336
 20
399.72672387869181
 30
0.0
 42
0.016586509986515
  0
VERTEX
  5
287D
  8
3
 10
180.27120726156861
 20
399.52854510290621
 30
0.0
 42
0.0148199398267075
 70
     1
  0
VERTEX
  5
287E
  8
3
 10
180.6272016471471
 20
399.3287057265722
 30
0.0
 42
0.0135290659751945
  0
VERTEX
  5
287F
  8
3
 10
180.9780203376049
 20
399.15714824928682
 30
0.0
 42
0.0145521746231665
 70
     1
  0
VERTEX
  5
2880
  8
3
 10
181.3126221066936
 20
399.0162065084358
 30
0.0
 42
0.0144305846261252
  0
VERTEX
  5
2881
  8
3
 10
181.54806943752729
 20
398.9327332629486
 30
0.0
 42
0.0111817461837154
 70
     1
  0
VERTEX
  5
2882
  8
3
 10
181.85701690012681
 20
398.84071317670907
 30
0.0
 42
0.0259024395504225
  0
VERTEX
  5
2883
  8
3
 10
182.22243760682969
 20
398.7607889434405
 30
0.0
 42
0.0223914879908564
 70
     1
  0
VERTEX
  5
2884
  8
3
 10
182.65202793743541
 20
398.7095301257441
 30
0.0
 42
0.0253791114635702
  0
VERTEX
  5
2885
  8
3
 10
182.93309411040619
 20
398.7029981161474
 30
0.0
 42
0.0236808851058028
 70
     1
  0
VERTEX
  5
2886
  8
3
 10
183.23352872958
 20
398.72553206348681
 30
0.0
 42
0.0348426065734642
  0
VERTEX
  5
2887
  8
3
 10
183.58413115945311
 20
398.79364154212351
 30
0.0
 42
0.0400642255008604
 70
     1
  0
VERTEX
  5
2888
  8
3
 10
183.87690485947951
 20
398.89773933142823
 30
0.0
 42
0.0214652151720648
  0
VERTEX
  5
2889
  8
3
 10
184.04088575053669
 20
398.97993050106987
 30
0.0
 42
0.0202005078832163
 70
     1
  0
VERTEX
  5
288A
  8
3
 10
184.2072514278257
 20
399.08146053269468
 30
0.0
 42
0.0351832605040609
  0
VERTEX
  5
288B
  8
3
 10
184.4220770284937
 20
399.24773340604747
 30
0.0
 42
0.032341816887721
 70
     1
  0
VERTEX
  5
288C
  8
3
 10
184.6292658783145
 20
399.45838169851902
 30
0.0
 42
0.039332775687098
  0
VERTEX
  5
288D
  8
3
 10
184.77729098504639
 20
399.6597759616788
 30
0.0
 42
0.0313236770505712
 70
     1
  0
VERTEX
  5
288E
  8
3
 10
184.92562701840779
 20
399.93615725311997
 30
0.0
 42
0.036649021547208
  0
VERTEX
  5
288F
  8
3
 10
185.0212057210519
 20
400.19265677282277
 30
0.0
 42
0.0350728789524082
 70
     1
  0
VERTEX
  5
2890
  8
3
 10
185.08174924929651
 20
400.47217232710511
 30
0.0
 42
0.0497721810439438
  0
VERTEX
  5
2891
  8
3
 10
185.09851954637091
 20
400.8554485244444
 30
0.0
 42
0.0573122761505259
 70
     1
  0
VERTEX
  5
2892
  8
3
 10
185.04203061036651
 20
401.18406728326312
 30
0.0
 42
0.0181875821138119
  0
VERTEX
  5
2893
  8
3
 10
184.96581729238909
 20
401.41320034282347
 30
0.0
 42
0.0299607921222359
 70
     1
  0
VERTEX
  5
2894
  8
3
 10
184.90636226393639
 20
401.54727920922102
 30
0.0
 42
0.0193390199809627
  0
VERTEX
  5
2895
  8
3
 10
184.82984713562291
 20
401.6821777198524
 30
0.0
 42
0.0068363690973224
 70
     1
  0
VERTEX
  5
2896
  8
3
 10
184.59380514206259
 20
402.0518158405074
 30
0.0
 42
0.0246295418211044
  0
VERTEX
  5
2897
  8
3
 10
184.50847614047231
 20
402.16854642779202
 30
0.0
 42
0.0130006999988873
 70
     1
  0
VERTEX
  5
2898
  8
3
 10
184.33073229618549
 20
402.37682020974512
 30
0.0
  0
SEQEND
  5
2899
  8
3
  0
POLYLINE
  5
289A
  8
3
 66
     1
 10
0.0
 20
0.0
 30
0.0
 70
     2
  0
VERTEX
  5
289B
  8
3
 10
189.0560252649357
 20
404.80386347897559
 30
0.0
 42
0.032620199211374
  0
VERTEX
  5
289C
  8
3
 10
189.31280852568941
 20
405.4234551170639
 30
0.0
 42
0.0491283232605407
 70
     1
  0
VERTEX
  5
289D
  8
3
 10
189.4142516329461
 20
405.85769120859078
 30
0.0
 42
0.0076498325466609
  0
VERTEX
  5
289E
  8
3
 10
189.48659383313131
 20
406.4784238200495
 30
0.0
 42
0.0239075808753921
 70
     1
  0
VERTEX
  5
289F
  8
3
 10
189.49717527201031
 20
406.67820972070308
 30
0.0
 42
0.0294197212311499
  0
VERTEX
  5
28A0
  8
3
 10
189.4716738801207
 20
407.15251481469511
 30
0.0
 42
0.0294645527134113
 70
     1
  0
VERTEX
  5
28A1
  8
3
 10
189.3907589446444
 20
407.61983008194699
 30
0.0
 42
0.0313417702395111
  0
VERTEX
  5
28A2
  8
3
 10
189.25328748458739
 20
408.07547303515588
 30
0.0
 42
0.032585937854541
 70
     1
  0
VERTEX
  5
28A3
  8
3
 10
189.0662678436606
 20
408.49332388791498
 30
0.0
 42
0.0251591309979722
  0
VERTEX
  5
28A4
  8
3
 10
188.80996510641029
 20
408.92451926692002
 30
0.0
 42
0.0271942068929508
 70
     1
  0
VERTEX
  5
28A5
  8
3
 10
188.53242677335129
 20
409.29652468207541
 30
0.0
 42
0.018019008343943
  0
VERTEX
  5
28A6
  8
3
 10
188.18237910132851
 20
409.68658788061788
 30
0.0
 42
0.0223386454899824
 70
     1
  0
VERTEX
  5
28A7
  8
3
 10
187.87552105045961
 20
409.97748818992619
 30
0.0
 42
0.0165143396546181
  0
VERTEX
  5
28A8
  8
3
 10
187.44432527120989
 20
410.32690258718821
 30
0.0
 42
0.0177073883083064
 70
     1
  0
VERTEX
  5
28A9
  8
3
 10
187.02082147767709
 20
410.62452431820168
 30
0.0
 42
0.011718386834358
  0
VERTEX
  5
28AA
  8
3
 10
186.68102804132101
 20
410.83460105077518
 30
0.0
 42
0.0106440335930153
 70
     1
  0
VERTEX
  5
28AB
  8
3
 10
186.29698079378159
 20
411.04892057032163
 30
0.0
 42
0.0221843356205784
  0
VERTEX
  5
28AC
  8
3
 10
185.71949198900981
 20
411.32316370160288
 30
0.0
 42
0.0206312634316757
 70
     1
  0
VERTEX
  5
28AD
  8
3
 10
185.07563171222861
 20
411.56385450045019
 30
0.0
 42
0.0182174795921717
  0
VERTEX
  5
28AE
  8
3
 10
184.77599206728519
 20
411.65003410012008
 30
0.0
 42
0.0117341663259278
 70
     1
  0
VERTEX
  5
28AF
  8
3
 10
184.3037134211072
 20
411.75572113864899
 30
0.0
 42
0.0367598954321208
  0
VERTEX
  5
28B0
  8
3
 10
183.57275516518979
 20
411.84623361671009
 30
0.0
 42
0.0387664919083005
 70
     1
  0
VERTEX
  5
28B1
  8
3
 10
182.87450227841961
 20
411.82683056037808
 30
0.0
 42
0.0292177583564502
  0
VERTEX
  5
28B2
  8
3
 10
182.42787031268739
 20
411.75305952112541
 30
0.0
 42
0.0320916930913226
 70
     1
  0
VERTEX
  5
28B3
  8
3
 10
182.03243000616109
 20
411.63665783599771
 30
0.0
 42
0.0288294077114783
  0
VERTEX
  5
28B4
  8
3
 10
181.66668429050421
 20
411.47852821547463
 30
0.0
 42
0.026183522020753
 70
     1
  0
VERTEX
  5
28B5
  8
3
 10
181.28558166976021
 20
411.26129577564859
 30
0.0
 42
0.0368168475208394
  0
VERTEX
  5
28B6
  8
3
 10
180.8846284599976
 20
410.96024821482757
 30
0.0
 42
0.0333127154294565
 70
     1
  0
VERTEX
  5
28B7
  8
3
 10
180.49243799033499
 20
410.56897051081961
 30
0.0
 42
0.0347338106688507
  0
VERTEX
  5
28B8
  8
3
 10
180.24264508406441
 20
410.24074024881418
 30
0.0
 42
0.031247498030742
 70
     1
  0
VERTEX
  5
28B9
  8
3
 10
180.0154367763694
 20
409.84262883556528
 30
0.0
 42
0.0488571462950968
  0
VERTEX
  5
28BA
  8
3
 10
179.79877150759239
 20
409.264373472849
 30
0.0
 42
0.0377979543475329
 70
     1
  0
VERTEX
  5
28BB
  8
3
 10
179.65185211826289
 20
408.4805976370173
 30
0.0
 42
0.0274420003068081
  0
VERTEX
  5
28BC
  8
3
 10
179.6225442959385
 20
407.94700403324208
 30
0.0
 42
0.0574445417395754
 70
     1
  0
VERTEX
  5
28BD
  8
3
 10
179.65185211826289
 20
407.69274915298161
 30
0.0
 42
0.0482018742566241
  0
VERTEX
  5
28BE
  8
3
 10
179.77367445370049
 20
407.3322216169513
 30
0.0
 42
0.0292685410818783
 70
     1
  0
VERTEX
  5
28BF
  8
3
 10
180.0630514338481
 20
406.77733535792839
 30
0.0
 42
0.0135496777671783
  0
VERTEX
  5
28C0
  8
3
 10
180.47145991594701
 20
406.13497429535289
 30
0.0
 42
0.0291926547677187
 70
     1
  0
VERTEX
  5
28C1
  8
3
 10
180.68592357083429
 20
405.85390637107838
 30
0.0
 42
0.013840552525291
  0
VERTEX
  5
28C2
  8
3
 10
181.16426739654699
 20
405.32775161858211
 30
0.0
 42
0.0176350519588722
 70
     1
  0
VERTEX
  5
28C3
  8
3
 10
181.56496713662591
 20
404.93919543737633
 30
0.0
 42
0.0001502120577464
  0
VERTEX
  5
28C4
  8
3
 10
182.26135200392849
 20
404.31038982621919
 30
0.0
 42
0.0002026430284051
 70
     1
  0
VERTEX
  5
28C5
  8
3
 10
182.7778861181759
 20
403.84464302562537
 30
0.0
 42
0.0001114113230456
  0
VERTEX
  5
28C6
  8
3
 10
182.9839263844114
 20
403.65909580888467
 30
0.0
 42
-0.000042239263701
 70
     1
  0
VERTEX
  5
28C7
  8
3
 10
183.52744734636499
 20
403.1697703457512
 30
0.0
 42
-0.0114667581271128
  0
VERTEX
  5
28C8
  8
3
 10
183.811508716064
 20
402.90194300002571
 30
0.0
 42
-0.006061600935271
 70
     1
  0
VERTEX
  5
28C9
  8
3
 10
184.33073229618549
 20
402.37682020974512
 30
0.0
  0
SEQEND
  5
28CA
  8
3
  0
POLYLINE
  5
28CB
  8
3
 66
     1
 10
0.0
 20
0.0
 30
0.0
 70
     2
  0
VERTEX
  5
28CC
  8
3
 10
145.56793746188981
 20
416.65437105699561
 30
0.0
 42
0.0212538781120408
  0
VERTEX
  5
28CD
  8
3
 10
145.3811051190323
 20
417.31482647362049
 30
0.0
 42
0.0354656743587797
 70
     1
  0
VERTEX
  5
28CE
  8
3
 10
145.22494512205139
 20
417.6957187437763
 30
0.0
 42
0.0112883424013682
  0
VERTEX
  5
28CF
  8
3
 10
144.79793434905241
 20
418.51082557858308
 30
0.0
 42
0.0263187447527696
 70
     1
  0
VERTEX
  5
28D0
  8
3
 10
144.58891920397221
 20
418.84587328243202
 30
0.0
 42
0.0411287744029191
  0
VERTEX
  5
28D1
  8
3
 10
144.2783049490663
 20
419.22023584342202
 30
0.0
 42
0.0295369498955094
 70
     1
  0
VERTEX
  5
28D2
  8
3
 10
143.77711270141211
 20
419.67505497201711
 30
0.0
 42
0.054068464184067
  0
VERTEX
  5
28D3
  8
3
 10
143.0010478749746
 20
420.17231384864471
 30
0.0
 42
0.0481362150176989
 70
     1
  0
VERTEX
  5
28D4
  8
3
 10
142.0347631866716
 20
420.54222920438559
 30
0.0
 42
0.0252006923436884
  0
VERTEX
  5
28D5
  8
3
 10
141.0636058825221
 20
420.75840178029341
 30
0.0
 42
0.0300166432386759
 70
     1
  0
VERTEX
  5
28D6
  8
3
 10
140.23301042468481
 20
420.84897421185877
 30
0.0
 42
0.0162001346900556
  0
VERTEX
  5
28D7
  8
3
 10
139.58677310926939
 20
420.85944632038428
 30
0.0
 42
0.0147510781281702
 70
     1
  0
VERTEX
  5
28D8
  8
3
 10
138.87773286951
 20
420.82702477618
 30
0.0
 42
0.038345212588457
  0
VERTEX
  5
28D9
  8
3
 10
137.80648196951191
 20
420.66309665690642
 30
0.0
 42
0.034987776848053
 70
     1
  0
VERTEX
  5
28DA
  8
3
 10
136.6715498343265
 20
420.31395140030901
 30
0.0
 42
0.0372444665331937
  0
VERTEX
  5
28DB
  8
3
 10
135.8222717216795
 20
419.91116853942799
 30
0.0
 42
0.0420198436357007
 70
     1
  0
VERTEX
  5
28DC
  8
3
 10
135.13500970037919
 20
419.43968134231449
 30
0.0
 42
0.0308534084068922
  0
VERTEX
  5
28DD
  8
3
 10
134.51548126143189
 20
418.86602641062967
 30
0.0
 42
0.0380083434678111
 70
     1
  0
VERTEX
  5
28DE
  8
3
 10
134.08102593464349
 20
418.33548967245162
 30
0.0
 42
0.0233218320997907
  0
VERTEX
  5
28DF
  8
3
 10
133.67869280343069
 20
417.69878183685472
 30
0.0
 42
0.0247370930799426
 70
     1
  0
VERTEX
  5
28E0
  8
3
 10
133.3587041836044
 20
417.06483217447402
 30
0.0
 42
0.0216812934822011
  0
VERTEX
  5
28E1
  8
3
 10
133.10570646736821
 20
416.42138643820772
 30
0.0
 42
0.0189972873176392
 70
     1
  0
VERTEX
  5
28E2
  8
3
 10
132.87761476273039
 20
415.66608102876239
 30
0.0
 42
0.0340020774500487
  0
VERTEX
  5
28E3
  8
3
 10
132.68432552423559
 20
414.64625550951263
 30
0.0
 42
0.0299154608007749
 70
     1
  0
VERTEX
  5
28E4
  8
3
 10
132.61416642823579
 20
413.46887676613011
 30
0.0
 42
0.0256277667751951
  0
VERTEX
  5
28E5
  8
3
 10
132.6648528427904
 20
412.48628159944337
 30
0.0
 42
0.0283635207518686
 70
     1
  0
VERTEX
  5
28E6
  8
3
 10
132.80606425259879
 20
411.6084344506092
 30
0.0
 42
0.0254048411211126
  0
VERTEX
  5
28E7
  8
3
 10
133.03345760979249
 20
410.77712607982312
 30
0.0
 42
0.0270464225599417
 70
     1
  0
VERTEX
  5
28E8
  8
3
 10
133.32764551244139
 20
410.02285970480068
 30
0.0
 42
0.0287286669521246
  0
VERTEX
  5
28E9
  8
3
 10
133.6723285905
 20
409.36625335131021
 30
0.0
 42
0.027850268037964
 70
     1
  0
VERTEX
  5
28EA
  8
3
 10
134.10204873265681
 20
408.73343580755568
 30
0.0
 42
0.0357140489172715
  0
VERTEX
  5
28EB
  8
3
 10
134.57214624242889
 20
408.2013423500743
 30
0.0
 42
0.0307625996409776
 70
     1
  0
VERTEX
  5
28EC
  8
3
 10
135.19474951972731
 20
407.66155046393141
 30
0.0
 42
0.0397777513027617
  0
VERTEX
  5
28ED
  8
3
 10
135.98296362433661
 20
407.15270059224298
 30
0.0
 42
0.0355903097298783
 70
     1
  0
VERTEX
  5
28EE
  8
3
 10
136.9389971970599
 20
406.72278571789622
 30
0.0
 42
0.0277979308769013
  0
VERTEX
  5
28EF
  8
3
 10
137.79831478300451
 20
406.46086010464558
 30
0.0
 42
0.026483339034017
 70
     1
  0
VERTEX
  5
28F0
  8
3
 10
138.7246949877408
 20
406.28526745812133
 30
0.0
 42
0.0327239618162638
  0
VERTEX
  5
28F1
  8
3
 10
139.87250734595091
 20
406.20600489626622
 30
0.0
 42
0.0341403113227353
 70
     1
  0
VERTEX
  5
28F2
  8
3
 10
140.9731158367976
 20
406.27735006078672
 30
0.0
 42
0.029847089597607
  0
VERTEX
  5
28F3
  8
3
 10
142.12049472751281
 20
406.50118435817598
 30
0.0
 42
0.0359979345177857
 70
     1
  0
VERTEX
  5
28F4
  8
3
 10
143.03960493710289
 20
406.81016497927698
 30
0.0
 42
0.0185058688189716
  0
VERTEX
  5
28F5
  8
3
 10
143.58705049386521
 20
407.06340957804372
 30
0.0
 42
0.0086931875593924
 70
     1
  0
VERTEX
  5
28F6
  8
3
 10
144.72110534746159
 20
407.66491168425711
 30
0.0
 42
0.0283539771103539
  0
VERTEX
  5
28F7
  8
3
 10
145.1152274012388
 20
407.91296770308799
 30
0.0
 42
0.0152943040254807
 70
     1
  0
VERTEX
  5
28F8
  8
3
 10
145.8026279666974
 20
408.43447923007272
 30
0.0
  0
SEQEND
  5
28F9
  8
3
  0
POLYLINE
  5
28FA
  8
3
 66
     1
 10
0.0
 20
0.0
 30
0.0
 70
     2
  0
VERTEX
  5
28FB
  8
3
 10
143.72475837535151
 20
416.19071420603422
 30
0.0
 42
0.020808323080409
  0
VERTEX
  5
28FC
  8
3
 10
143.57236525791541
 20
416.69512680584512
 30
0.0
 42
0.0349896894358913
 70
     1
  0
VERTEX
  5
28FD
  8
3
 10
143.448806892763
 20
416.98337370761823
 30
0.0
 42
0.0143129634701598
  0
VERTEX
  5
28FE
  8
3
 10
143.0390861710739
 20
417.72709826968412
 30
0.0
 42
0.0405598503139991
 70
     1
  0
VERTEX
  5
28FF
  8
3
 10
142.8663898644472
 20
417.97249381346592
 30
0.0
 42
0.0356573656629163
  0
VERTEX
  5
2900
  8
3
 10
142.62392366388659
 20
418.22475807648641
 30
0.0
 42
0.0307897357530425
 70
     1
  0
VERTEX
  5
2901
  8
3
 10
142.3070059584488
 20
418.47705497033252
 30
0.0
 42
0.0356844843478598
  0
VERTEX
  5
2902
  8
3
 10
141.8949487531909
 20
418.72375030511552
 30
0.0
 42
0.0320714544023671
 70
     1
  0
VERTEX
  5
2903
  8
3
 10
141.40372276672491
 20
418.93375595497798
 30
0.0
 42
0.0333302949876045
  0
VERTEX
  5
2904
  8
3
 10
140.75984299594441
 20
419.11420336852109
 30
0.0
 42
0.0354708980037456
 70
     1
  0
VERTEX
  5
2905
  8
3
 10
140.13719406697049
 20
419.19921466926678
 30
0.0
 42
0.0183281204904636
  0
VERTEX
  5
2906
  8
3
 10
139.60191534290419
 20
419.21427521700781
 30
0.0
 42
0.0193827463086888
 70
     1
  0
VERTEX
  5
2907
  8
3
 10
139.0961069636441
 20
419.19034058200299
 30
0.0
 42
0.022444538729735
  0
VERTEX
  5
2908
  8
3
 10
138.5724740771266
 20
419.12138873540368
 30
0.0
 42
0.0202982186012873
 70
     1
  0
VERTEX
  5
2909
  8
3
 10
138.00214728843821
 20
418.9960073774198
 30
0.0
 42
0.0381381707653528
  0
VERTEX
  5
290A
  8
3
 10
137.5502263865483
 20
418.83958089153111
 30
0.0
 42
0.0277464828365132
 70
     1
  0
VERTEX
  5
290B
  8
3
 10
136.96307246152759
 20
418.54504943655951
 30
0.0
 42
0.0500269711871445
  0
VERTEX
  5
290C
  8
3
 10
136.3766198889343
 20
418.12602443966972
 30
0.0
 42
0.0465599834110754
 70
     1
  0
VERTEX
  5
290D
  8
3
 10
135.84474390780579
 20
417.56347259694292
 30
0.0
 42
0.0339016667670313
  0
VERTEX
  5
290E
  8
3
 10
135.44350219970781
 20
416.97261051683472
 30
0.0
 42
0.0376211566038745
 70
     1
  0
VERTEX
  5
290F
  8
3
 10
135.16141702919771
 20
416.39392183824629
 30
0.0
 42
0.024394824372749
  0
VERTEX
  5
2910
  8
3
 10
134.90532029954329
 20
415.6452110754621
 30
0.0
 42
0.0289408353792917
 70
     1
  0
VERTEX
  5
2911
  8
3
 10
134.75781863565629
 20
414.9945573625165
 30
0.0
 42
0.0191476734831521
  0
VERTEX
  5
2912
  8
3
 10
134.6615080495462
 20
414.23892568096869
 30
0.0
 42
0.0209461285444325
 70
     1
  0
VERTEX
  5
2913
  8
3
 10
134.6290702743899
 20
413.54329082863148
 30
0.0
 42
0.0198790523315067
  0
VERTEX
  5
2914
  8
3
 10
134.6542763617895
 20
412.82428051398659
 30
0.0
 42
0.0188679901748925
 70
     1
  0
VERTEX
  5
2915
  8
3
 10
134.739388868898
 20
412.07109933840883
 30
0.0
 42
0.0261423046538159
  0
VERTEX
  5
2916
  8
3
 10
134.84225384747779
 20
411.57016507201979
 30
0.0
 42
0.0181266448473626
 70
     1
  0
VERTEX
  5
2917
  8
3
 10
135.0538192768999
 20
410.86391066668978
 30
0.0
 42
0.0492982844977441
  0
VERTEX
  5
2918
  8
3
 10
135.36177779675609
 20
410.18494531998971
 30
0.0
 42
0.0428225450767773
 70
     1
  0
VERTEX
  5
2919
  8
3
 10
135.85311826479659
 20
409.48183773320142
 30
0.0
 42
0.0541826236409547
  0
VERTEX
  5
291A
  8
3
 10
136.44794392826131
 20
408.90848864263398
 30
0.0
 42
0.0513532573853008
 70
     1
  0
VERTEX
  5
291B
  8
3
 10
137.18804270317369
 20
408.44845441622948
 30
0.0
 42
0.0294962620871486
  0
VERTEX
  5
291C
  8
3
 10
137.90994167255209
 20
408.14786917965262
 30
0.0
 42
0.0369201908390379
 70
     1
  0
VERTEX
  5
291D
  8
3
 10
138.51369451360279
 20
407.98611591502458
 30
0.0
 42
0.0295075370229397
  0
VERTEX
  5
291E
  8
3
 10
139.40254626593739
 20
407.87084912928952
 30
0.0
 42
0.0376468951846434
 70
     1
  0
VERTEX
  5
291F
  8
3
 10
140.10543334556769
 20
407.87457119894469
 30
0.0
 42
0.0187656650147785
  0
VERTEX
  5
2920
  8
3
 10
140.7492750868023
 20
407.95095169314459
 30
0.0
 42
0.027038473411988
 70
     1
  0
VERTEX
  5
2921
  8
3
 10
141.18956946324209
 20
408.04464579037062
 30
0.0
 42
0.0209812911501179
  0
VERTEX
  5
2922
  8
3
 10
141.7947855970647
 20
408.23564192550481
 30
0.0
 42
0.0220916826496657
 70
     1
  0
VERTEX
  5
2923
  8
3
 10
142.3518728112071
 20
408.46582409607453
 30
0.0
 42
0.016617008551137
  0
VERTEX
  5
2924
  8
3
 10
142.69598031669599
 20
408.64028628030218
 30
0.0
 42
0.0089472043975162
 70
     1
  0
VERTEX
  5
2925
  8
3
 10
143.3175518276289
 20
408.99646833462782
 30
0.0
 42
0.0315339134607898
  0
VERTEX
  5
2926
  8
3
 10
143.4707696643172
 20
409.10158227430009
 30
0.0
 42
0.0142134458881912
 70
     1
  0
VERTEX
  5
2927
  8
3
 10
143.78772412054369
 20
409.36465501132272
 30
0.0
  0
SEQEND
  5
2928
  8
3
  0
POLYLINE
  5
2929
  8
3
 66
     1
 10
0.0
 20
0.0
 30
0.0
 70
     2
  0
VERTEX
  5
292A
  8
3
 10
125.4588958560616
 20
411.9993377815058
 30
0.0
 42
-0.0050447919282814
  0
VERTEX
  5
292B
  8
3
 10
125.6483102379261
 20
411.9383789518028
 30
0.0
 42
-0.0098129273123223
 70
     1
  0
VERTEX
  5
292C
  8
3
 10
125.7447202730491
 20
411.9041585260702
 30
0.0
 42
-0.0013720639986037
  0
VERTEX
  5
292D
  8
3
 10
125.9954389127797
 20
411.80880015347748
 30
0.0
 42
-0.0037400743644787
 70
     1
  0
VERTEX
  5
292E
  8
3
 10
126.0870548701441
 20
411.77287849450488
 30
0.0
 42
-0.0250583879208761
  0
VERTEX
  5
292F
  8
3
 10
126.35929212498741
 20
411.6476110485969
 30
0.0
 42
-0.020408617682232
 70
     1
  0
VERTEX
  5
2930
  8
3
 10
126.67814164933129
 20
411.46412894737108
 30
0.0
 42
-0.020895747305578
  0
VERTEX
  5
2931
  8
3
 10
126.9545452027232
 20
411.27308933099772
 30
0.0
 42
-0.0149733355224382
 70
     1
  0
VERTEX
  5
2932
  8
3
 10
127.32009837471379
 20
410.97959099861788
 30
0.0
 42
-0.0094546873445079
  0
VERTEX
  5
2933
  8
3
 10
127.7585434892935
 20
410.59087296335878
 30
0.0
 42
-0.0174820594347802
 70
     1
  0
VERTEX
  5
2934
  8
3
 10
127.9840498169733
 20
410.36813501978338
 30
0.0
 42
-0.0056934994721517
  0
VERTEX
  5
2935
  8
3
 10
128.43348095053619
 20
409.88106294390258
 30
0.0
 42
-0.0051341118267978
 70
     1
  0
VERTEX
  5
2936
  8
3
 10
128.9200642487358
 20
409.33025987086279
 30
0.0
  0
VERTEX
  5
2937
  8
3
 10
129.5549851999904
 20
408.59649258240262
 30
0.0
  0
VERTEX
  5
2938
  8
3
 10
130.55048500551439
 20
407.44601047668669
 30
0.0
  0
VERTEX
  5
2939
  8
3
 10
131.48929699788869
 20
406.36104150746712
 30
0.0
  0
SEQEND
  5
293A
  8
3
  0
POLYLINE
  5
293B
  8
3
 66
     1
 10
0.0
 20
0.0
 30
0.0
 70
     2
  0
VERTEX
  5
293C
  8
3
 10
122.22474621663881
 20
411.37254240890968
 30
0.0
 42
-0.0246650605349417
  0
VERTEX
  5
293D
  8
3
 10
122.65926867415141
 20
411.44271807448018
 30
0.0
 42
-0.0358890784536928
 70
     1
  0
VERTEX
  5
293E
  8
3
 10
122.9617418795424
 20
411.45453585467612
 30
0.0
 42
-0.0043750183253162
  0
VERTEX
  5
293F
  8
3
 10
123.34253993090169
 20
411.438743987073
 30
0.0
 42
-0.0189183837756738
 70
     1
  0
VERTEX
  5
2940
  8
3
 10
123.4303664994686
 20
411.4309926751921
 30
0.0
 42
-0.0297467018682142
  0
VERTEX
  5
2941
  8
3
 10
123.6567760746775
 20
411.388543432424
 30
0.0
 42
-0.0232019907440292
 70
     1
  0
VERTEX
  5
2942
  8
3
 10
123.93957588509279
 20
411.30377999582572
 30
0.0
 42
-0.0335437592679887
  0
VERTEX
  5
2943
  8
3
 10
124.24779443284569
 20
411.17176847496552
 30
0.0
 42
-0.0340141612783138
 70
     1
  0
VERTEX
  5
2944
  8
3
 10
124.53146114175701
 20
411.00183391922781
 30
0.0
 42
-0.0215743404659757
  0
VERTEX
  5
2945
  8
3
 10
124.9129168332892
 20
410.71132249745227
 30
0.0
 42
-0.0206438388708876
 70
     1
  0
VERTEX
  5
2946
  8
3
 10
125.28453073749959
 20
410.37519552336482
 30
0.0
 42
-0.0036425691041979
  0
VERTEX
  5
2947
  8
3
 10
125.7102911163438
 20
409.95073789767002
 30
0.0
 42
-0.0085896372365469
 70
     1
  0
VERTEX
  5
2948
  8
3
 10
125.8863950285222
 20
409.76636621756802
 30
0.0
 42
-0.0025569799685185
  0
VERTEX
  5
2949
  8
3
 10
126.4080430672238
 20
409.19526543850913
 30
0.0
 42
-0.0050929587191866
 70
     1
  0
VERTEX
  5
294A
  8
3
 10
126.6655302558006
 20
408.90455862959527
 30
0.0
 42
-0.0002269161652743
  0
VERTEX
  5
294B
  8
3
 10
127.1929761527844
 20
408.29614366593842
 30
0.0
 42
-0.0004894553167178
 70
     1
  0
VERTEX
  5
294C
  8
3
 10
127.43710077996271
 20
408.0137265600415
 30
0.0
  0
VERTEX
  5
294D
  8
3
 10
128.01473269500411
 20
407.34416575626523
 30
0.0
  0
VERTEX
  5
294E
  8
3
 10
128.58265111995749
 20
406.68586432383159
 30
0.0
  0
VERTEX
  5
294F
  8
3
 10
129.15670234644671
 20
406.02045406756309
 30
0.0
  0
SEQEND
  5
2950
  8
3
  0
POLYLINE
  5
2951
  8
3
 66
     1
 10
0.0
 20
0.0
 30
0.0
 70
     2
  0
VERTEX
  5
2952
  8
3
 10
123.60426845221581
 20
417.95532486083272
 30
0.0
 42
-0.0211164959608335
  0
VERTEX
  5
2953
  8
3
 10
124.0932148314632
 20
418.01710336845372
 30
0.0
 42
-0.0334217783980259
 70
     1
  0
VERTEX
  5
2954
  8
3
 10
124.4047620561946
 20
418.02228764045168
 30
0.0
 42
-0.0086563813739625
  0
VERTEX
  5
2955
  8
3
 10
124.98627669819319
 20
417.9829802669953
 30
0.0
 42
-0.0235156246404858
 70
     1
  0
VERTEX
  5
2956
  8
3
 10
125.1990677292342
 20
417.95476501638763
 30
0.0
 42
-0.0427388179463247
  0
VERTEX
  5
2957
  8
3
 10
125.5112549666019
 20
417.87028570639058
 30
0.0
 42
-0.0344588126534849
 70
     1
  0
VERTEX
  5
2958
  8
3
 10
125.8775168303609
 20
417.70734167025739
 30
0.0
 42
-0.0509216429312995
  0
VERTEX
  5
2959
  8
3
 10
126.1526035044235
 20
417.52345963867128
 30
0.0
 42
-0.0407888008913242
 70
     1
  0
VERTEX
  5
295A
  8
3
 10
126.4481603675531
 20
417.2354160506768
 30
0.0
 42
-0.055583536110302
  0
VERTEX
  5
295B
  8
3
 10
126.6935518651489
 20
416.88106887968428
 30
0.0
 42
-0.0533655250015736
 70
     1
  0
VERTEX
  5
295C
  8
3
 10
126.8633615659501
 20
416.46560490196032
 30
0.0
 42
-0.0453853690150892
  0
VERTEX
  5
295D
  8
3
 10
126.95857499993051
 20
415.97229579511662
 30
0.0
 42
-0.0547515419767775
 70
     1
  0
VERTEX
  5
295E
  8
3
 10
126.9546410956182
 20
415.55545722108678
 30
0.0
 42
-0.023122186054874
  0
VERTEX
  5
295F
  8
3
 10
126.9103233082928
 20
415.28941681213968
 30
0.0
 42
-0.0240355397034915
 70
     1
  0
VERTEX
  5
2960
  8
3
 10
126.84377814439949
 20
415.03862653275883
 30
0.0
 42
-0.0477574211731775
  0
VERTEX
  5
2961
  8
3
 10
126.6953353978906
 20
414.69031617508182
 30
0.0
 42
-0.0442898912636364
 70
     1
  0
VERTEX
  5
2962
  8
3
 10
126.4693394367204
 20
414.35046207563289
 30
0.0
 42
-0.0610112275064584
  0
VERTEX
  5
2963
  8
3
 10
126.121518116186
 20
414.01077349213102
 30
0.0
 42
-0.0585259444500098
 70
     1
  0
VERTEX
  5
2964
  8
3
 10
125.6855869408691
 20
413.75254728555819
 30
0.0
 42
-0.0198906264886783
  0
VERTEX
  5
2965
  8
3
 10
125.4240235122306
 20
413.64865587761119
 30
0.0
 42
-0.0083761972499268
 70
     1
  0
VERTEX
  5
2966
  8
3
 10
124.79015909910051
 20
413.43750404443529
 30
0.0
 42
-0.0281326193277539
  0
VERTEX
  5
2967
  8
3
 10
124.41191989106299
 20
413.34150585450811
 30
0.0
 42
-0.0185510783985584
 70
     1
  0
VERTEX
  5
2968
  8
3
 10
123.8275106397159
 20
413.25006644737113
 30
0.0
  0
SEQEND
  5
2969
  8
3
  0
POLYLINE
  5
296A
  8
3
 66
     1
 10
0.0
 20
0.0
 30
0.0
 70
     2
  0
VERTEX
  5
296B
  8
3
 10
123.3008880435618
 20
419.495123538717
 30
0.0
 42
-0.0175998269842407
  0
VERTEX
  5
296C
  8
3
 10
124.15722399553211
 20
419.60585759927011
 30
0.0
 42
-0.0229384288729191
 70
     1
  0
VERTEX
  5
296D
  8
3
 10
124.8191250104573
 20
419.63734347189762
 30
0.0
 42
-0.0010451209251598
  0
VERTEX
  5
296E
  8
3
 10
125.29936511697269
 20
419.63713887419277
 30
0.0
 42
-0.0068636622896856
 70
     1
  0
VERTEX
  5
296F
  8
3
 10
125.37248437752029
 20
419.63595106562963
 30
0.0
 42
-0.0246629033186077
  0
VERTEX
  5
2970
  8
3
 10
125.7315275657311
 20
419.60742405782412
 30
0.0
 42
-0.017078102879381
 70
     1
  0
VERTEX
  5
2971
  8
3
 10
126.2446283655172
 20
419.52316907362831
 30
0.0
 42
-0.0374154820013187
  0
VERTEX
  5
2972
  8
3
 10
126.4662493051009
 20
419.46142692634521
 30
0.0
 42
-0.0190808689976423
 70
     1
  0
VERTEX
  5
2973
  8
3
 10
126.88397558768609
 20
419.29232175409192
 30
0.0
 42
-0.0718381621292091
  0
VERTEX
  5
2974
  8
3
 10
127.504196687526
 20
418.89805812895008
 30
0.0
 42
-0.0601333802726483
 70
     1
  0
VERTEX
  5
2975
  8
3
 10
128.0959443994511
 20
418.2512864088348
 30
0.0
 42
-0.0270291220280235
  0
VERTEX
  5
2976
  8
3
 10
128.4109088514619
 20
417.75645556528377
 30
0.0
 42
-0.036226103418367
 70
     1
  0
VERTEX
  5
2977
  8
3
 10
128.59757538305939
 20
417.36032881513017
 30
0.0
 42
-0.0273996056262888
  0
VERTEX
  5
2978
  8
3
 10
128.7461797864857
 20
416.90141358569917
 30
0.0
 42
-0.025417261602866
 70
     1
  0
VERTEX
  5
2979
  8
3
 10
128.85332193779271
 20
416.39262954833259
 30
0.0
 42
-0.0414472502731812
  0
VERTEX
  5
297A
  8
3
 10
128.9009991934854
 20
415.74848352965307
 30
0.0
 42
-0.0429860025570883
 70
     1
  0
VERTEX
  5
297B
  8
3
 10
128.8419872430263
 20
415.12841777399342
 30
0.0
 42
-0.0395165681417856
  0
VERTEX
  5
297C
  8
3
 10
128.70286947480781
 20
414.60503091226059
 30
0.0
 42
-0.0396999274468267
 70
     1
  0
VERTEX
  5
297D
  8
3
 10
128.48397224958441
 20
414.11240826139942
 30
0.0
 42
-0.0326499570756751
  0
VERTEX
  5
297E
  8
3
 10
128.21738447033661
 20
413.689810062395
 30
0.0
 42
-0.0348986050567201
 70
     1
  0
VERTEX
  5
297F
  8
3
 10
127.9169685439665
 20
413.33156637284509
 30
0.0
 42
-0.0407348445929939
  0
VERTEX
  5
2980
  8
3
 10
127.6968611558445
 20
413.13782448085152
 30
0.0
 42
-0.0123940775840808
 70
     1
  0
VERTEX
  5
2981
  8
3
 10
126.9112030895826
 20
412.58218026193322
 30
0.0
 42
-0.0523308003179117
  0
VERTEX
  5
2982
  8
3
 10
126.3453082147434
 20
412.28308692831121
 30
0.0
 42
-0.0359369054571087
 70
     1
  0
VERTEX
  5
2983
  8
3
 10
125.4588958560616
 20
411.9993377815058
 30
0.0
  0
SEQEND
  5
2984
  8
3
  0
POLYLINE
  5
2985
  8
3
 66
     1
 10
0.0
 20
0.0
 30
0.0
 70
     2
  0
VERTEX
  5
2986
  8
3
 10
95.096068843756257
 20
398.8923645675427
 30
0.0
 42
0.0126136110445836
  0
VERTEX
  5
2987
  8
3
 10
95.297624899445495
 20
398.52461855872531
 30
0.0
 42
0.0221002779017913
 70
     1
  0
VERTEX
  5
2988
  8
3
 10
95.426986044641126
 20
398.32314814529963
 30
0.0
 42
0.0019994906389399
  0
VERTEX
  5
2989
  8
3
 10
95.720329095804118
 20
397.91136651795341
 30
0.0
 42
0.0107634990062094
 70
     1
  0
VERTEX
  5
298A
  8
3
 10
95.776763113262405
 20
397.83627886413763
 30
0.0
 42
0.0141570033418061
  0
VERTEX
  5
298B
  8
3
 10
95.922449673869778
 20
397.6613157476163
 30
0.0
 42
0.0101243583552039
 70
     1
  0
VERTEX
  5
298C
  8
3
 10
96.137779303561274
 20
397.42686277121271
 30
0.0
 42
0.0247385728097453
  0
VERTEX
  5
298D
  8
3
 10
96.314563590294711
 20
397.25945112353611
 30
0.0
 42
0.0152086034918439
 70
     1
  0
VERTEX
  5
298E
  8
3
 10
96.622819486725362
 20
397.01104586067999
 30
0.0
 42
0.037046392483054
  0
VERTEX
  5
298F
  8
3
 10
96.925794750681234
 20
396.81521194606739
 30
0.0
 42
0.0294239504046532
 70
     1
  0
VERTEX
  5
2990
  8
3
 10
97.336356076056745
 20
396.62146161185427
 30
0.0
 42
0.0376883223586001
  0
VERTEX
  5
2991
  8
3
 10
97.705873828255804
 20
396.5044148932173
 30
0.0
 42
0.0356023767566453
 70
     1
  0
VERTEX
  5
2992
  8
3
 10
98.110877816551692
 20
396.43895532283932
 30
0.0
 42
0.0330309969624138
  0
VERTEX
  5
2993
  8
3
 10
98.574829889766974
 20
396.42826929083492
 30
0.0
 42
0.0366293540157184
 70
     1
  0
VERTEX
  5
2994
  8
3
 10
98.990595920158285
 20
396.47681484888773
 30
0.0
 42
0.0194618998959555
  0
VERTEX
  5
2995
  8
3
 10
99.398381317441803
 20
396.57159864026607
 30
0.0
 42
0.0242235349621316
 70
     1
  0
VERTEX
  5
2996
  8
3
 10
99.718181362731229
 20
396.67606599810898
 30
0.0
 42
0.0181226899303102
  0
VERTEX
  5
2997
  8
3
 10
100.07306658516291
 20
396.82628301444743
 30
0.0
 42
0.0160000376634028
 70
     1
  0
VERTEX
  5
2998
  8
3
 10
100.4624675817367
 20
397.02342676706172
 30
0.0
 42
0.0223924773502135
  0
VERTEX
  5
2999
  8
3
 10
100.8270075634918
 20
397.24464201101722
 30
0.0
 42
0.0184910141443071
 70
     1
  0
VERTEX
  5
299A
  8
3
 10
101.24504451250139
 20
397.54763999352372
 30
0.0
 42
0.0332779198399316
  0
VERTEX
  5
299B
  8
3
 10
101.5700238037507
 20
397.83887590735742
 30
0.0
 42
0.0268139062527723
 70
     1
  0
VERTEX
  5
299C
  8
3
 10
101.9269778795237
 20
398.24589742084021
 30
0.0
 42
0.0402741048072072
  0
VERTEX
  5
299D
  8
3
 10
102.2311321801235
 20
398.70427686463432
 30
0.0
 42
0.044508239663981
 70
     1
  0
VERTEX
  5
299E
  8
3
 10
102.4325290761449
 20
399.15968825599498
 30
0.0
 42
0.0284978224072238
  0
VERTEX
  5
299F
  8
3
 10
102.5475948719463
 20
399.57474685937677
 30
0.0
 42
0.0371277237970784
 70
     1
  0
VERTEX
  5
29A0
  8
3
 10
102.5935030765458
 20
399.90233168743708
 30
0.0
 42
0.0219487572148704
  0
VERTEX
  5
29A1
  8
3
 10
102.60141658287741
 20
400.27691844997338
 30
0.0
 42
0.0281178638675913
 70
     1
  0
VERTEX
  5
29A2
  8
3
 10
102.5783319230941
 20
400.56856359289048
 30
0.0
 42
0.0208279619895511
  0
VERTEX
  5
29A3
  8
3
 10
102.5056201104335
 20
400.9753958738433
 30
0.0
 42
0.022986759573779
 70
     1
  0
VERTEX
  5
29A4
  8
3
 10
102.40772460492779
 20
401.33687579882871
 30
0.0
 42
0.013887931561174
  0
VERTEX
  5
29A5
  8
3
 10
102.35243609547069
 20
401.49406649456739
 30
0.0
 42
0.0030484864508328
 70
     1
  0
VERTEX
  5
29A6
  8
3
 10
102.0765036430284
 20
402.20110691508307
 30
0.0
 42
0.0220028756447812
  0
VERTEX
  5
29A7
  8
3
 10
101.9280574612521
 20
402.5315815403078
 30
0.0
 42
0.0128842927189096
 70
     1
  0
VERTEX
  5
29A8
  8
3
 10
101.6359201057753
 20
403.07672454350421
 30
0.0
  0
SEQEND
  5
29A9
  8
3
  0
POLYLINE
  5
29AA
  8
3
 66
     1
 10
0.0
 20
0.0
 30
0.0
 70
     2
  0
VERTEX
  5
29AB
  8
3
 10
96.452694444717494
 20
399.91126480792718
 30
0.0
 42
0.0086375113821235
  0
VERTEX
  5
29AC
  8
3
 10
96.616824270866346
 20
399.6466209142668
 30
0.0
 42
0.0156428907577078
 70
     1
  0
VERTEX
  5
29AD
  8
3
 10
96.714454239481711
 20
399.50503999596458
 30
0.0
 42
0.0013049689047904
  0
VERTEX
  5
29AE
  8
3
 10
96.949418813010183
 20
399.18786172876531
 30
0.0
 42
0.0073389598279478
 70
     1
  0
VERTEX
  5
29AF
  8
3
 10
96.992169710703365
 20
399.13219079412647
 30
0.0
 42
0.0143838720746346
  0
VERTEX
  5
29B0
  8
3
 10
97.122566050284135
 20
398.97684859429819
 30
0.0
 42
0.0109361255934938
 70
     1
  0
VERTEX
  5
29B1
  8
3
 10
97.304177277627787
 20
398.78149264985421
 30
0.0
 42
0.0220193550312483
  0
VERTEX
  5
29B2
  8
3
 10
97.463508002569142
 20
398.63128294593253
 30
0.0
 42
0.0209771248624672
 70
     1
  0
VERTEX
  5
29B3
  8
3
 10
97.643669016577405
 20
398.4885611653666
 30
0.0
 42
0.024965426251596
  0
VERTEX
  5
29B4
  8
3
 10
97.786388614935277
 20
398.39544448170773
 30
0.0
 42
0.0240498130945858
 70
     1
  0
VERTEX
  5
29B5
  8
3
 10
97.943282451422874
 20
398.31374764690167
 30
0.0
 42
0.0268305190327128
  0
VERTEX
  5
29B6
  8
3
 10
98.068263493647464
 20
398.26406864184349
 30
0.0
 42
0.0218625475818424
 70
     1
  0
VERTEX
  5
29B7
  8
3
 10
98.226806846370437
 20
398.21831116200201
 30
0.0
 42
0.0377847840398122
  0
VERTEX
  5
29B8
  8
3
 10
98.434905263235123
 20
398.18436000360708
 30
0.0
 42
0.0332413307165262
 70
     1
  0
VERTEX
  5
29B9
  8
3
 10
98.674450300165063
 20
398.17963248828482
 30
0.0
 42
0.0252760741655143
  0
VERTEX
  5
29BA
  8
3
 10
98.889119780752495
 20
398.2005787882585
 30
0.0
 42
0.0287281479087626
 70
     1
  0
VERTEX
  5
29BB
  8
3
 10
99.074942204720628
 20
398.23926333939721
 30
0.0
 42
0.0215251396437749
  0
VERTEX
  5
29BC
  8
3
 10
99.29604220017427
 20
398.30904886540742
 30
0.0
 42
0.0241548403350694
 70
     1
  0
VERTEX
  5
29BD
  8
3
 10
99.486600240040389
 20
398.3889596820199
 30
0.0
 42
0.0162188411764366
  0
VERTEX
  5
29BE
  8
3
 10
99.634251102111193
 20
398.46541813160758
 30
0.0
 42
0.013422840136024
 70
     1
  0
VERTEX
  5
29BF
  8
3
 10
99.806856958194672
 20
398.56820178755322
 30
0.0
 42
0.0267894415657179
  0
VERTEX
  5
29C0
  8
3
 10
100.0048420252951
 20
398.70879946576611
 30
0.0
 42
0.024090336879813
 70
     1
  0
VERTEX
  5
29C1
  8
3
 10
100.2079639535868
 20
398.88667763041877
 30
0.0
 42
0.0338318657612555
  0
VERTEX
  5
29C2
  8
3
 10
100.3530494328315
 20
399.0469357055797
 30
0.0
 42
0.0275060365402855
 70
     1
  0
VERTEX
  5
29C3
  8
3
 10
100.5059893052657
 20
399.26431506576267
 30
0.0
 42
0.0328493431972466
  0
VERTEX
  5
29C4
  8
3
 10
100.61216422103
 20
399.46220855072397
 30
0.0
 42
0.0308604250971454
 70
     1
  0
VERTEX
  5
29C5
  8
3
 10
100.69749657154119
 20
399.68547812598069
 30
0.0
 42
0.0413672462600852
  0
VERTEX
  5
29C6
  8
3
 10
100.7575262550808
 20
399.95307637652832
 30
0.0
 42
0.0470372283825305
 70
     1
  0
VERTEX
  5
29C7
  8
3
 10
100.76813613583811
 20
400.19415386119567
 30
0.0
 42
0.0260312929092139
  0
VERTEX
  5
29C8
  8
3
 10
100.7419560253866
 20
400.44974382006552
 30
0.0
 42
0.0344224301816647
 70
     1
  0
VERTEX
  5
29C9
  8
3
 10
100.6989752694771
 20
400.63932750194419
 30
0.0
 42
0.010961710457643
  0
VERTEX
  5
29CA
  8
3
 10
100.61047244895779
 20
400.91215334462998
 30
0.0
 42
0.0169924936493564
 70
     1
  0
VERTEX
  5
29CB
  8
3
 10
100.5436240807703
 20
401.08471501937839
 30
0.0
 42
0.0050039221890816
  0
VERTEX
  5
29CC
  8
3
 10
100.51954691800159
 20
401.13957422635531
 30
0.0
 42
0.0007809119908954
 70
     1
  0
VERTEX
  5
29CD
  8
3
 10
100.3612127186839
 20
401.48928365232803
 30
0.0
 42
0.0133616367783817
  0
VERTEX
  5
29CE
  8
3
 10
100.2476739354824
 20
401.72228308259901
 30
0.0
 42
0.0084915026034247
 70
     1
  0
VERTEX
  5
29CF
  8
3
 10
100.0531902379866
 20
402.08072093773512
 30
0.0
  0
SEQEND
  5
29D0
  8
3
  0
POLYLINE
  5
29D1
  8
0
 66
     1
 10
0.0
 20
0.0
 30
0.0
 70
     2
  0
VERTEX
  5
29D2
  8
0
 10
239.08731784218159
 20
144.171985565119
 30
0.0
 42
-0.0046854840679574
  0
VERTEX
  5
29D3
  8
0
 10
239.0682439193524
 20
143.66810013770689
 30
0.0
 42
-0.0082972051320212
 70
     1
  0
VERTEX
  5
29D4
  8
0
 10
239.05008811443761
 20
143.3839150877948
 30
0.0
 42
-0.0000074118771266
  0
VERTEX
  5
29D5
  8
0
 10
239.0090499986145
 20
142.87465090471079
 30
0.0
 42
0.0000388691873377
 70
     1
  0
VERTEX
  5
29D6
  8
0
 10
239.0012306681088
 20
142.7775402911804
 30
0.0
 42
0.000013748868362
  0
VERTEX
  5
29D7
  8
0
 10
238.96812576325101
 20
142.36585900271839
 30
0.0
 42
0.0000243507676162
 70
     1
  0
VERTEX
  5
29D8
  8
0
 10
238.94945186738639
 20
142.13341513859649
 30
0.0
 42
0.0032652592734326
  0
VERTEX
  5
29D9
  8
0
 10
238.92822358794999
 20
141.8454529096775
 30
0.0
 42
0.0019107354889085
 70
     1
  0
VERTEX
  5
29DA
  8
0
 10
238.89704280656451
 20
141.35300803269641
 30
0.0
 42
0.0032291706202776
  0
VERTEX
  5
29DB
  8
0
 10
238.87743649302229
 20
140.98310320032709
 30
0.0
 42
0.0030151693015638
 70
     1
  0
VERTEX
  5
29DC
  8
0
 10
238.8613876379095
 20
140.58671360695101
 30
0.0
 42
0.0026535287424117
  0
VERTEX
  5
29DD
  8
0
 10
238.8600389051326
 20
140.54042323015119
 30
0.0
 42
0.00016598832968
 70
     1
  0
VERTEX
  5
29DE
  8
0
 10
238.84265111261629
 20
139.8003096795664
 30
0.0
 42
0.0042452409203615
  0
VERTEX
  5
29DF
  8
0
 10
238.84080423595469
 20
139.67439544502071
 30
0.0
 42
0.0016190026612786
 70
     1
  0
VERTEX
  5
29E0
  8
0
 10
238.83983404374339
 20
139.34420252381051
 30
0.0
  0
SEQEND
  5
29E1
  8
0
  0
LINE
  5
29E2
  8
0
 10
202.93731784218201
 20
144.9393988829016
 30
0.0
 11
203.21671784218231
 21
144.9393988829016
 31
0.0
  0
LINE
  5
29E3
  8
0
 10
202.93731784218201
 20
121.87619888290151
 30
0.0
 11
203.21671784218191
 21
121.87619888290151
 31
0.0
  0
LINE
  5
29E4
  8
0
 10
172.53331784218199
 20
96.90779888290173
 30
0.0
 11
172.78731784218189
 21
97.161798882901834
 31
0.0
  0
LINE
  5
29E5
  8
0
 10
172.78731784218189
 20
100.0702988829016
 30
0.0
 11
172.78731784218189
 21
97.161798882901834
 31
0.0
  0
LINE
  5
29E6
  8
0
 10
109.2873178421823
 20
97.161798882901635
 30
0.0
 11
109.5413178421822
 21
96.90779888290173
 31
0.0
  0
LINE
  5
29E7
  8
0
 10
109.2873178421823
 20
97.161798882901635
 30
0.0
 11
109.28731784218191
 21
100.0702988829016
 31
0.0
  0
LINE
  5
29E8
  8
0
 10
78.85791784218145
 20
121.87619888290151
 30
0.0
 11
79.137317842181801
 21
121.87619888290141
 31
0.0
  0
LINE
  5
29E9
  8
0
 10
78.857917842181905
 20
144.9393988829016
 30
0.0
 11
79.137317842181801
 21
144.9393988829016
 31
0.0
  0
POLYLINE
  5
29EA
  8
0
 66
     1
 10
0.0
 20
0.0
 30
0.0
 70
     2
  0
VERTEX
  5
29EB
  8
0
 10
42.987317842181263
 20
144.17198556511889
 30
0.0
 42
0.0047820553785002
  0
VERTEX
  5
29EC
  8
0
 10
43.008489419365098
 20
143.6401850156976
 30
0.0
 42
0.0079083148136327
 70
     1
  0
VERTEX
  5
29ED
  8
0
 10
43.029449058263253
 20
143.31902783717879
 30
0.0
 42
0.000038377744585
  0
VERTEX
  5
29EE
  8
0
 10
43.068040198867038
 20
142.8440104675237
 30
0.0
 42
-0.000221078591425
 70
     1
  0
VERTEX
  5
29EF
  8
0
 10
43.074709227636959
 20
142.7615482327771
 30
0.0
 42
-0.0000856746787669
  0
VERTEX
  5
29F0
  8
0
 10
43.11039268843205
 20
142.3169291130321
 30
0.0
 42
-0.0001720859410938
 70
     1
  0
VERTEX
  5
29F1
  8
0
 10
43.128043933793833
 20
142.0955619762841
 30
0.0
 42
-0.0028405800837948
  0
VERTEX
  5
29F2
  8
0
 10
43.144295880580557
 20
141.8749771687867
 30
0.0
 42
-0.0014721323708869
 70
     1
  0
VERTEX
  5
29F3
  8
0
 10
43.17198257678865
 20
141.4490915611118
 30
0.0
 42
-0.0031924720628915
  0
VERTEX
  5
29F4
  8
0
 10
43.191775587782097
 20
141.09339960444731
 30
0.0
 42
-0.0027701720398902
 70
     1
  0
VERTEX
  5
29F5
  8
0
 10
43.20969605479786
 20
140.68324220709451
 30
0.0
 42
-0.0027509294784213
  0
VERTEX
  5
29F6
  8
0
 10
43.210790686685407
 20
140.64969882054669
 30
0.0
 42
-0.000129133728924
 70
     1
  0
VERTEX
  5
29F7
  8
0
 10
43.229993045340947
 20
139.9350086379163
 30
0.0
 42
-0.0046161569138502
  0
VERTEX
  5
29F8
  8
0
 10
43.23319504271921
 20
139.7506982884438
 30
0.0
 42
-0.0020932883004141
 70
     1
  0
VERTEX
  5
29F9
  8
0
 10
43.23480164061948
 20
139.34420252381051
 30
0.0
  0
SEQEND
  5
29FA
  8
0
  0
LINE
  5
29FB
  8
0
 10
78.756317842181488
 20
105.7217988829015
 30
0.0
 11
62.03731784218234
 21
105.7217988829015
 31
0.0
  0
LINE
  5
29FC
  8
0
 10
203.318317842185
 20
105.7217988829015
 30
0.0
 11
220.03731784218149
 21
105.7217988829015
 31
0.0
  0
POLYLINE
  5
29FD
  8
0
 66
     1
 10
0.0
 20
0.0
 30
0.0
 70
     2
  0
VERTEX
  5
29FE
  8
0
 10
141.03731784219011
 20
185.79529888290179
 30
0.0
 42
-0.0022215046110859
  0
VERTEX
  5
29FF
  8
0
 10
142.51047862381839
 20
185.7881708061559
 30
0.0
 42
-0.0025826806593979
 70
     1
  0
VERTEX
  5
2A00
  8
0
 10
143.77750942172219
 20
185.76986481235619
 30
0.0
 42
-0.0000029705652762
  0
VERTEX
  5
2A01
  8
0
 10
144.22251438376179
 20
185.76113348123911
 30
0.0
 42
-0.0003223337692478
 70
     1
  0
VERTEX
  5
2A02
  8
0
 10
144.22661541036899
 20
185.76105034679691
 30
0.0
 42
-0.0014319022679207
  0
VERTEX
  5
2A03
  8
0
 10
144.7780346125837
 20
185.7479366093128
 30
0.0
 42
-0.0006585494590187
 70
     1
  0
VERTEX
  5
2A04
  8
0
 10
145.97686897678341
 20
185.71441060742291
 30
0.0
 42
-0.0022882755642715
  0
VERTEX
  5
2A05
  8
0
 10
146.52932014094449
 20
185.69570196405309
 30
0.0
 42
-0.0008744609347536
 70
     1
  0
VERTEX
  5
2A06
  8
0
 10
147.97462056863239
 20
185.63760240244869
 30
0.0
 42
-0.0044641244197082
  0
VERTEX
  5
2A07
  8
0
 10
150.3443720464056
 20
185.51698604549321
 30
0.0
 42
-0.0040088646722515
 70
     1
  0
VERTEX
  5
2A08
  8
0
 10
152.9805752207098
 20
185.33797628400771
 30
0.0
 42
-0.0019884492828487
  0
VERTEX
  5
2A09
  8
0
 10
154.829068229531
 20
185.19016214050041
 30
0.0
 42
-0.0026074890391209
 70
     1
  0
VERTEX
  5
2A0A
  8
0
 10
156.237621850842
 20
185.06448763919269
 30
0.0
 42
-0.0014553847590602
  0
VERTEX
  5
2A0B
  8
0
 10
157.86436538273389
 20
184.90601204295351
 30
0.0
 42
-0.0019481884412383
 70
     1
  0
VERTEX
  5
2A0C
  8
0
 10
159.07878427696369
 20
184.77935382679149
 30
0.0
 42
-0.0018833202051871
  0
VERTEX
  5
2A0D
  8
0
 10
159.2011876793463
 20
184.76563876575571
 30
0.0
 42
-0.0000701083662708
 70
     1
  0
VERTEX
  5
2A0E
  8
0
 10
162.48783269212069
 20
184.38436923499739
 30
0.0
 42
-0.0031977569657729
  0
VERTEX
  5
2A0F
  8
0
 10
163.19259963359579
 20
184.29794051134351
 30
0.0
 42
-0.0013444477576357
 70
     1
  0
VERTEX
  5
2A10
  8
0
 10
164.8669307861901
 20
184.07715312409749
 30
0.0
  0
SEQEND
  5
2A11
  8
0
  0
POLYLINE
  5
2A12
  8
0
 66
     1
 10
0.0
 20
0.0
 30
0.0
 70
     2
  0
VERTEX
  5
2A13
  8
0
 10
164.86219625670941
 20
168.4490068924828
 30
0.0
 42
-0.00040505448751
  0
VERTEX
  5
2A14
  8
0
 10
164.33840779301269
 20
168.3794103054943
 30
0.0
 42
-0.0008972590950809
 70
     1
  0
VERTEX
  5
2A15
  8
0
 10
164.1018699739206
 20
168.34860791219029
 30
0.0
 42
-0.0000049113461566
  0
VERTEX
  5
2A16
  8
0
 10
163.17927591606349
 20
168.23015851061979
 30
0.0
 42
-0.0004127770525928
 70
     1
  0
VERTEX
  5
2A17
  8
0
 10
163.16829743790089
 20
168.2287583343045
 30
0.0
 42
-0.0007022396198938
  0
VERTEX
  5
2A18
  8
0
 10
162.6859632609553
 20
168.16833506711879
 30
0.0
 42
-0.0005483107313014
 70
     1
  0
VERTEX
  5
2A19
  8
0
 10
162.06803048899559
 20
168.09249428589001
 30
0.0
 42
-0.0007547150283857
  0
VERTEX
  5
2A1A
  8
0
 10
161.586799033706
 20
168.0347038766779
 30
0.0
 42
-0.00050510091471
 70
     1
  0
VERTEX
  5
2A1B
  8
0
 10
160.86753437175321
 20
167.95016625927909
 30
0.0
 42
-0.0009024038823889
  0
VERTEX
  5
2A1C
  8
0
 10
160.4876355210663
 20
167.90659929373359
 30
0.0
 42
-0.0004173853258342
 70
     1
  0
VERTEX
  5
2A1D
  8
0
 10
159.6660336636823
 20
167.8145741790691
 30
0.0
 42
-0.0019101666600775
  0
VERTEX
  5
2A1E
  8
0
 10
158.48487690368751
 20
167.68784093925791
 30
0.0
 42
-0.0016025839942993
 70
     1
  0
VERTEX
  5
2A1F
  8
0
 10
157.07599669491441
 20
167.54667856739891
 30
0.0
 42
-0.0013885996015097
  0
VERTEX
  5
2A20
  8
0
 10
156.06293782643891
 20
167.45129314045789
 30
0.0
 42
-0.0013763582761281
 70
     1
  0
VERTEX
  5
2A21
  8
0
 10
155.04035231650269
 20
167.36071275347999
 30
0.0
 42
-0.0011926633117378
  0
VERTEX
  5
2A22
  8
0
 10
154.1953005801324
 20
167.29023229282569
 30
0.0
 42
-0.0011392914626175
 70
     1
  0
VERTEX
  5
2A23
  8
0
 10
153.3103267234992
 20
167.22057674011029
 30
0.0
 42
-0.0019132707671316
  0
VERTEX
  5
2A24
  8
0
 10
152.04677088014199
 20
167.12888163265751
 30
0.0
 42
-0.001931093709166
 70
     1
  0
VERTEX
  5
2A25
  8
0
 10
150.79421538186031
 20
167.0476608670723
 30
0.0
 42
-0.001038032415429
  0
VERTEX
  5
2A26
  8
0
 10
150.02552873194691
 20
167.00239824869891
 30
0.0
 42
-0.0011290954366491
 70
     1
  0
VERTEX
  5
2A27
  8
0
 10
149.31866380534211
 20
166.96384947184399
 30
0.0
 42
-0.0016710005666924
  0
VERTEX
  5
2A28
  8
0
 10
148.18469357293401
 20
166.90837602359281
 30
0.0
 42
-0.0017733574808553
 70
     1
  0
VERTEX
  5
2A29
  8
0
 10
147.11584017936229
 20
166.86346634078899
 30
0.0
 42
-0.00117171534301
  0
VERTEX
  5
2A2A
  8
0
 10
146.33459620788059
 20
166.83524972771329
 30
0.0
 42
-0.0011277339139965
 70
     1
  0
VERTEX
  5
2A2B
  8
0
 10
145.5227576959019
 20
166.80966595211041
 30
0.0
 42
-0.0014316999505767
  0
VERTEX
  5
2A2C
  8
0
 10
145.49865918549719
 20
166.8090299872768
 30
0.0
 42
-0.0000213011782341
 70
     1
  0
VERTEX
  5
2A2D
  8
0
 10
143.8788302148086
 20
166.77099250881679
 30
0.0
 42
-0.0036030482054569
  0
VERTEX
  5
2A2E
  8
0
 10
142.77025172880801
 20
166.75299934129501
 30
0.0
 42
-0.0022975247266284
 70
     1
  0
VERTEX
  5
2A2F
  8
0
 10
141.03154666618909
 20
166.74529975708739
 30
0.0
  0
SEQEND
  5
2A30
  8
0
  0
POLYLINE
  5
2A31
  8
0
 66
     1
 10
0.0
 20
0.0
 30
0.0
 70
     2
  0
VERTEX
  5
2A32
  8
0
 10
117.2071854813798
 20
168.4562254085142
 30
0.0
 42
0.00040505448751
  0
VERTEX
  5
2A33
  8
0
 10
117.7309528368332
 20
168.38647014359549
 30
0.0
 42
0.0008972590950809
 70
     1
  0
VERTEX
  5
2A34
  8
0
 10
117.9674813135202
 20
168.3555960928397
 30
0.0
 42
0.0000049113461566
  0
VERTEX
  5
2A35
  8
0
 10
118.89003944492831
 20
168.23686719787611
 30
0.0
 42
0.0004127770525928
 70
     1
  0
VERTEX
  5
2A36
  8
0
 10
118.9010174984046
 20
168.23546369570749
 30
0.0
 42
0.0007022396198938
  0
VERTEX
  5
2A37
  8
0
 10
119.3833333480561
 20
168.1748943087
 30
0.0
 42
0.0005483107313014
 70
     1
  0
VERTEX
  5
2A38
  8
0
 10
120.0012431157806
 20
168.09886632891551
 30
0.0
 42
0.0007547150283857
  0
VERTEX
  5
2A39
  8
0
 10
120.4824570414475
 20
168.04093013382911
 30
0.0
 42
0.00050510091471
 70
     1
  0
VERTEX
  5
2A3A
  8
0
 10
121.2016960598184
 20
167.95617461989221
 30
0.0
 42
0.0009024038823889
  0
VERTEX
  5
2A3B
  8
0
 10
121.5815816945087
 20
167.9124925664178
 30
0.0
 42
0.0004173853258342
 70
     1
  0
VERTEX
  5
2A3C
  8
0
 10
122.4031556352856
 20
167.8202185526209
 30
0.0
 42
0.0019101666600775
  0
VERTEX
  5
2A3D
  8
0
 10
123.58427394738639
 20
167.6931274885178
 30
0.0
 42
0.0016025839942993
 70
     1
  0
VERTEX
  5
2A3E
  8
0
 10
124.9931113265265
 20
167.55153830446741
 30
0.0
 42
0.0013885996015097
  0
VERTEX
  5
2A3F
  8
0
 10
126.0061412516061
 20
167.45584597686269
 30
0.0
 42
0.0013763582761281
 70
     1
  0
VERTEX
  5
2A40
  8
0
 10
127.0286992733909
 20
167.36495580291529
 30
0.0
 42
0.0011926633117378
  0
VERTEX
  5
2A41
  8
0
 10
127.8737296190065
 20
167.29421933802541
 30
0.0
 42
0.0011392914626175
 70
     1
  0
VERTEX
  5
2A42
  8
0
 10
128.7586823329579
 20
167.2242956866753
 30
0.0
 42
0.0019132707671316
  0
VERTEX
  5
2A43
  8
0
 10
130.02221033940259
 20
167.13221779061359
 30
0.0
 42
0.001931093709166
 70
     1
  0
VERTEX
  5
2A44
  8
0
 10
131.27474117446619
 20
167.05061756848099
 30
0.0
 42
0.001038032415429
  0
VERTEX
  5
2A45
  8
0
 10
132.0434140768466
 20
167.0051220794316
 30
0.0
 42
0.0011290954366491
 70
     1
  0
VERTEX
  5
2A46
  8
0
 10
132.7502672927057
 20
166.9663591604139
 30
0.0
 42
0.0016710005666924
  0
VERTEX
  5
2A47
  8
0
 10
133.88422066745801
 20
166.9105421797062
 30
0.0
 42
0.0017733574808553
 70
     1
  0
VERTEX
  5
2A48
  8
0
 10
134.95306040664349
 20
166.86530869103399
 30
0.0
 42
0.00117171534301
  0
VERTEX
  5
2A49
  8
0
 10
135.73429579408361
 20
166.83685540227361
 30
0.0
 42
0.0011277339139965
 70
     1
  0
VERTEX
  5
2A4A
  8
0
 10
136.54612651823209
 20
166.8110256822838
 30
0.0
 42
0.0014316999505767
  0
VERTEX
  5
2A4B
  8
0
 10
136.57022483486611
 20
166.81038241686289
 30
0.0
 42
0.0000213011782341
 70
     1
  0
VERTEX
  5
2A4C
  8
0
 10
138.1900422078111
 20
166.7718542147897
 30
0.0
 42
0.0036030482054569
  0
VERTEX
  5
2A4D
  8
0
 10
139.29861519193031
 20
166.75352520549239
 30
0.0
 42
0.0022975247266284
 70
     1
  0
VERTEX
  5
2A4E
  8
0
 10
141.03731784218141
 20
166.74529888290169
 30
0.0
  0
SEQEND
  5
2A4F
  8
0
  0
POLYLINE
  5
2A50
  8
0
 66
     1
 10
0.0
 20
0.0
 30
0.0
 70
     2
  0
VERTEX
  5
2A51
  8
0
 10
141.03731784218101
 20
185.79529888290179
 30
0.0
 42
0.0022215046110859
  0
VERTEX
  5
2A52
  8
0
 10
139.56415496871159
 20
185.788617098879
 30
0.0
 42
0.0025826806593979
 70
     1
  0
VERTEX
  5
2A53
  8
0
 10
138.29711868317051
 20
185.77069495146969
 30
0.0
 42
0.0000029705652762
  0
VERTEX
  5
2A54
  8
0
 10
137.85211109640471
 20
185.7620984345044
 30
0.0
 42
0.0003223337692478
 70
     1
  0
VERTEX
  5
2A55
  8
0
 10
137.8480100448005
 20
185.76201654246731
 30
0.0
 42
0.0014319022679207
  0
VERTEX
  5
2A56
  8
0
 10
137.29658689509779
 20
185.74906985741009
 30
0.0
 42
0.0006585494590187
 70
     1
  0
VERTEX
  5
2A57
  8
0
 10
136.09774242924681
 20
185.71590704257639
 30
0.0
 42
0.0022882755642715
  0
VERTEX
  5
2A58
  8
0
 10
135.54528562267481
 20
185.69736576452169
 30
0.0
 42
0.0008744609347536
 70
     1
  0
VERTEX
  5
2A59
  8
0
 10
134.09996766011361
 20
185.6397040577169
 30
0.0
 42
0.0044641244197082
  0
VERTEX
  5
2A5A
  8
0
 10
131.73017975049689
 20
185.51980561983211
 30
0.0
 42
0.0040088646722515
 70
     1
  0
VERTEX
  5
2A5B
  8
0
 10
129.0939224663602
 20
185.3415945013376
 30
0.0
 42
0.0019884492828487
  0
VERTEX
  5
2A5C
  8
0
 10
127.2453847622364
 20
185.19434036348409
 30
0.0
 42
0.0026074890391209
 70
     1
  0
VERTEX
  5
2A5D
  8
0
 10
125.8367931326143
 20
185.06909258767351
 30
0.0
 42
0.0014553847590602
  0
VERTEX
  5
2A5E
  8
0
 10
124.2100016653694
 20
184.9111098188236
 30
0.0
 42
0.0019481884412383
 70
     1
  0
VERTEX
  5
2A5F
  8
0
 10
122.9955444559041
 20
184.78481951530739
 30
0.0
 42
0.0018833202051871
  0
VERTEX
  5
2A60
  8
0
 10
122.87313690417611
 20
184.7711415368735
 30
0.0
 42
0.0000701083662708
 70
     1
  0
VERTEX
  5
2A61
  8
0
 10
119.58637653704859
 20
184.3908677090086
 30
0.0
 42
0.0031977569657729
  0
VERTEX
  5
2A62
  8
0
 10
118.88158344443031
 20
184.3046524976703
 30
0.0
 42
0.0013444477576357
 70
     1
  0
VERTEX
  5
2A63
  8
0
 10
117.2071854813798
 20
184.0843723572892
 30
0.0
  0
SEQEND
  5
2A64
  8
0
  0
POLYLINE
  5
2A65
  8
0
 66
     1
 10
0.0
 20
0.0
 30
0.0
 70
     2
  0
VERTEX
  5
2A66
  8
0
 10
188.69758256379319
 20
168.45622540851741
 30
0.0
 42
-0.003133598759561
  0
VERTEX
  5
2A67
  8
0
 10
187.84677363851
 20
168.23341090708971
 30
0.0
 42
-0.0043671986787608
 70
     1
  0
VERTEX
  5
2A68
  8
0
 10
187.2339569112182
 20
168.08270908103191
 30
0.0
 42
-0.0000379870416895
  0
VERTEX
  5
2A69
  8
0
 10
186.66410237649691
 20
167.9478852184609
 30
0.0
 42
-0.0008123816828925
 70
     1
  0
VERTEX
  5
2A6A
  8
0
 10
186.63744522531579
 20
167.9416261659141
 30
0.0
 42
-0.0045471343662588
  0
VERTEX
  5
2A6B
  8
0
 10
185.96351768765089
 20
167.7909923709687
 30
0.0
 42
-0.0029422185132152
 70
     1
  0
VERTEX
  5
2A6C
  8
0
 10
184.91861990135931
 20
167.57382011955741
 30
0.0
 42
-0.0056570978663731
  0
VERTEX
  5
2A6D
  8
0
 10
184.18318358566279
 20
167.4341156207648
 30
0.0
 42
-0.0043014809461779
 70
     1
  0
VERTEX
  5
2A6E
  8
0
 10
183.21251940673659
 20
167.2696843725243
 30
0.0
 42
-0.0061521058814442
  0
VERTEX
  5
2A6F
  8
0
 10
182.15582948028711
 20
167.11332953221759
 30
0.0
 42
-0.0065271965694485
 70
     1
  0
VERTEX
  5
2A70
  8
0
 10
181.1564419170831
 20
166.99125982193181
 30
0.0
 42
-0.0037457422533706
  0
VERTEX
  5
2A71
  8
0
 10
180.3954297395357
 20
166.9141376219599
 30
0.0
 42
-0.0044975869361216
 70
     1
  0
VERTEX
  5
2A72
  8
0
 10
179.7606564194748
 20
166.86036470015711
 30
0.0
 42
-0.0043809683225978
  0
VERTEX
  5
2A73
  8
0
 10
179.6613548887762
 20
166.85372613721091
 30
0.0
 42
-0.0003183738406374
 70
     1
  0
VERTEX
  5
2A74
  8
0
 10
178.29414873113771
 20
166.77522445277029
 30
0.0
 42
-0.0092311618995719
  0
VERTEX
  5
2A75
  8
0
 10
177.77416474177511
 20
166.7553221982057
 30
0.0
 42
-0.0048434800830956
 70
     1
  0
VERTEX
  5
2A76
  8
0
 10
176.78251638339361
 20
166.74529888290431
 30
0.0
  0
SEQEND
  5
2A77
  8
0
  0
POLYLINE
  5
2A78
  8
0
 66
     1
 10
0.0
 20
0.0
 30
0.0
 70
     2
  0
VERTEX
  5
2A79
  8
0
 10
176.7825163833877
 20
166.74529888290431
 30
0.0
 42
-0.0056524153263261
  0
VERTEX
  5
2A7A
  8
0
 10
175.8044303717943
 20
166.75670817137811
 30
0.0
 42
-0.0070941970543249
 70
     1
  0
VERTEX
  5
2A7B
  8
0
 10
175.02559527147559
 20
166.78566086819501
 30
0.0
 42
-0.0000362173518968
  0
VERTEX
  5
2A7C
  8
0
 10
174.5778875212709
 20
166.80870134260829
 30
0.0
 42
-0.0014437941042693
 70
     1
  0
VERTEX
  5
2A7D
  8
0
 10
174.56665857818189
 20
166.80931255108629
 30
0.0
 42
-0.0034380736016854
  0
VERTEX
  5
2A7E
  8
0
 10
174.14390683778041
 20
166.8364657584433
 30
0.0
 42
-0.0021598226732102
 70
     1
  0
VERTEX
  5
2A7F
  8
0
 10
173.4714882271596
 20
166.88722003802971
 30
0.0
 42
-0.004946713686717
  0
VERTEX
  5
2A80
  8
0
 10
173.0517065766835
 20
166.92491242498789
 30
0.0
 42
-0.0025983007003073
 70
     1
  0
VERTEX
  5
2A81
  8
0
 10
172.25370309047551
 20
167.0087218246824
 30
0.0
 42
-0.0074341936853969
  0
VERTEX
  5
2A82
  8
0
 10
171.2811368151379
 20
167.13063829935589
 30
0.0
 42
-0.0059725269310355
 70
     1
  0
VERTEX
  5
2A83
  8
0
 10
170.07507998044181
 20
167.3147889785009
 30
0.0
 42
-0.0053391360249444
  0
VERTEX
  5
2A84
  8
0
 10
169.04393030181379
 20
167.4961918819576
 30
0.0
 42
-0.0058921358276826
 70
     1
  0
VERTEX
  5
2A85
  8
0
 10
168.11347994089331
 20
167.68151549431079
 30
0.0
 42
-0.0039952432185719
  0
VERTEX
  5
2A86
  8
0
 10
167.88589703234899
 20
167.73154261102491
 30
0.0
 42
-0.0004814716778917
 70
     1
  0
VERTEX
  5
2A87
  8
0
 10
166.0012402558682
 20
168.1635513368791
 30
0.0
 42
-0.0065822722027608
  0
VERTEX
  5
2A88
  8
0
 10
165.69008218889209
 20
168.2395183970377
 30
0.0
 42
-0.00247820961655
 70
     1
  0
VERTEX
  5
2A89
  8
0
 10
164.8674502029921
 20
168.45622540851599
 30
0.0
  0
SEQEND
  5
2A8A
  8
0
  0
POLYLINE
  5
2A8B
  8
0
 66
     1
 10
0.0
 20
0.0
 30
0.0
 70
     2
  0
VERTEX
  5
2A8C
  8
0
 10
188.69758256379191
 20
184.08437235729281
 30
0.0
 42
0.003133598759561
  0
VERTEX
  5
2A8D
  8
0
 10
187.84677363850909
 20
184.3071868587206
 30
0.0
 42
0.0043671986787608
 70
     1
  0
VERTEX
  5
2A8E
  8
0
 10
187.23395691121729
 20
184.4578886847782
 30
0.0
 42
0.0000379870416895
  0
VERTEX
  5
2A8F
  8
0
 10
186.664102376496
 20
184.59271254734901
 30
0.0
 42
0.0008123816828925
 70
     1
  0
VERTEX
  5
2A90
  8
0
 10
186.63744522531491
 20
184.5989715998958
 30
0.0
 42
0.0045471343662588
  0
VERTEX
  5
2A91
  8
0
 10
185.96351768765001
 20
184.7496053948411
 30
0.0
 42
0.0029422185132152
 70
     1
  0
VERTEX
  5
2A92
  8
0
 10
184.9186199013584
 20
184.96677764625221
 30
0.0
 42
0.0056570978663731
  0
VERTEX
  5
2A93
  8
0
 10
184.18318358566191
 20
185.10648214504491
 30
0.0
 42
0.0043014809461779
 70
     1
  0
VERTEX
  5
2A94
  8
0
 10
183.21251940673531
 20
185.2709133932853
 30
0.0
 42
0.0061521058814442
  0
VERTEX
  5
2A95
  8
0
 10
182.1558294802862
 20
185.4272682335918
 30
0.0
 42
0.0065271965694485
 70
     1
  0
VERTEX
  5
2A96
  8
0
 10
181.15644191708179
 20
185.54933794387759
 30
0.0
 42
0.0037457422533706
  0
VERTEX
  5
2A97
  8
0
 10
180.39542973953479
 20
185.62646014384941
 30
0.0
 42
0.0044975869361216
 70
     1
  0
VERTEX
  5
2A98
  8
0
 10
179.76065641947341
 20
185.68023306565209
 30
0.0
 42
0.0043809683225978
  0
VERTEX
  5
2A99
  8
0
 10
179.66135488877529
 20
185.686871628598
 30
0.0
 42
0.0003183738406374
 70
     1
  0
VERTEX
  5
2A9A
  8
0
 10
178.29414873113629
 20
185.76537331303851
 30
0.0
 42
0.0092311618995719
  0
VERTEX
  5
2A9B
  8
0
 10
177.7741647417742
 20
185.78527556760309
 30
0.0
 42
0.0048434800830956
 70
     1
  0
VERTEX
  5
2A9C
  8
0
 10
176.78251638339219
 20
185.79529888290421
 30
0.0
  0
SEQEND
  5
2A9D
  8
0
  0
POLYLINE
  5
2A9E
  8
0
 66
     1
 10
0.0
 20
0.0
 30
0.0
 70
     2
  0
VERTEX
  5
2A9F
  8
0
 10
176.78251638338631
 20
185.79529888290421
 30
0.0
 42
0.0056524153263261
  0
VERTEX
  5
2AA0
  8
0
 10
175.80443037179339
 20
185.78388959443041
 30
0.0
 42
0.0070941970543249
 70
     1
  0
VERTEX
  5
2AA1
  8
0
 10
175.0255952714742
 20
185.75493689761339
 30
0.0
 42
0.0000362173518968
  0
VERTEX
  5
2AA2
  8
0
 10
174.57788752126999
 20
185.7318964232
 30
0.0
 42
0.0014437941042693
 70
     1
  0
VERTEX
  5
2AA3
  8
0
 10
174.56665857818001
 20
185.73128521472199
 30
0.0
 42
0.0034380736016854
  0
VERTEX
  5
2AA4
  8
0
 10
174.14390683777941
 20
185.70413200736499
 30
0.0
 42
0.0021598226732102
 70
     1
  0
VERTEX
  5
2AA5
  8
0
 10
173.4714882271582
 20
185.6533777277786
 30
0.0
 42
0.004946713686717
  0
VERTEX
  5
2AA6
  8
0
 10
173.05170657668259
 20
185.61568534082011
 30
0.0
 42
0.0025983007003073
 70
     1
  0
VERTEX
  5
2AA7
  8
0
 10
172.25370309047409
 20
185.53187594112569
 30
0.0
 42
0.0074341936853969
  0
VERTEX
  5
2AA8
  8
0
 10
171.2811368151369
 20
185.40995946645199
 30
0.0
 42
0.0059725269310355
 70
     1
  0
VERTEX
  5
2AA9
  8
0
 10
170.07507998044051
 20
185.2258087873069
 30
0.0
 42
0.0053391360249444
  0
VERTEX
  5
2AAA
  8
0
 10
169.04393030181291
 20
185.04440588385
 30
0.0
 42
0.0058921358276826
 70
     1
  0
VERTEX
  5
2AAB
  8
0
 10
168.11347994089189
 20
184.85908227149659
 30
0.0
 42
0.0039952432185719
  0
VERTEX
  5
2AAC
  8
0
 10
167.88589703234811
 20
184.80905515478261
 30
0.0
 42
0.0004814716778917
 70
     1
  0
VERTEX
  5
2AAD
  8
0
 10
166.0012402558668
 20
184.377046428928
 30
0.0
 42
0.0065822722027608
  0
VERTEX
  5
2AAE
  8
0
 10
165.69008218889121
 20
184.30107936876939
 30
0.0
 42
0.00247820961655
 70
     1
  0
VERTEX
  5
2AAF
  8
0
 10
164.86745020299119
 20
184.0843723572909
 30
0.0
  0
SEQEND
  5
2AB0
  8
0
  0
POLYLINE
  5
2AB1
  8
0
 66
     1
 10
0.0
 20
0.0
 30
0.0
 70
     2
  0
VERTEX
  5
2AB2
  8
0
 10
93.377053120579149
 20
168.456225408514
 30
0.0
 42
0.003133598759561
  0
VERTEX
  5
2AB3
  8
0
 10
94.227862045861912
 20
168.23341090708641
 30
0.0
 42
0.0043671986787608
 70
     1
  0
VERTEX
  5
2AB4
  8
0
 10
94.840678773153726
 20
168.08270908102861
 30
0.0
 42
0.0000379870416895
  0
VERTEX
  5
2AB5
  8
0
 10
95.410533307875085
 20
167.94788521845771
 30
0.0
 42
0.0008123816828925
 70
     1
  0
VERTEX
  5
2AB6
  8
0
 10
95.437190459056183
 20
167.94162616591089
 30
0.0
 42
0.0045471343662588
  0
VERTEX
  5
2AB7
  8
0
 10
96.111117996721092
 20
167.79099237096551
 30
0.0
 42
0.0029422185132152
 70
     1
  0
VERTEX
  5
2AB8
  8
0
 10
97.156015783012677
 20
167.5738201195544
 30
0.0
 42
0.0056570978663731
  0
VERTEX
  5
2AB9
  8
0
 10
97.891452098709124
 20
167.4341156207617
 30
0.0
 42
0.0043014809461779
 70
     1
  0
VERTEX
  5
2ABA
  8
0
 10
98.862116277635792
 20
167.2696843725212
 30
0.0
 42
0.0061521058814442
  0
VERTEX
  5
2ABB
  8
0
 10
99.918806204084831
 20
167.11332953221469
 30
0.0
 42
0.0065271965694485
 70
     1
  0
VERTEX
  5
2ABC
  8
0
 10
100.9181937672888
 20
166.99125982192891
 30
0.0
 42
0.0037457422533706
  0
VERTEX
  5
2ABD
  8
0
 10
101.6792059448362
 20
166.914137621957
 30
0.0
 42
0.0044975869361216
 70
     1
  0
VERTEX
  5
2ABE
  8
0
 10
102.3139792648972
 20
166.86036470015421
 30
0.0
 42
0.0043809683225978
  0
VERTEX
  5
2ABF
  8
0
 10
102.4132807955957
 20
166.85372613720821
 30
0.0
 42
0.0003183738406374
 70
     1
  0
VERTEX
  5
2AC0
  8
0
 10
103.7804869532347
 20
166.7752244527677
 30
0.0
 42
0.0092311618995719
  0
VERTEX
  5
2AC1
  8
0
 10
104.3004709425968
 20
166.75532219820289
 30
0.0
 42
0.0048434800830956
 70
     1
  0
VERTEX
  5
2AC2
  8
0
 10
105.2921193009788
 20
166.74529888290181
 30
0.0
  0
SEQEND
  5
2AC3
  8
0
  0
POLYLINE
  5
2AC4
  8
0
 66
     1
 10
0.0
 20
0.0
 30
0.0
 70
     2
  0
VERTEX
  5
2AC5
  8
0
 10
105.2921193009842
 20
166.74529888290181
 30
0.0
 42
0.0056524153263261
  0
VERTEX
  5
2AC6
  8
0
 10
106.2702053125776
 20
166.75670817137561
 30
0.0
 42
0.0070941970543249
 70
     1
  0
VERTEX
  5
2AC7
  8
0
 10
107.0490404128968
 20
166.78566086819251
 30
0.0
 42
0.0000362173518968
  0
VERTEX
  5
2AC8
  8
0
 10
107.4967481631011
 20
166.8087013426059
 30
0.0
 42
0.0014437941042693
 70
     1
  0
VERTEX
  5
2AC9
  8
0
 10
107.50797710619049
 20
166.80931255108379
 30
0.0
 42
0.0034380736016854
  0
VERTEX
  5
2ACA
  8
0
 10
107.93072884659161
 20
166.83646575844091
 30
0.0
 42
0.0021598226732102
 70
     1
  0
VERTEX
  5
2ACB
  8
0
 10
108.6031474572123
 20
166.88722003802729
 30
0.0
 42
0.004946713686717
  0
VERTEX
  5
2ACC
  8
0
 10
109.0229291076884
 20
166.92491242498571
 30
0.0
 42
0.0025983007003073
 70
     1
  0
VERTEX
  5
2ACD
  8
0
 10
109.8209325938969
 20
167.00872182468009
 30
0.0
 42
0.0074341936853969
  0
VERTEX
  5
2ACE
  8
0
 10
110.7934988692341
 20
167.13063829935371
 30
0.0
 42
0.0059725269310355
 70
     1
  0
VERTEX
  5
2ACF
  8
0
 10
111.9995557039301
 20
167.31478897849891
 30
0.0
 42
0.0053391360249444
  0
VERTEX
  5
2AD0
  8
0
 10
113.0307053825581
 20
167.49619188195561
 30
0.0
 42
0.0058921358276826
 70
     1
  0
VERTEX
  5
2AD1
  8
0
 10
113.9611557434787
 20
167.68151549430891
 30
0.0
 42
0.0039952432185719
  0
VERTEX
  5
2AD2
  8
0
 10
114.18873865202291
 20
167.7315426110228
 30
0.0
 42
0.0004814716778917
 70
     1
  0
VERTEX
  5
2AD3
  8
0
 10
116.0733954285037
 20
168.16355133687739
 30
0.0
 42
0.0065822722027608
  0
VERTEX
  5
2AD4
  8
0
 10
116.38455349547981
 20
168.23951839703591
 30
0.0
 42
0.00247820961655
 70
     1
  0
VERTEX
  5
2AD5
  8
0
 10
117.2071854813798
 20
168.4562254085144
 30
0.0
  0
SEQEND
  5
2AD6
  8
0
  0
POLYLINE
  5
2AD7
  8
0
 66
     1
 10
0.0
 20
0.0
 30
0.0
 70
     2
  0
VERTEX
  5
2AD8
  8
0
 10
105.2921193009842
 20
185.7952988829017
 30
0.0
 42
-0.0056524153263261
  0
VERTEX
  5
2AD9
  8
0
 10
106.2702053125776
 20
185.7838895944279
 30
0.0
 42
-0.0070941970543249
 70
     1
  0
VERTEX
  5
2ADA
  8
0
 10
107.0490404128968
 20
185.754936897611
 30
0.0
 42
-0.0000362173518968
  0
VERTEX
  5
2ADB
  8
0
 10
107.4967481631011
 20
185.73189642319761
 30
0.0
 42
-0.0014437941042693
 70
     1
  0
VERTEX
  5
2ADC
  8
0
 10
107.50797710619049
 20
185.73128521471969
 30
0.0
 42
-0.0034380736016854
  0
VERTEX
  5
2ADD
  8
0
 10
107.93072884659161
 20
185.7041320073626
 30
0.0
 42
-0.0021598226732102
 70
     1
  0
VERTEX
  5
2ADE
  8
0
 10
108.6031474572123
 20
185.65337772777619
 30
0.0
 42
-0.004946713686717
  0
VERTEX
  5
2ADF
  8
0
 10
109.0229291076884
 20
185.61568534081789
 30
0.0
 42
-0.0025983007003073
 70
     1
  0
VERTEX
  5
2AE0
  8
0
 10
109.8209325938969
 20
185.53187594112339
 30
0.0
 42
-0.0074341936853969
  0
VERTEX
  5
2AE1
  8
0
 10
110.7934988692341
 20
185.40995946644989
 30
0.0
 42
-0.0059725269310355
 70
     1
  0
VERTEX
  5
2AE2
  8
0
 10
111.9995557039301
 20
185.2258087873048
 30
0.0
 42
-0.0053391360249444
  0
VERTEX
  5
2AE3
  8
0
 10
113.0307053825581
 20
185.0444058838479
 30
0.0
 42
-0.0058921358276826
 70
     1
  0
VERTEX
  5
2AE4
  8
0
 10
113.9611557434787
 20
184.8590822714948
 30
0.0
 42
-0.0039952432185719
  0
VERTEX
  5
2AE5
  8
0
 10
114.18873865202291
 20
184.80905515478071
 30
0.0
 42
-0.0004814716778917
 70
     1
  0
VERTEX
  5
2AE6
  8
0
 10
116.0733954285037
 20
184.37704642892629
 30
0.0
 42
-0.0065822722027608
  0
VERTEX
  5
2AE7
  8
0
 10
116.38455349547981
 20
184.3010793687676
 30
0.0
 42
-0.00247820961655
 70
     1
  0
VERTEX
  5
2AE8
  8
0
 10
117.2071854813798
 20
184.0843723572892
 30
0.0
  0
SEQEND
  5
2AE9
  8
0
  0
POLYLINE
  5
2AEA
  8
0
 66
     1
 10
0.0
 20
0.0
 30
0.0
 70
     2
  0
VERTEX
  5
2AEB
  8
0
 10
93.377053120579149
 20
184.0843723572894
 30
0.0
 42
-0.003133598759561
  0
VERTEX
  5
2AEC
  8
0
 10
94.227862045861912
 20
184.3071868587171
 30
0.0
 42
-0.0043671986787608
 70
     1
  0
VERTEX
  5
2AED
  8
0
 10
94.840678773153726
 20
184.45788868477479
 30
0.0
 42
-0.0000379870416895
  0
VERTEX
  5
2AEE
  8
0
 10
95.410533307875085
 20
184.5927125473458
 30
0.0
 42
-0.0008123816828925
 70
     1
  0
VERTEX
  5
2AEF
  8
0
 10
95.437190459056183
 20
184.59897159989259
 30
0.0
 42
-0.0045471343662588
  0
VERTEX
  5
2AF0
  8
0
 10
96.111117996721092
 20
184.749605394838
 30
0.0
 42
-0.0029422185132152
 70
     1
  0
VERTEX
  5
2AF1
  8
0
 10
97.156015783012677
 20
184.966777646249
 30
0.0
 42
-0.0056570978663731
  0
VERTEX
  5
2AF2
  8
0
 10
97.891452098709124
 20
185.10648214504181
 30
0.0
 42
-0.0043014809461779
 70
     1
  0
VERTEX
  5
2AF3
  8
0
 10
98.862116277635792
 20
185.27091339328231
 30
0.0
 42
-0.0061521058814442
  0
VERTEX
  5
2AF4
  8
0
 10
99.918806204084831
 20
185.42726823358879
 30
0.0
 42
-0.0065271965694485
 70
     1
  0
VERTEX
  5
2AF5
  8
0
 10
100.9181937672888
 20
185.5493379438746
 30
0.0
 42
-0.0037457422533706
  0
VERTEX
  5
2AF6
  8
0
 10
101.6792059448362
 20
185.62646014384649
 30
0.0
 42
-0.0044975869361216
 70
     1
  0
VERTEX
  5
2AF7
  8
0
 10
102.3139792648972
 20
185.6802330656493
 30
0.0
 42
-0.0043809683225978
  0
VERTEX
  5
2AF8
  8
0
 10
102.4132807955957
 20
185.6868716285953
 30
0.0
 42
-0.0003183738406374
 70
     1
  0
VERTEX
  5
2AF9
  8
0
 10
103.7804869532347
 20
185.76537331303581
 30
0.0
 42
-0.0092311618995719
  0
VERTEX
  5
2AFA
  8
0
 10
104.3004709425968
 20
185.78527556760059
 30
0.0
 42
-0.0048434800830956
 70
     1
  0
VERTEX
  5
2AFB
  8
0
 10
105.2921193009788
 20
185.7952988829017
 30
0.0
  0
SEQEND
  5
2AFC
  8
0
  0
LINE
  5
2AFD
  8
0
 10
188.69758256378509
 20
184.08437235728931
 30
0.0
 11
182.3123178421815
 21
185.7952988829017
 31
0.0
  0
LINE
  5
2AFE
  8
0
 10
182.3123178421811
 20
166.74529888290189
 30
0.0
 11
188.69758256378461
 21
168.45622540851451
 31
0.0
  0
LINE
  5
2AFF
  8
0
 10
99.762317842181801
 20
166.74529888290169
 30
0.0
 11
93.377053120578239
 21
168.4562254085142
 31
0.0
  0
LINE
  5
2B00
  8
0
 10
93.377053120578239
 20
184.0843723572892
 30
0.0
 11
99.762317842181361
 21
185.7952988829017
 31
0.0
  0
LINE
  5
2B01
  8
0
 10
106.2230966100478
 20
654.68670266415597
 30
0.0
 11
117.2071854813798
 21
635.66170266415668
 31
0.0
  0
LINE
  5
2B02
  8
0
 10
117.2071854813798
 20
635.66170266415668
 30
0.0
 11
164.86745020298301
 21
635.66170266415668
 31
0.0
  0
LINE
  5
2B03
  8
0
 10
175.85153907431501
 20
654.68670266415575
 30
0.0
 11
164.86745020298301
 21
635.66170266415668
 31
0.0
  0
LINE
  5
2B04
  8
0
 10
175.85153907431589
 20
699.18670266415609
 30
0.0
 11
164.86745020298301
 21
718.21170266415641
 31
0.0
  0
LINE
  5
2B05
  8
0
 10
106.22309661004689
 20
699.18670266415609
 30
0.0
 11
117.2071854813798
 21
718.21170266415641
 31
0.0
  0
LINE
  5
2B06
  8
0
 10
117.2071854813798
 20
718.21170266415641
 30
0.0
 11
164.86745020298301
 21
718.21170266415641
 31
0.0
  0
POLYLINE
  5
2B07
  8
0
 66
     1
 10
0.0
 20
0.0
 30
0.0
 70
     2
  0
VERTEX
  5
2B08
  8
0
 10
239.08731784218159
 20
672.36012359673373
 30
0.0
 42
-0.0037759239203916
  0
VERTEX
  5
2B09
  8
0
 10
239.07937534720941
 20
671.62611997193699
 30
0.0
 42
-0.0072076803035154
 70
     1
  0
VERTEX
  5
2B0A
  8
0
 10
239.0667688230628
 20
671.24176346156401
 30
0.0
 42
-0.0001082146330778
  0
VERTEX
  5
2B0B
  8
0
 10
239.01845402860451
 20
670.22363245394035
 30
0.0
 42
-0.0037576025976029
 70
     1
  0
VERTEX
  5
2B0C
  8
0
 10
239.01683594087811
 20
670.19432267245475
 30
0.0
 42
-0.0002469243526063
  0
VERTEX
  5
2B0D
  8
0
 10
238.9872707695431
 20
669.72684153894033
 30
0.0
 42
-0.0002792575951481
 70
     1
  0
VERTEX
  5
2B0E
  8
0
 10
238.9606937526323
 20
669.31351443969277
 30
0.0
 42
-0.000583733015297
  0
VERTEX
  5
2B0F
  8
0
 10
238.92747494187279
 20
668.81045458446761
 30
0.0
 42
0.0006345882373157
 70
     1
  0
VERTEX
  5
2B10
  8
0
 10
238.8942561311132
 20
668.30739472924233
 30
0.0
 42
0.0033461899550706
  0
VERTEX
  5
2B11
  8
0
 10
238.892481458628
 20
668.27681870080357
 30
0.0
 42
0.0001337840180009
 70
     1
  0
VERTEX
  5
2B12
  8
0
 10
238.8534177286719
 20
667.51177285515655
 30
0.0
 42
0.0074904447215183
  0
VERTEX
  5
2B13
  8
0
 10
238.84606866830751
 20
667.30639671016934
 30
0.0
 42
0.0034356815952092
 70
     1
  0
VERTEX
  5
2B14
  8
0
 10
238.83983404374339
 20
666.85841398491152
 30
0.0
  0
SEQEND
  5
2B15
  8
0
  0
POLYLINE
  5
2B16
  8
0
 66
     1
 10
0.0
 20
0.0
 30
0.0
 70
     2
  0
VERTEX
  5
2B17
  8
0
 10
238.83983404374339
 20
687.01499134340213
 30
0.0
 42
0.0041467545584605
  0
VERTEX
  5
2B18
  8
0
 10
238.85487003695019
 20
686.32795480685979
 30
0.0
 42
0.0077793310197355
 70
     1
  0
VERTEX
  5
2B19
  8
0
 10
238.87161764345549
 20
685.96201102479165
 30
0.0
 42
0.000020170886446
  0
VERTEX
  5
2B1A
  8
0
 10
238.92578731773031
 20
685.07990259971075
 30
0.0
 42
0.0004035773684354
 70
     1
  0
VERTEX
  5
2B1B
  8
0
 10
238.92853209392609
 20
685.03581692794785
 30
0.0
 42
0.0008857045271168
  0
VERTEX
  5
2B1C
  8
0
 10
238.98875519317929
 20
684.10715079608042
 30
0.0
 42
-0.0014738962766029
 70
     1
  0
VERTEX
  5
2B1D
  8
0
 10
239.02428843018879
 20
683.54904699148642
 30
0.0
 42
-0.0030806169941704
  0
VERTEX
  5
2B1E
  8
0
 10
239.0406790000188
 20
683.24845102181962
 30
0.0
 42
-0.0020898852964754
 70
     1
  0
VERTEX
  5
2B1F
  8
0
 10
239.06025632568571
 20
682.80513055121116
 30
0.0
 42
-0.0028369833055159
  0
VERTEX
  5
2B20
  8
0
 10
239.0617013911515
 20
682.76299017190422
 30
0.0
 42
-0.0001574749342309
 70
     1
  0
VERTEX
  5
2B21
  8
0
 10
239.0831876535494
 20
682.00367567207809
 30
0.0
 42
-0.0048881479265335
  0
VERTEX
  5
2B22
  8
0
 10
239.0856996433904
 20
681.86565587014729
 30
0.0
 42
-0.0019148742840432
 70
     1
  0
VERTEX
  5
2B23
  8
0
 10
239.08731784218119
 20
681.5132817315797
 30
0.0
  0
SEQEND
  5
2B24
  8
0
  0
POLYLINE
  5
2B25
  8
0
 66
     1
 10
0.0
 20
0.0
 30
0.0
 70
     2
  0
VERTEX
  5
2B26
  8
0
 10
42.987317842181263
 20
672.36012359673373
 30
0.0
 42
0.0138962190794718
  0
VERTEX
  5
2B27
  8
0
 10
42.966560162382841
 20
671.61338553547046
 30
0.0
 42
0.0209329441798326
 70
     1
  0
VERTEX
  5
2B28
  8
0
 10
42.987317842181263
 20
671.11778912411717
 30
0.0
 42
0.0014100389049529
  0
VERTEX
  5
2B29
  8
0
 10
43.033549827907791
 20
670.58489433110356
 30
0.0
 42
-0.0064523006932169
 70
     1
  0
VERTEX
  5
2B2A
  8
0
 10
43.042478518138971
 20
670.46833879390795
 30
0.0
 42
-0.0010429365516694
  0
VERTEX
  5
2B2B
  8
0
 10
43.080661379037331
 20
669.84790807726415
 30
0.0
 42
0.0012744478932155
 70
     1
  0
VERTEX
  5
2B2C
  8
0
 10
43.112143188701793
 20
669.34019668929375
 30
0.0
 42
0.0007614028649165
  0
VERTEX
  5
2B2D
  8
0
 10
43.146267602697201
 20
668.82390876762213
 30
0.0
 42
-0.001174000204153
 70
     1
  0
VERTEX
  5
2B2E
  8
0
 10
43.180392016692622
 20
668.30762084595051
 30
0.0
 42
-0.0028327347887669
  0
VERTEX
  5
2B2F
  8
0
 10
43.181841827913097
 20
668.28264620399523
 30
0.0
 42
-0.0001008446670411
 70
     1
  0
VERTEX
  5
2B30
  8
0
 10
43.21845013647998
 20
667.58088526608867
 30
0.0
 42
-0.007322266822615
  0
VERTEX
  5
2B31
  8
0
 10
43.227488247040128
 20
667.33851441291279
 30
0.0
 42
-0.003698519160729
 70
     1
  0
VERTEX
  5
2B32
  8
0
 10
43.23480164061948
 20
666.85841398491152
 30
0.0
  0
SEQEND
  5
2B33
  8
0
  0
POLYLINE
  5
2B34
  8
0
 66
     1
 10
0.0
 20
0.0
 30
0.0
 70
     2
  0
VERTEX
  5
2B35
  8
0
 10
43.23480164061948
 20
687.01499134340202
 30
0.0
 42
-0.0040413799998157
  0
VERTEX
  5
2B36
  8
0
 10
43.210151063214653
 20
686.13560408288276
 30
0.0
 42
-0.0073295143842656
 70
     1
  0
VERTEX
  5
2B37
  8
0
 10
43.185535764024728
 20
685.65113999307846
 30
0.0
 42
-0.0001709906459391
  0
VERTEX
  5
2B38
  8
0
 10
43.126001793017167
 20
684.74721204075206
 30
0.0
 42
0.0007185368467908
 70
     1
  0
VERTEX
  5
2B39
  8
0
 10
43.112070023284097
 20
684.53208827347555
 30
0.0
 42
0.0007841317913932
  0
VERTEX
  5
2B3A
  8
0
 10
43.108491151706851
 20
684.47412547460362
 30
0.0
 42
0.0000358166081327
 70
     1
  0
VERTEX
  5
2B3B
  8
0
 10
43.032220180343749
 20
683.20502187296518
 30
0.0
 42
0.0083548442659233
  0
VERTEX
  5
2B3C
  8
0
 10
43.005880605896891
 20
682.59632609759456
 30
0.0
 42
0.0046990938445372
 70
     1
  0
VERTEX
  5
2B3D
  8
0
 10
42.987317842181263
 20
681.5132817315797
 30
0.0
  0
SEQEND
  5
2B3E
  8
0
  0
LINE
  5
2B3F
  8
0
 10
220.03731784218149
 20
649.25070266415662
 30
0.0
 11
203.31831784218139
 21
649.25070266415673
 31
0.0
  0
LINE
  5
2B40
  8
0
 10
220.03731784218149
 20
704.6227026641568
 30
0.0
 11
203.31831784218139
 21
704.6227026641568
 31
0.0
  0
LINE
  5
2B41
  8
0
 10
62.037317842181437
 20
704.6227026641568
 30
0.0
 11
78.756317842181488
 21
704.6227026641568
 31
0.0
  0
LINE
  5
2B42
  8
0
 10
62.03731784218553
 20
649.25070266415673
 30
0.0
 11
78.756317842181488
 21
649.25070266415673
 31
0.0
  0
ARC
  5
2B43
  8
0
 10
141.03731784218141
 20
676.93670266415654
 30
0.0
 40
41.275000000000027
 50
270.00000000000068
 51
327.37983616349049
  0
ARC
  5
2B44
  8
0
 10
141.03731784218141
 20
676.93670266415654
 30
0.0
 40
41.274999999999899
 50
89.999999999999474
 51
147.3798361634922
  0
ARC
  5
2B45
  8
0
 10
141.03731784218141
 20
676.93670266415654
 30
0.0
 40
41.275000000000027
 50
212.62016383650931
 51
270.00000000000068
  0
ARC
  5
2B46
  8
0
 10
141.03731784218141
 20
676.93670266415654
 30
0.0
 40
41.275000000000027
 50
32.620163836507679
 51
90.0
  0
LINE
  5
2B47
  8
0
 10
202.9373178421811
 20
654.68670266415586
 30
0.0
 11
202.9373178421811
 21
619.78670266415656
 31
0.0
  0
LINE
  5
2B48
  8
0
 10
202.9373178421811
 20
734.08670266415675
 30
0.0
 11
202.9373178421811
 21
699.18670266415609
 31
0.0
  0
LINE
  5
2B49
  8
0
 10
79.137317842181801
 20
734.08670266415675
 30
0.0
 11
202.9373178421811
 21
734.08670266415675
 31
0.0
  0
LINE
  5
2B4A
  8
0
 10
79.137317842181801
 20
699.18670266415609
 30
0.0
 11
79.137317842181801
 21
734.08670266415675
 31
0.0
  0
LINE
  5
2B4B
  8
0
 10
79.137317842181801
 20
619.78670266415656
 30
0.0
 11
79.137317842181346
 21
654.68670266415586
 31
0.0
  0
LINE
  5
2B4C
  8
0
 10
202.9373178421811
 20
619.78670266415645
 30
0.0
 11
79.137317842181801
 21
619.78670266415656
 31
0.0
  0
LINE
  5
2B4D
  8
0
 10
78.85791784218145
 20
704.62188981213092
 30
0.0
 11
78.85791784218145
 21
700.79123498662489
 31
0.0
  0
LINE
  5
2B4E
  8
0
 10
78.85791784218145
 20
653.08217034168842
 30
0.0
 11
78.85791784218145
 21
649.25151551618262
 31
0.0
  0
LINE
  5
2B4F
  8
0
 10
43.23480164061948
 20
665.24000266415692
 30
0.0
 11
43.23480164061948
 21
666.85841398491152
 31
0.0
  0
LINE
  5
2B50
  8
0
 10
43.23480164061948
 20
687.01499134340202
 30
0.0
 11
43.23480164061948
 21
688.63340266415673
 31
0.0
  0
LINE
  5
2B51
  8
0
 10
203.2167178421814
 20
649.25151551618262
 30
0.0
 11
203.2167178421814
 21
653.08217034168842
 31
0.0
  0
LINE
  5
2B52
  8
0
 10
203.2167178421814
 20
700.79123498662489
 30
0.0
 11
203.2167178421814
 21
704.62188981213092
 31
0.0
  0
LINE
  5
2B53
  8
0
 10
238.83983404374339
 20
688.63340266415673
 30
0.0
 11
238.83983404374339
 21
687.01499134340213
 31
0.0
  0
LINE
  5
2B54
  8
0
 10
238.83983404374339
 20
666.85841398491152
 30
0.0
 11
238.83983404374339
 21
665.24000266415692
 31
0.0
  0
LINE
  5
2B55
  8
0
 10
203.2167178421814
 20
653.08217034168842
 30
0.0
 11
203.2167178421814
 21
654.68670266415586
 31
0.0
  0
LINE
  5
2B56
  8
0
 10
78.85791784218145
 20
700.79123498662489
 30
0.0
 11
78.85791784218145
 21
699.18670266415609
 31
0.0
  0
LINE
  5
2B57
  8
0
 10
78.85791784218145
 20
654.6867026641562
 30
0.0
 11
78.85791784218145
 21
653.08217034168842
 31
0.0
  0
LINE
  5
2B58
  8
0
 10
203.2167178421814
 20
699.18670266415609
 30
0.0
 11
203.2167178421814
 21
700.79123498662489
 31
0.0
  0
LINE
  5
2B59
  8
0
 10
42.987317842181263
 20
679.98470266415666
 30
0.0
 11
42.987317842181263
 21
681.5132817315797
 31
0.0
  0
LINE
  5
2B5A
  8
0
 10
239.08731784218159
 20
681.5132817315797
 30
0.0
 11
239.08731784218159
 21
679.98470266415666
 31
0.0
  0
LINE
  5
2B5B
  8
0
 10
42.987317842181263
 20
672.36012359673373
 30
0.0
 11
42.987317842181263
 21
673.88870266415665
 31
0.0
  0
LINE
  5
2B5C
  8
0
 10
239.08731784218159
 20
673.88870266415665
 30
0.0
 11
239.08731784218159
 21
672.36012359673373
 31
0.0
  0
ARC
  5
2B5D
  8
0
 10
220.03731784218149
 20
673.73670266415604
 30
0.0
 40
19.050000000000001
 50
270.00000000000068
 51
0.0
  0
LINE
  5
2B5E
  8
0
 10
220.03731784218149
 20
654.68670266415597
 30
0.0
 11
141.03731784218189
 21
654.68670266415563
 31
0.0
  0
LINE
  5
2B5F
  8
0
 10
42.987317842181263
 20
673.88870266415597
 30
0.0
 11
42.987317842181263
 21
679.98470266415586
 31
0.0
  0
ARC
  5
2B60
  8
0
 10
62.037317842181437
 20
673.73670266415604
 30
0.0
 40
19.050000000000001
 50
180.0
 51
270.00000000000068
  0
LINE
  5
2B61
  8
0
 10
141.03731784218189
 20
654.68670266415575
 30
0.0
 11
62.037317842181437
 21
654.68670266415597
 31
0.0
  0
LINE
  5
2B62
  8
0
 10
239.08731784218159
 20
673.88870266415597
 30
0.0
 11
239.08731784218159
 21
679.98470266415586
 31
0.0
  0
ARC
  5
2B63
  8
0
 10
220.03731784218149
 20
680.13670266415625
 30
0.0
 40
19.050000000000001
 50
0.0
 51
90.0
  0
LINE
  5
2B64
  8
0
 10
141.03731784218189
 20
699.18670266415597
 30
0.0
 11
220.03731784217871
 21
699.18670266415609
 31
0.0
  0
ARC
  5
2B65
  8
0
 10
62.037317842181437
 20
680.13670266415625
 30
0.0
 40
19.050000000000001
 50
90.0
 51
180.0
  0
LINE
  5
2B66
  8
0
 10
62.037317842184159
 20
699.18670266415609
 30
0.0
 11
141.03731784218189
 21
699.18670266415609
 31
0.0
  0
ARC
  5
2B67
  8
0
 10
78.756317842181488
 20
698.27270266415655
 30
0.0
 40
6.3500000000000902
 50
89.083228409365347
 51
90.0
  0
ARC
  5
2B68
  8
0
 10
78.756317842181488
 20
655.60070266415676
 30
0.0
 40
6.3500000000000254
 50
270.00000000000068
 51
270.91677159063539
  0
ARC
  5
2B69
  8
0
 10
62.037317842181437
 20
668.30070266415669
 30
0.0
 40
19.050000000000011
 50
189.24559404503449
 51
270.00000000000068
  0
ARC
  5
2B6A
  8
0
 10
62.037317842181437
 20
685.57270266415685
 30
0.0
 40
19.050000000000018
 50
90.0
 51
170.7544059549659
  0
ARC
  5
2B6B
  8
0
 10
203.31831784218139
 20
655.60070266415676
 30
0.0
 40
6.3500000000000254
 50
269.08322840936609
 51
270.00000000000068
  0
ARC
  5
2B6C
  8
0
 10
203.31831784218139
 20
698.27270266415655
 30
0.0
 40
6.3500000000000902
 50
90.0
 51
90.916771590634653
  0
ARC
  5
2B6D
  8
0
 10
220.03731784218149
 20
685.57270266415685
 30
0.0
 40
19.050000000000072
 50
9.2455940450340002
 51
90.0
  0
ARC
  5
2B6E
  8
0
 10
220.03731784218149
 20
668.30070266415669
 30
0.0
 40
19.05000000000005
 50
270.00000000000068
 51
350.75440595496713
  0
LINE
  5
2B6F
  8
0
 10
496.81706048772179
 20
96.907798882901602
 30
0.0
 11
433.82506048772211
 21
96.90779888290173
 31
0.0
  0
LINE
  5
2B70
  8
0
 10
443.07106048772118
 20
185.7952988829017
 30
0.0
 11
424.046060487722
 21
185.79529888290179
 31
0.0
  0
LINE
  5
2B71
  8
0
 10
506.59606048772179
 20
185.79529888290179
 30
0.0
 11
487.57106048772198
 21
185.7952988829017
 31
0.0
  0
LINE
  5
2B72
  8
0
 10
424.04606048772263
 20
166.74529888290169
 30
0.0
 11
424.046060487722
 21
185.79529888290179
 31
0.0
  0
LINE
  5
2B73
  8
0
 10
506.59606048772179
 20
166.74529888290181
 30
0.0
 11
506.59606048772162
 21
185.7952988829017
 31
0.0
  0
CIRCLE
  5
2B74
  8
0
 10
465.32106048772152
 20
133.4077988829016
 30
0.0
 40
10.651718189755
  0
LINE
  5
2B75
  8
0
 10
443.07106048772118
 20
166.74529888290161
 30
0.0
 11
408.1710604877216
 21
166.74529888290169
 31
0.0
  0
LINE
  5
2B76
  8
0
 10
522.47106048772184
 20
166.74529888290169
 30
0.0
 11
487.57106048772198
 21
166.74529888290181
 31
0.0
  0
LINE
  5
2B77
  8
0
 10
408.1710604877216
 20
100.0702988829016
 30
0.0
 11
408.1710604877216
 21
166.74529888290169
 31
0.0
  0
LINE
  5
2B78
  8
0
 10
522.47106048772184
 20
100.0702988829016
 30
0.0
 11
408.1710604877216
 21
100.0702988829016
 31
0.0
  0
LINE
  5
2B79
  8
0
 10
522.47106048772184
 20
100.0702988829016
 30
0.0
 11
522.47106048772184
 21
166.74529888290169
 31
0.0
  0
ARC
  5
2B7A
  8
0
 10
465.32106048772118
 20
133.49467524400299
 30
0.0
 40
27.773292303380579
 50
149.81425878775951
 51
30.185741212239581
  0
ARC
  5
2B7B
  8
0
 10
462.12106048772188
 20
429.45779888290173
 30
0.0
 40
19.050000000000001
 50
90.0
 51
179.9999999999998
  0
LINE
  5
2B7C
  8
0
 10
443.07106048772118
 20
359.72179888290162
 30
0.0
 11
443.07106048772118
 21
429.5717988829017
 31
0.0
  0
LINE
  5
2B7D
  8
0
 10
443.07106048772118
 20
153.90482774076301
 30
0.0
 11
443.07106048772118
 21
359.72179888290162
 31
0.0
  0
LINE
  5
2B7E
  8
0
 10
462.12106048772188
 20
448.50779888290162
 30
0.0
 11
468.5210604877222
 21
448.50779888290162
 31
0.0
  0
LINE
  5
2B7F
  8
0
 10
487.5710604877217
 20
359.72179888290162
 30
0.0
 11
487.5710604877217
 21
153.90482774076281
 31
0.0
  0
ARC
  5
2B80
  8
0
 10
468.5210604877222
 20
429.45779888290173
 30
0.0
 40
19.050000000000001
 50
0.0000000000001923
 51
90.0
  0
LINE
  5
2B81
  8
0
 10
487.5710604877217
 20
429.5717988829017
 30
0.0
 11
487.5710604877217
 21
359.72179888290162
 31
0.0
  0
ARC
  5
2B82
  8
0
 10
430.37106048772142
 20
153.90482774076301
 30
0.0
 40
12.70000000000001
 50
329.50068408198831
 51
0.0000000000001923
  0
ARC
  5
2B83
  8
0
 10
500.27106048772151
 20
153.90482774076281
 30
0.0
 40
12.699999999999999
 50
179.9999999999998
 51
210.49931591801351
  0
LINE
  5
2B84
  8
0
 10
182.3123178421815
 20
185.7952988829017
 30
0.0
 11
176.78251638338401
 21
185.7952988829019
 31
0.0
  0
LINE
  5
2B85
  8
0
 10
105.2921193009788
 20
185.7952988829017
 30
0.0
 11
99.762317842181361
 21
185.7952988829017
 31
0.0
  0
LINE
  5
2B86
  8
0
 10
172.53331784218199
 20
96.90779888290173
 30
0.0
 11
109.5413178421822
 21
96.90779888290173
 31
0.0
  0
LINE
  5
2B87
  8
0
 10
188.69758256378461
 20
168.45622540851451
 30
0.0
 11
188.69758256378461
 21
184.08437235728931
 31
0.0
  0
LINE
  5
2B88
  8
0
 10
93.377053120578239
 20
168.4562254085142
 30
0.0
 11
93.377053120578239
 21
184.0843723572892
 31
0.0
  0
LINE
  5
2B89
  8
0
 10
164.86745020298301
 20
168.4562254085144
 30
0.0
 11
164.86745020298301
 21
184.08437235728931
 31
0.0
  0
LINE
  5
2B8A
  8
0
 10
117.2071854813798
 20
168.45622540851431
 30
0.0
 11
117.2071854813798
 21
184.0843723572892
 31
0.0
  0
LINE
  5
2B8B
  8
0
 10
176.78251638338401
 20
185.7952988829019
 30
0.0
 11
141.03731784218141
 21
185.79529888290179
 31
0.0
  0
LINE
  5
2B8C
  8
0
 10
141.03731784218141
 20
185.79529888290179
 30
0.0
 11
105.2921193009788
 21
185.7952988829017
 31
0.0
  0
LINE
  5
2B8D
  8
0
 10
202.93731784218201
 20
166.74529888290169
 30
0.0
 11
79.137317842181801
 21
166.74529888290169
 31
0.0
  0
LINE
  5
2B8E
  8
0
 10
79.137317842181801
 20
100.0702988829016
 30
0.0
 11
79.137317842181801
 21
166.74529888290169
 31
0.0
  0
LINE
  5
2B8F
  8
0
 10
202.93731784218201
 20
100.0702988829016
 30
0.0
 11
79.137317842181801
 21
100.0702988829016
 31
0.0
  0
LINE
  5
2B90
  8
0
 10
202.93731784218201
 20
100.0702988829016
 30
0.0
 11
202.93731784218201
 21
166.74529888290169
 31
0.0
  0
LINE
  5
2B91
  8
0
 10
134.6873178421811
 20
241.35779888290159
 30
0.0
 11
147.38731784218089
 21
241.35779888290159
 31
0.0
  0
LINE
  5
2B92
  8
0
 10
198.1873178421811
 20
292.1577988829016
 30
0.0
 11
198.1873178421811
 21
336.6077988829017
 31
0.0
  0
ARC
  5
2B93
  8
0
 10
147.38731784218089
 20
336.6077988829017
 30
0.0
 40
50.799999999999997
 50
0.0
 51
90.0
  0
ARC
  5
2B94
  8
0
 10
147.38731784218089
 20
292.1577988829016
 30
0.0
 40
50.799999999999997
 50
270.00000000000068
 51
0.0
  0
LINE
  5
2B95
  8
0
 10
239.08731784218159
 20
359.72179888290168
 30
0.0
 11
239.08731784218159
 21
153.90482774076301
 31
0.0
  0
ARC
  5
2B96
  8
0
 10
134.6873178421811
 20
292.1577988829016
 30
0.0
 40
50.800000000000011
 50
180.0
 51
270.00000000000068
  0
LINE
  5
2B97
  8
0
 10
131.88731784218629
 20
448.50779888290168
 30
0.0
 11
150.1873178421765
 21
448.50779888290168
 31
0.0
  0
LINE
  5
2B98
  8
0
 10
193.47581784218161
 20
208.59179888290171
 30
0.0
 11
88.598817842181688
 21
208.59179888290171
 31
0.0
  0
ARC
  5
2B99
  8
0
 10
193.47581784218161
 20
195.89179888290161
 30
0.0
 40
12.70000000000004
 50
0.0
 51
90.0
  0
LINE
  5
2B9A
  8
0
 10
206.1758178421814
 20
176.84179888290149
 30
0.0
 11
206.1758178421814
 21
195.89179888290161
 31
0.0
  0
ARC
  5
2B9B
  8
0
 10
150.1873178421815
 20
359.6077988829017
 30
0.0
 40
88.899999999999977
 50
0.0
 51
90.0
  0
LINE
  5
2B9C
  8
0
 10
147.38731784218089
 20
387.4077988829016
 30
0.0
 11
134.6873178421811
 21
387.4077988829016
 31
0.0
  0
LINE
  5
2B9D
  8
0
 10
83.887317842180892
 20
336.6077988829017
 30
0.0
 11
83.887317842180892
 21
292.1577988829016
 31
0.0
  0
ARC
  5
2B9E
  8
0
 10
134.6873178421811
 20
336.6077988829017
 30
0.0
 40
50.800000000000011
 50
90.0
 51
180.0
  0
ARC
  5
2B9F
  8
0
 10
88.598817842181688
 20
195.89179888290161
 30
0.0
 40
12.70000000000004
 50
90.0
 51
180.0
  0
LINE
  5
2BA0
  8
0
 10
75.898817842181415
 20
195.89179888290161
 30
0.0
 11
75.898817842181415
 21
176.84179888290149
 31
0.0
  0
LINE
  5
2BA1
  8
0
 10
42.987317842181263
 20
153.90482774076301
 30
0.0
 11
42.987317842181263
 21
359.72179888290168
 31
0.0
  0
ARC
  5
2BA2
  8
0
 10
131.8873178421818
 20
359.6077988829017
 30
0.0
 40
88.899999999999977
 50
90.0
 51
180.0
  0
LINE
  5
2BB8
  8
3
 10
189.0560252649357
 20
404.80386347897547
 30
0.0
 11
187.39315717599311
 21
405.52224539003367
 31
0.0
  0
LINE
  5
2BB9
  8
3
 10
176.78915326974311
 20
404.86969130349519
 30
0.0
 11
178.43198680339719
 21
404.1827922650337
 31
0.0
  0
LINE
  5
2BBA
  8
3
 10
143.78772412054369
 20
412.07218205459168
 30
0.0
 11
139.9410895051592
 21
412.07218205459168
 31
0.0
  0
LINE
  5
2BBB
  8
3
 10
143.78772412054369
 20
409.36465501132272
 30
0.0
 11
143.78772412054369
 21
412.07218205459168
 31
0.0
  0
LINE
  5
2BBC
  8
3
 10
145.56793746188981
 20
416.65437105699561
 30
0.0
 11
143.72475837535151
 21
416.19071420603422
 31
0.0
  0
LINE
  5
2BBD
  8
3
 10
145.8026279666974
 20
413.7207397468996
 30
0.0
 11
145.8026279666974
 21
408.43447923007272
 31
0.0
  0
LINE
  5
2BBE
  8
3
 10
139.9410895051592
 20
413.7207397468996
 30
0.0
 11
145.8026279666974
 21
413.7207397468996
 31
0.0
  0
LINE
  5
2BBF
  8
3
 10
139.9410895051592
 20
412.07218205459168
 30
0.0
 11
139.9410895051592
 21
413.7207397468996
 31
0.0
  0
LINE
  5
2BD8
  8
3
 10
120.9826037887542
 20
404.82696698823651
 30
0.0
 11
119.12511430558099
 21
404.55793153150557
 31
0.0
  0
LINE
  5
2BD9
  8
3
 10
120.07246256279269
 20
411.05771368294808
 30
0.0
 11
120.9826037887542
 21
404.82696698823651
 31
0.0
  0
LINE
  5
2BDA
  8
3
 10
122.22474621663881
 20
411.37254240890962
 30
0.0
 11
120.07246256279269
 21
411.05771368294808
 31
0.0
  0
LINE
  5
2BDB
  8
3
 10
131.48929699788869
 20
406.36104150746712
 30
0.0
 11
129.15670234644671
 21
406.02045406756309
 31
0.0
  0
LINE
  5
2BDC
  8
3
 10
117.07872758683099
 20
418.58784439208262
 30
0.0
 11
123.3008880435618
 21
419.495123538717
 31
0.0
  0
LINE
  5
2BDD
  8
3
 10
119.12511430558099
 20
404.55793153150557
 30
0.0
 11
117.07872758683099
 21
418.58784439208262
 31
0.0
  0
LINE
  5
2BDE
  8
3
 10
119.83777205798511
 20
412.66620226467859
 30
0.0
 11
123.8275106397159
 21
413.25006644737113
 31
0.0
  0
LINE
  5
2BDF
  8
3
 10
119.1623213368311
 20
417.3056328536212
 30
0.0
 11
119.83777205798511
 21
412.66620226467859
 31
0.0
  0
LINE
  5
2BE0
  8
3
 10
123.60426845221581
 20
417.95532486083272
 30
0.0
 11
119.1623213368311
 21
417.3056328536212
 31
0.0
  0
LINE
  5
2BE1
  8
3
 10
163.3768885384934
 20
404.33779168930408
 30
0.0
 11
161.64533054570441
 21
404.8472418094961
 31
0.0
  0
LINE
  5
2BE2
  8
3
 10
166.53089995676231
 20
415.05341668930407
 30
0.0
 11
163.3768885384934
 21
404.33779168930408
 31
0.0
  0
LINE
  5
2BE3
  8
3
 10
170.53781101445469
 20
402.22843922536163
 30
0.0
 11
166.53089995676231
 21
415.05341668930407
 31
0.0
  0
LINE
  5
2BE4
  8
3
 10
172.38957633897371
 20
401.68178207391901
 30
0.0
 11
170.53781101445469
 21
402.22843922536163
 31
0.0
  0
LINE
  5
2BE5
  8
3
 10
176.4050736346471
 20
415.31959006670769
 30
0.0
 11
172.38957633897371
 21
401.68178207391901
 31
0.0
  0
LINE
  5
2BE6
  8
3
 10
174.6735156418585
 20
415.83190226622708
 30
0.0
 11
176.4050736346471
 21
415.31959006670769
 31
0.0
  0
LINE
  5
2BE7
  8
3
 10
171.51950422358911
 20
405.1248635042075
 30
0.0
 11
174.6735156418585
 21
415.83190226622708
 31
0.0
  0
LINE
  5
2BE8
  8
3
 10
167.5125931658967
 20
417.93839265084262
 30
0.0
 11
171.51950422358911
 21
405.1248635042075
 31
0.0
  0
LINE
  5
2BE9
  8
3
 10
165.6608278413778
 20
418.48504980228461
 30
0.0
 11
167.5125931658967
 21
417.93839265084262
 31
0.0
  0
LINE
  5
2BEA
  8
3
 10
161.64533054570441
 20
404.8472418094961
 30
0.0
 11
165.6608278413778
 21
418.48504980228461
 31
0.0
  0
LINE
  5
2BF1
  8
3
 10
159.21212070444469
 20
405.35303626270922
 30
0.0
 11
148.64532382944481
 21
406.31469491655508
 31
0.0
  0
LINE
  5
2BF2
  8
3
 10
159.36381090877191
 20
407.02449058963219
 30
0.0
 11
159.21212070444469
 21
405.35303626270922
 31
0.0
  0
LINE
  5
2BF3
  8
3
 10
150.6716759929063
 20
407.81728656319012
 30
0.0
 11
159.36381090877191
 21
407.02449058963219
 31
0.0
  0
LINE
  5
2BF4
  8
3
 10
151.1095741299259
 20
412.63702814972822
 30
0.0
 11
150.6716759929063
 21
407.81728656319012
 31
0.0
  0
LINE
  5
2BF5
  8
3
 10
158.94308524771441
 20
411.92437039732459
 30
0.0
 11
151.1095741299259
 21
412.63702814972822
 31
0.0
  0
LINE
  5
2BF6
  8
3
 10
159.0947754520412
 20
413.58723848626659
 30
0.0
 11
158.94308524771441
 21
411.92437039732459
 31
0.0
  0
LINE
  5
2BF7
  8
3
 10
151.2612643342527
 20
414.29989623867073
 30
0.0
 11
159.0947754520412
 21
413.58723848626659
 31
0.0
  0
LINE
  5
2BF8
  8
3
 10
151.65623128136801
 20
418.63594641895918
 30
0.0
 11
151.2612643342527
 21
414.29989623867073
 31
0.0
  0
LINE
  5
2BF9
  8
3
 10
160.0192270746374
 20
417.87463331799768
 30
0.0
 11
151.65623128136801
 21
418.63594641895918
 31
0.0
  0
LINE
  5
2BFA
  8
3
 10
160.1709172789642
 20
419.5460876449207
 30
0.0
 11
160.0192270746374
 21
417.87463331799768
 31
0.0
  0
LINE
  5
2BFB
  8
3
 10
149.93325952656051
 20
420.47626342617048
 30
0.0
 11
160.1709172789642
 21
419.5460876449207
 31
0.0
  0
LINE
  5
2BFC
  8
3
 10
148.64532382944481
 20
406.31469491655508
 30
0.0
 11
149.93325952656051
 21
420.47626342617048
 31
0.0
  0
LINE
  5
2C08
  8
3
 10
96.979317040871138
 20
411.47406528869658
 30
0.0
 11
101.6359201057753
 21
403.07672454350421
 31
0.0
  0
LINE
  5
2C09
  8
3
 10
95.096068843756257
 20
398.8923645675427
 30
0.0
 11
96.452694444717494
 21
399.91126480792718
 31
0.0
  0
LINE
  5
2C0A
  8
3
 10
100.0531902379866
 20
402.08072093773512
 30
0.0
 11
95.347931824525403
 21
410.5696482213886
 31
0.0
  0
LINE
  5
2C0B
  8
3
 10
95.347931824525403
 20
410.5696482213886
 30
0.0
 11
96.979317040871138
 21
411.47406528869658
 31
0.0
  0
LINE
  5
2C18
  8
3
 10
116.6376349830748
 20
403.99672669985148
 30
0.0
 11
106.6547022907671
 21
400.44488625514009
 31
0.0
  0
LINE
  5
2C19
  8
3
 10
116.0766674349979
 20
405.57373240898619
 30
0.0
 11
116.6376349830748
 21
403.99672669985148
 31
0.0
  0
LINE
  5
2C1A
  8
3
 10
107.86536184605571
 20
402.65154941619812
 30
0.0
 11
116.0766674349979
 21
405.57373240898619
 31
0.0
  0
LINE
  5
2C1B
  8
3
 10
106.245424947017
 20
407.20511762533272
 30
0.0
 11
107.86536184605571
 21
402.65154941619812
 31
0.0
  0
LINE
  5
2C1C
  8
3
 10
113.6439000071132
 20
409.83823060610149
 30
0.0
 11
106.245424947017
 21
407.20511762533272
 31
0.0
  0
LINE
  5
2C1D
  8
3
 10
113.0829324590363
 20
411.40665007725562
 30
0.0
 11
113.6439000071132
 21
409.83823060610149
 31
0.0
  0
LINE
  5
2C1E
  8
3
 10
105.6844573989401
 20
408.77353709648611
 30
0.0
 11
113.0829324590363
 21
411.40665007725562
 31
0.0
  0
LINE
  5
2C1F
  8
3
 10
104.227659021536
 20
412.8691726133132
 30
0.0
 11
105.6844573989401
 21
408.77353709648611
 31
0.0
  0
LINE
  5
2C20
  8
3
 10
112.1269979638441
 20
415.67973451235162
 30
0.0
 11
104.227659021536
 21
412.8691726133132
 31
0.0
  0
LINE
  5
2C21
  8
3
 10
111.5660304157672
 20
417.25960230081301
 30
0.0
 11
112.1269979638441
 21
415.67973451235162
 31
0.0
  0
LINE
  5
2C22
  8
3
 10
101.8950643700941
 20
413.81938294985162
 30
0.0
 11
111.5660304157672
 21
417.25960230081301
 31
0.0
  0
LINE
  5
2C23
  8
3
 10
106.6547022907671
 20
400.44488625514009
 30
0.0
 11
101.8950643700941
 21
413.81938294985162
 31
0.0
  0
ARC
  5
2C31
  8
0
 10
193.47581784218161
 20
176.84179888290149
 30
0.0
 40
12.70000000000004
 50
320.08525052443082
 51
0.0
  0
ARC
  5
2C32
  8
0
 10
88.598817842181688
 20
176.84179888290149
 30
0.0
 40
12.700000000000021
 50
180.0
 51
219.9147494755716
  0
LINE
  5
2C33
  8
0
 10
42.987317842181263
 20
144.17198556511889
 30
0.0
 11
42.987317842181263
 21
153.90482774076301
 31
0.0
  0
LINE
  5
2C34
  8
0
 10
239.08731784218159
 20
153.90482774076301
 30
0.0
 11
239.08731784218159
 21
144.171985565119
 31
0.0
  0
LINE
  5
2C35
  8
0
 10
203.21671784218191
 20
105.7226117349275
 30
0.0
 11
203.21671784218231
 21
168.69288072218859
 31
0.0
  0
LINE
  5
2C36
  8
0
 10
238.83983404374339
 20
139.34420252381051
 30
0.0
 11
238.83983404374339
 21
121.7110988829016
 31
0.0
  0
LINE
  5
2C37
  8
0
 10
43.23480164061948
 20
121.7110988829016
 30
0.0
 11
43.23480164061948
 21
139.34420252381051
 31
0.0
  0
LINE
  5
2C38
  8
0
 10
78.857917842181905
 20
168.69288072218839
 30
0.0
 11
78.85791784218145
 21
105.7226117349274
 31
0.0
  0
ARC
  5
2C39
  8
0
 10
203.31831784218181
 20
112.0717988829017
 30
0.0
 40
6.3499999999999988
 50
269.08322840936609
 51
270.00000000000068
  0
ARC
  5
2C3A
  8
0
 10
220.03731784218149
 20
124.77179888290161
 30
0.0
 40
19.050000000000072
 50
270.00000000000068
 51
350.75440595496678
  0
ARC
  5
2C3B
  8
0
 10
62.037317842181437
 20
124.77179888290161
 30
0.0
 40
19.050000000000018
 50
189.24559404503481
 51
270.00000000000068
  0
ARC
  5
2C3C
  8
0
 10
78.756317842181488
 20
112.0717988829016
 30
0.0
 40
6.3499999999999801
 50
270.00000000000068
 51
270.91677159063539
  0
LINE
  5
3E3B
  8
0
 10
120.03731784218211
 20
89.399558882901374
 30
0.0
 11
120.03731784218211
 21
38.70779888290167
 31
0.0
  0
LINE
  5
3E3C
  8
3
 10
122.4728178421822
 20
91.680076445984696
 30
0.0
 11
122.4728178421822
 21
36.272298882901737
 31
0.0
  0
LINE
  5
3E3E
  8
0
 10
124.5373178421823
 20
34.20779888290167
 30
0.0
 11
120.0373178421823
 21
38.70779888290167
 31
0.0
  0
LINE
  5
3E3F
  8
0
 10
157.53731784218229
 20
34.20779888290167
 30
0.0
 11
162.03731784218229
 21
38.70779888290167
 31
0.0
  0
LINE
  5
3E41
  8
3
 10
159.6018178421821
 20
91.680076445984696
 30
0.0
 11
159.6018178421821
 21
36.27229888290163
 31
0.0
  0
LINE
  5
3E42
  8
0
 10
162.03731784218209
 20
89.399558882901374
 30
0.0
 11
162.03731784218209
 21
38.70779888290167
 31
0.0
  0
LINE
  5
3E47
  8
0
 10
162.03731784218229
 20
38.70779888290167
 30
0.0
 11
120.0373178421823
 21
38.70779888290167
 31
0.0
  0
LINE
  5
3E48
  8
0
 10
157.53731784218229
 20
34.20779888290167
 30
0.0
 11
124.5373178421823
 21
34.20779888290167
 31
0.0
  0
LINE
  5
3E4C
  8
0
 10
162.03731784218209
 20
89.399558882901374
 30
0.0
 11
120.03731784218211
 21
89.399558882901374
 31
0.0
  0
POLYLINE
  8
0
  5
625A
  66
     1
 10
0.000000
 20
0.000000
 30
0.000000
  70
     8
  0
VERTEX
  8
0
  5
625B
 10
162.037
 20
89.3996
 30
0.000000
  70
    32
  0
VERTEX
  8
0
  5
625C
 10
161.999
 20
89.4350
 30
0.000000
  70
    32
  0
VERTEX
  8
0
  5
625D
 10
161.961
 20
89.4705
 30
0.000000
  70
    32
  0
VERTEX
  8
0
  5
625E
 10
161.923
 20
89.5060
 30
0.000000
  70
    32
  0
VERTEX
  8
0
  5
625F
 10
161.885
 20
89.5415
 30
0.000000
  70
    32
  0
VERTEX
  8
0
  5
6260
 10
161.847
 20
89.5770
 30
0.000000
  70
    32
  0
VERTEX
  8
0
  5
6261
 10
161.809
 20
89.6125
 30
0.000000
  70
    32
  0
VERTEX
  8
0
  5
6262
 10
161.771
 20
89.6480
 30
0.000000
  70
    32
  0
VERTEX
  8
0
  5
6263
 10
161.733
 20
89.6835
 30
0.000000
  70
    32
  0
VERTEX
  8
0
  5
6264
 10
161.696
 20
89.7190
 30
0.000000
  70
    32
  0
VERTEX
  8
0
  5
6265
 10
161.658
 20
89.7545
 30
0.000000
  70
    32
  0
VERTEX
  8
0
  5
6266
 10
161.620
 20
89.7899
 30
0.000000
  70
    32
  0
VERTEX
  8
0
  5
6267
 10
161.582
 20
89.8254
 30
0.000000
  70
    32
  0
VERTEX
  8
0
  5
6268
 10
161.544
 20
89.8609
 30
0.000000
  70
    32
  0
VERTEX
  8
0
  5
6269
 10
161.506
 20
89.8964
 30
0.000000
  70
    32
  0
VERTEX
  8
0
  5
626A
 10
161.468
 20
89.9319
 30
0.000000
  70
    32
  0
VERTEX
  8
0
  5
626B
 10
161.430
 20
89.9674
 30
0.000000
  70
    32
  0
VERTEX
  8
0
  5
626C
 10
161.392
 20
90.0029
 30
0.000000
  70
    32
  0
VERTEX
  8
0
  5
626D
 10
161.354
 20
90.0384
 30
0.000000
  70
    32
  0
VERTEX
  8
0
  5
626E
 10
161.316
 20
90.0739
 30
0.000000
  70
    32
  0
VERTEX
  8
0
  5
626F
 10
161.278
 20
90.1094
 30
0.000000
  70
    32
  0
VERTEX
  8
0
  5
6270
 10
161.240
 20
90.1448
 30
0.000000
  70
    32
  0
VERTEX
  8
0
  5
6271
 10
161.202
 20
90.1803
 30
0.000000
  70
    32
  0
VERTEX
  8
0
  5
6272
 10
161.164
 20
90.2158
 30
0.000000
  70
    32
  0
VERTEX
  8
0
  5
6273
 10
161.126
 20
90.2513
 30
0.000000
  70
    32
  0
VERTEX
  8
0
  5
6274
 10
161.088
 20
90.2868
 30
0.000000
  70
    32
  0
VERTEX
  8
0
  5
6275
 10
161.050
 20
90.3223
 30
0.000000
  70
    32
  0
VERTEX
  8
0
  5
6276
 10
161.012
 20
90.3578
 30
0.000000
  70
    32
  0
VERTEX
  8
0
  5
6277
 10
160.974
 20
90.3933
 30
0.000000
  70
    32
  0
VERTEX
  8
0
  5
6278
 10
160.936
 20
90.4288
 30
0.000000
  70
    32
  0
VERTEX
  8
0
  5
6279
 10
160.898
 20
90.4643
 30
0.000000
  70
    32
  0
VERTEX
  8
0
  5
627A
 10
160.860
 20
90.4997
 30
0.000000
  70
    32
  0
VERTEX
  8
0
  5
627B
 10
160.822
 20
90.5352
 30
0.000000
  70
    32
  0
VERTEX
  8
0
  5
627C
 10
160.784
 20
90.5707
 30
0.000000
  70
    32
  0
VERTEX
  8
0
  5
627D
 10
160.746
 20
90.6062
 30
0.000000
  70
    32
  0
VERTEX
  8
0
  5
627E
 10
160.708
 20
90.6417
 30
0.000000
  70
    32
  0
VERTEX
  8
0
  5
627F
 10
160.670
 20
90.6772
 30
0.000000
  70
    32
  0
VERTEX
  8
0
  5
6280
 10
160.632
 20
90.7127
 30
0.000000
  70
    32
  0
VERTEX
  8
0
  5
6281
 10
160.594
 20
90.7482
 30
0.000000
  70
    32
  0
VERTEX
  8
0
  5
6282
 10
160.556
 20
90.7837
 30
0.000000
  70
    32
  0
VERTEX
  8
0
  5
6283
 10
160.518
 20
90.8192
 30
0.000000
  70
    32
  0
VERTEX
  8
0
  5
6284
 10
160.480
 20
90.8546
 30
0.000000
  70
    32
  0
VERTEX
  8
0
  5
6285
 10
160.442
 20
90.8901
 30
0.000000
  70
    32
  0
VERTEX
  8
0
  5
6286
 10
160.404
 20
90.9256
 30
0.000000
  70
    32
  0
VERTEX
  8
0
  5
6287
 10
160.366
 20
90.9611
 30
0.000000
  70
    32
  0
VERTEX
  8
0
  5
6288
 10
160.328
 20
90.9966
 30
0.000000
  70
    32
  0
VERTEX
  8
0
  5
6289
 10
160.290
 20
91.0321
 30
0.000000
  70
    32
  0
VERTEX
  8
0
  5
628A
 10
160.252
 20
91.0676
 30
0.000000
  70
    32
  0
VERTEX
  8
0
  5
628B
 10
160.214
 20
91.1031
 30
0.000000
  70
    32
  0
VERTEX
  8
0
  5
628C
 10
160.176
 20
91.1386
 30
0.000000
  70
    32
  0
VERTEX
  8
0
  5
628D
 10
160.138
 20
91.1741
 30
0.000000
  70
    32
  0
VERTEX
  8
0
  5
628E
 10
160.100
 20
91.2095
 30
0.000000
  70
    32
  0
VERTEX
  8
0
  5
628F
 10
160.062
 20
91.2450
 30
0.000000
  70
    32
  0
VERTEX
  8
0
  5
6290
 10
160.024
 20
91.2805
 30
0.000000
  70
    32
  0
VERTEX
  8
0
  5
6291
 10
159.986
 20
91.3160
 30
0.000000
  70
    32
  0
VERTEX
  8
0
  5
6292
 10
159.949
 20
91.3515
 30
0.000000
  70
    32
  0
VERTEX
  8
0
  5
6293
 10
159.911
 20
91.3870
 30
0.000000
  70
    32
  0
VERTEX
  8
0
  5
6294
 10
159.873
 20
91.4225
 30
0.000000
  70
    32
  0
VERTEX
  8
0
  5
6295
 10
159.835
 20
91.4580
 30
0.000000
  70
    32
  0
VERTEX
  8
0
  5
6296
 10
159.797
 20
91.4935
 30
0.000000
  70
    32
  0
VERTEX
  8
0
  5
6297
 10
159.759
 20
91.5290
 30
0.000000
  70
    32
  0
VERTEX
  8
0
  5
6298
 10
159.721
 20
91.5644
 30
0.000000
  70
    32
  0
VERTEX
  8
0
  5
6299
 10
159.683
 20
91.5999
 30
0.000000
  70
    32
  0
VERTEX
  8
0
  5
629A
 10
159.645
 20
91.6354
 30
0.000000
  70
    32
  0
SEQEND
  8
0
  5
629B
  0
POLYLINE
  8
0
  5
629C
  66
     1
 10
0.000000
 20
0.000000
 30
0.000000
  70
     8
  0
VERTEX
  8
0
  5
629D
 10
122.430
 20
91.6354
 30
0.000000
  70
    32
  0
VERTEX
  8
0
  5
629E
 10
122.392
 20
91.5999
 30
0.000000
  70
    32
  0
VERTEX
  8
0
  5
629F
 10
122.354
 20
91.5644
 30
0.000000
  70
    32
  0
VERTEX
  8
0
  5
62A0
 10
122.316
 20
91.5290
 30
0.000000
  70
    32
  0
VERTEX
  8
0
  5
62A1
 10
122.278
 20
91.4935
 30
0.000000
  70
    32
  0
VERTEX
  8
0
  5
62A2
 10
122.240
 20
91.4580
 30
0.000000
  70
    32
  0
VERTEX
  8
0
  5
62A3
 10
122.202
 20
91.4225
 30
0.000000
  70
    32
  0
VERTEX
  8
0
  5
62A4
 10
122.164
 20
91.3870
 30
0.000000
  70
    32
  0
VERTEX
  8
0
  5
62A5
 10
122.126
 20
91.3515
 30
0.000000
  70
    32
  0
VERTEX
  8
0
  5
62A6
 10
122.088
 20
91.3160
 30
0.000000
  70
    32
  0
VERTEX
  8
0
  5
62A7
 10
122.050
 20
91.2805
 30
0.000000
  70
    32
  0
VERTEX
  8
0
  5
62A8
 10
122.012
 20
91.2450
 30
0.000000
  70
    32
  0
VERTEX
  8
0
  5
62A9
 10
121.974
 20
91.2095
 30
0.000000
  70
    32
  0
VERTEX
  8
0
  5
62AA
 10
121.936
 20
91.1741
 30
0.000000
  70
    32
  0
VERTEX
  8
0
  5
62AB
 10
121.898
 20
91.1386
 30
0.000000
  70
    32
  0
VERTEX
  8
0
  5
62AC
 10
121.860
 20
91.1031
 30
0.000000
  70
    32
  0
VERTEX
  8
0
  5
62AD
 10
121.822
 20
91.0676
 30
0.000000
  70
    32
  0
VERTEX
  8
0
  5
62AE
 10
121.784
 20
91.0321
 30
0.000000
  70
    32
  0
VERTEX
  8
0
  5
62AF
 10
121.746
 20
90.9966
 30
0.000000
  70
    32
  0
VERTEX
  8
0
  5
62B0
 10
121.708
 20
90.9611
 30
0.000000
  70
    32
  0
VERTEX
  8
0
  5
62B1
 10
121.670
 20
90.9256
 30
0.000000
  70
    32
  0
VERTEX
  8
0
  5
62B2
 10
121.632
 20
90.8901
 30
0.000000
  70
    32
  0
VERTEX
  8
0
  5
62B3
 10
121.594
 20
90.8546
 30
0.000000
  70
    32
  0
VERTEX
  8
0
  5
62B4
 10
121.556
 20
90.8192
 30
0.000000
  70
    32
  0
VERTEX
  8
0
  5
62B5
 10
121.518
 20
90.7837
 30
0.000000
  70
    32
  0
VERTEX
  8
0
  5
62B6
 10
121.480
 20
90.7482
 30
0.000000
  70
    32
  0
VERTEX
  8
0
  5
62B7
 10
121.443
 20
90.7127
 30
0.000000
  70
    32
  0
VERTEX
  8
0
  5
62B8
 10
121.405
 20
90.6772
 30
0.000000
  70
    32
  0
VERTEX
  8
0
  5
62B9
 10
121.367
 20
90.6417
 30
0.000000
  70
    32
  0
VERTEX
  8
0
  5
62BA
 10
121.329
 20
90.6062
 30
0.000000
  70
    32
  0
VERTEX
  8
0
  5
62BB
 10
121.291
 20
90.5707
 30
0.000000
  70
    32
  0
VERTEX
  8
0
  5
62BC
 10
121.253
 20
90.5352
 30
0.000000
  70
    32
  0
VERTEX
  8
0
  5
62BD
 10
121.215
 20
90.4997
 30
0.000000
  70
    32
  0
VERTEX
  8
0
  5
62BE
 10
121.177
 20
90.4643
 30
0.000000
  70
    32
  0
VERTEX
  8
0
  5
62BF
 10
121.139
 20
90.4288
 30
0.000000
  70
    32
  0
VERTEX
  8
0
  5
62C0
 10
121.101
 20
90.3933
 30
0.000000
  70
    32
  0
VERTEX
  8
0
  5
62C1
 10
121.063
 20
90.3578
 30
0.000000
  70
    32
  0
VERTEX
  8
0
  5
62C2
 10
121.025
 20
90.3223
 30
0.000000
  70
    32
  0
VERTEX
  8
0
  5
62C3
 10
120.987
 20
90.2868
 30
0.000000
  70
    32
  0
VERTEX
  8
0
  5
62C4
 10
120.949
 20
90.2513
 30
0.000000
  70
    32
  0
VERTEX
  8
0
  5
62C5
 10
120.911
 20
90.2158
 30
0.000000
  70
    32
  0
VERTEX
  8
0
  5
62C6
 10
120.873
 20
90.1803
 30
0.000000
  70
    32
  0
VERTEX
  8
0
  5
62C7
 10
120.835
 20
90.1448
 30
0.000000
  70
    32
  0
VERTEX
  8
0
  5
62C8
 10
120.797
 20
90.1094
 30
0.000000
  70
    32
  0
VERTEX
  8
0
  5
62C9
 10
120.759
 20
90.0739
 30
0.000000
  70
    32
  0
VERTEX
  8
0
  5
62CA
 10
120.721
 20
90.0384
 30
0.000000
  70
    32
  0
VERTEX
  8
0
  5
62CB
 10
120.683
 20
90.0029
 30
0.000000
  70
    32
  0
VERTEX
  8
0
  5
62CC
 10
120.645
 20
89.9674
 30
0.000000
  70
    32
  0
VERTEX
  8
0
  5
62CD
 10
120.607
 20
89.9319
 30
0.000000
  70
    32
  0
VERTEX
  8
0
  5
62CE
 10
120.569
 20
89.8964
 30
0.000000
  70
    32
  0
VERTEX
  8
0
  5
62CF
 10
120.531
 20
89.8609
 30
0.000000
  70
    32
  0
VERTEX
  8
0
  5
62D0
 10
120.493
 20
89.8254
 30
0.000000
  70
    32
  0
VERTEX
  8
0
  5
62D1
 10
120.455
 20
89.7899
 30
0.000000
  70
    32
  0
VERTEX
  8
0
  5
62D2
 10
120.417
 20
89.7545
 30
0.000000
  70
    32
  0
VERTEX
  8
0
  5
62D3
 10
120.379
 20
89.7190
 30
0.000000
  70
    32
  0
VERTEX
  8
0
  5
62D4
 10
120.341
 20
89.6835
 30
0.000000
  70
    32
  0
VERTEX
  8
0
  5
62D5
 10
120.303
 20
89.6480
 30
0.000000
  70
    32
  0
VERTEX
  8
0
  5
62D6
 10
120.265
 20
89.6125
 30
0.000000
  70
    32
  0
VERTEX
  8
0
  5
62D7
 10
120.227
 20
89.5770
 30
0.000000
  70
    32
  0
VERTEX
  8
0
  5
62D8
 10
120.189
 20
89.5415
 30
0.000000
  70
    32
  0
VERTEX
  8
0
  5
62D9
 10
120.151
 20
89.5060
 30
0.000000
  70
    32
  0
VERTEX
  8
0
  5
62DA
 10
120.113
 20
89.4705
 30
0.000000
  70
    32
  0
VERTEX
  8
0
  5
62DB
 10
120.075
 20
89.4350
 30
0.000000
  70
    32
  0
VERTEX
  8
0
  5
62DC
 10
120.037
 20
89.3996
 30
0.000000
  70
    32
  0
SEQEND
  8
0
  5
62DD
  0
ARC
  5
3E51
  8
0
 10
160.72231784218189
 20
95.383798882901601
 30
0.0
 40
1.524000000000012
 50
90.0
 51
180.0
  0
ARC
  5
3E52
  8
0
 10
121.3523178421821
 20
95.383798882901601
 30
0.0
 40
1.524000000000012
 50
0.0
 51
90.0
  0
ARC
  5
3E53
  8
0
 10
160.72231784218189
 20
92.713060351958106
 30
0.0
 40
1.524000000000022
 50
180.0
 51
225.00000000000071
  0
ARC
  5
3E54
  8
0
 10
121.3523178421821
 20
92.713060351958106
 30
0.0
 40
1.524000000000022
 50
315.00000000000068
 51
0.0
  0
POLYLINE
  8
0
  5
62DE
  66
     1
 10
0.000000
 20
0.000000
 30
0.000000
  70
     8
  0
VERTEX
  8
0
  5
62DF
 10
159.198
 20
92.7131
 30
0.000000
  70
    32
  0
VERTEX
  8
0
  5
62E0
 10
159.198
 20
92.7555
 30
0.000000
  70
    32
  0
VERTEX
  8
0
  5
62E1
 10
159.198
 20
92.7978
 30
0.000000
  70
    32
  0
VERTEX
  8
0
  5
62E2
 10
159.198
 20
92.8402
 30
0.000000
  70
    32
  0
VERTEX
  8
0
  5
62E3
 10
159.198
 20
92.8826
 30
0.000000
  70
    32
  0
VERTEX
  8
0
  5
62E4
 10
159.198
 20
92.9250
 30
0.000000
  70
    32
  0
VERTEX
  8
0
  5
62E5
 10
159.198
 20
92.9674
 30
0.000000
  70
    32
  0
VERTEX
  8
0
  5
62E6
 10
159.198
 20
93.0098
 30
0.000000
  70
    32
  0
VERTEX
  8
0
  5
62E7
 10
159.198
 20
93.0522
 30
0.000000
  70
    32
  0
VERTEX
  8
0
  5
62E8
 10
159.198
 20
93.0946
 30
0.000000
  70
    32
  0
VERTEX
  8
0
  5
62E9
 10
159.198
 20
93.1370
 30
0.000000
  70
    32
  0
VERTEX
  8
0
  5
62EA
 10
159.198
 20
93.1794
 30
0.000000
  70
    32
  0
VERTEX
  8
0
  5
62EB
 10
159.198
 20
93.2218
 30
0.000000
  70
    32
  0
VERTEX
  8
0
  5
62EC
 10
159.198
 20
93.2642
 30
0.000000
  70
    32
  0
VERTEX
  8
0
  5
62ED
 10
159.198
 20
93.3066
 30
0.000000
  70
    32
  0
VERTEX
  8
0
  5
62EE
 10
159.198
 20
93.3490
 30
0.000000
  70
    32
  0
VERTEX
  8
0
  5
62EF
 10
159.198
 20
93.3913
 30
0.000000
  70
    32
  0
VERTEX
  8
0
  5
62F0
 10
159.198
 20
93.4337
 30
0.000000
  70
    32
  0
VERTEX
  8
0
  5
62F1
 10
159.198
 20
93.4761
 30
0.000000
  70
    32
  0
VERTEX
  8
0
  5
62F2
 10
159.198
 20
93.5185
 30
0.000000
  70
    32
  0
VERTEX
  8
0
  5
62F3
 10
159.198
 20
93.5609
 30
0.000000
  70
    32
  0
VERTEX
  8
0
  5
62F4
 10
159.198
 20
93.6033
 30
0.000000
  70
    32
  0
VERTEX
  8
0
  5
62F5
 10
159.198
 20
93.6457
 30
0.000000
  70
    32
  0
VERTEX
  8
0
  5
62F6
 10
159.198
 20
93.6881
 30
0.000000
  70
    32
  0
VERTEX
  8
0
  5
62F7
 10
159.198
 20
93.7305
 30
0.000000
  70
    32
  0
VERTEX
  8
0
  5
62F8
 10
159.198
 20
93.7729
 30
0.000000
  70
    32
  0
VERTEX
  8
0
  5
62F9
 10
159.198
 20
93.8153
 30
0.000000
  70
    32
  0
VERTEX
  8
0
  5
62FA
 10
159.198
 20
93.8577
 30
0.000000
  70
    32
  0
VERTEX
  8
0
  5
62FB
 10
159.198
 20
93.9001
 30
0.000000
  70
    32
  0
VERTEX
  8
0
  5
62FC
 10
159.198
 20
93.9424
 30
0.000000
  70
    32
  0
VERTEX
  8
0
  5
62FD
 10
159.198
 20
93.9848
 30
0.000000
  70
    32
  0
VERTEX
  8
0
  5
62FE
 10
159.198
 20
94.0272
 30
0.000000
  70
    32
  0
VERTEX
  8
0
  5
62FF
 10
159.198
 20
94.0696
 30
0.000000
  70
    32
  0
VERTEX
  8
0
  5
6300
 10
159.198
 20
94.1120
 30
0.000000
  70
    32
  0
VERTEX
  8
0
  5
6301
 10
159.198
 20
94.1544
 30
0.000000
  70
    32
  0
VERTEX
  8
0
  5
6302
 10
159.198
 20
94.1968
 30
0.000000
  70
    32
  0
VERTEX
  8
0
  5
6303
 10
159.198
 20
94.2392
 30
0.000000
  70
    32
  0
VERTEX
  8
0
  5
6304
 10
159.198
 20
94.2816
 30
0.000000
  70
    32
  0
VERTEX
  8
0
  5
6305
 10
159.198
 20
94.3240
 30
0.000000
  70
    32
  0
VERTEX
  8
0
  5
6306
 10
159.198
 20
94.3664
 30
0.000000
  70
    32
  0
VERTEX
  8
0
  5
6307
 10
159.198
 20
94.4088
 30
0.000000
  70
    32
  0
VERTEX
  8
0
  5
6308
 10
159.198
 20
94.4512
 30
0.000000
  70
    32
  0
VERTEX
  8
0
  5
6309
 10
159.198
 20
94.4936
 30
0.000000
  70
    32
  0
VERTEX
  8
0
  5
630A
 10
159.198
 20
94.5359
 30
0.000000
  70
    32
  0
VERTEX
  8
0
  5
630B
 10
159.198
 20
94.5783
 30
0.000000
  70
    32
  0
VERTEX
  8
0
  5
630C
 10
159.198
 20
94.6207
 30
0.000000
  70
    32
  0
VERTEX
  8
0
  5
630D
 10
159.198
 20
94.6631
 30
0.000000
  70
    32
  0
VERTEX
  8
0
  5
630E
 10
159.198
 20
94.7055
 30
0.000000
  70
    32
  0
VERTEX
  8
0
  5
630F
 10
159.198
 20
94.7479
 30
0.000000
  70
    32
  0
VERTEX
  8
0
  5
6310
 10
159.198
 20
94.7903
 30
0.000000
  70
    32
  0
VERTEX
  8
0
  5
6311
 10
159.198
 20
94.8327
 30
0.000000
  70
    32
  0
VERTEX
  8
0
  5
6312
 10
159.198
 20
94.8751
 30
0.000000
  70
    32
  0
VERTEX
  8
0
  5
6313
 10
159.198
 20
94.9175
 30
0.000000
  70
    32
  0
VERTEX
  8
0
  5
6314
 10
159.198
 20
94.9599
 30
0.000000
  70
    32
  0
VERTEX
  8
0
  5
6315
 10
159.198
 20
95.0023
 30
0.000000
  70
    32
  0
VERTEX
  8
0
  5
6316
 10
159.198
 20
95.0447
 30
0.000000
  70
    32
  0
VERTEX
  8
0
  5
6317
 10
159.198
 20
95.0871
 30
0.000000
  70
    32
  0
VERTEX
  8
0
  5
6318
 10
159.198
 20
95.1294
 30
0.000000
  70
    32
  0
VERTEX
  8
0
  5
6319
 10
159.198
 20
95.1718
 30
0.000000
  70
    32
  0
VERTEX
  8
0
  5
631A
 10
159.198
 20
95.2142
 30
0.000000
  70
    32
  0
VERTEX
  8
0
  5
631B
 10
159.198
 20
95.2566
 30
0.000000
  70
    32
  0
VERTEX
  8
0
  5
631C
 10
159.198
 20
95.2990
 30
0.000000
  70
    32
  0
VERTEX
  8
0
  5
631D
 10
159.198
 20
95.3414
 30
0.000000
  70
    32
  0
VERTEX
  8
0
  5
631E
 10
159.198
 20
95.3838
 30
0.000000
  70
    32
  0
SEQEND
  8
0
  5
631F
  0
POLYLINE
  8
0
  5
6320
  66
     1
 10
0.000000
 20
0.000000
 30
0.000000
  70
     8
  0
VERTEX
  8
0
  5
6321
 10
122.876
 20
95.3838
 30
0.000000
  70
    32
  0
VERTEX
  8
0
  5
6322
 10
122.876
 20
95.3414
 30
0.000000
  70
    32
  0
VERTEX
  8
0
  5
6323
 10
122.876
 20
95.2990
 30
0.000000
  70
    32
  0
VERTEX
  8
0
  5
6324
 10
122.876
 20
95.2566
 30
0.000000
  70
    32
  0
VERTEX
  8
0
  5
6325
 10
122.876
 20
95.2142
 30
0.000000
  70
    32
  0
VERTEX
  8
0
  5
6326
 10
122.876
 20
95.1718
 30
0.000000
  70
    32
  0
VERTEX
  8
0
  5
6327
 10
122.876
 20
95.1294
 30
0.000000
  70
    32
  0
VERTEX
  8
0
  5
6328
 10
122.876
 20
95.0871
 30
0.000000
  70
    32
  0
VERTEX
  8
0
  5
6329
 10
122.876
 20
95.0447
 30
0.000000
  70
    32
  0
VERTEX
  8
0
  5
632A
 10
122.876
 20
95.0023
 30
0.000000
  70
    32
  0
VERTEX
  8
0
  5
632B
 10
122.876
 20
94.9599
 30
0.000000
  70
    32
  0
VERTEX
  8
0
  5
632C
 10
122.876
 20
94.9175
 30
0.000000
  70
    32
  0
VERTEX
  8
0
  5
632D
 10
122.876
 20
94.8751
 30
0.000000
  70
    32
  0
VERTEX
  8
0
  5
632E
 10
122.876
 20
94.8327
 30
0.000000
  70
    32
  0
VERTEX
  8
0
  5
632F
 10
122.876
 20
94.7903
 30
0.000000
  70
    32
  0
VERTEX
  8
0
  5
6330
 10
122.876
 20
94.7479
 30
0.000000
  70
    32
  0
VERTEX
  8
0
  5
6331
 10
122.876
 20
94.7055
 30
0.000000
  70
    32
  0
VERTEX
  8
0
  5
6332
 10
122.876
 20
94.6631
 30
0.000000
  70
    32
  0
VERTEX
  8
0
  5
6333
 10
122.876
 20
94.6207
 30
0.000000
  70
    32
  0
VERTEX
  8
0
  5
6334
 10
122.876
 20
94.5783
 30
0.000000
  70
    32
  0
VERTEX
  8
0
  5
6335
 10
122.876
 20
94.5359
 30
0.000000
  70
    32
  0
VERTEX
  8
0
  5
6336
 10
122.876
 20
94.4936
 30
0.000000
  70
    32
  0
VERTEX
  8
0
  5
6337
 10
122.876
 20
94.4512
 30
0.000000
  70
    32
  0
VERTEX
  8
0
  5
6338
 10
122.876
 20
94.4088
 30
0.000000
  70
    32
  0
VERTEX
  8
0
  5
6339
 10
122.876
 20
94.3664
 30
0.000000
  70
    32
  0
VERTEX
  8
0
  5
633A
 10
122.876
 20
94.3240
 30
0.000000
  70
    32
  0
VERTEX
  8
0
  5
633B
 10
122.876
 20
94.2816
 30
0.000000
  70
    32
  0
VERTEX
  8
0
  5
633C
 10
122.876
 20
94.2392
 30
0.000000
  70
    32
  0
VERTEX
  8
0
  5
633D
 10
122.876
 20
94.1968
 30
0.000000
  70
    32
  0
VERTEX
  8
0
  5
633E
 10
122.876
 20
94.1544
 30
0.000000
  70
    32
  0
VERTEX
  8
0
  5
633F
 10
122.876
 20
94.1120
 30
0.000000
  70
    32
  0
VERTEX
  8
0
  5
6340
 10
122.876
 20
94.0696
 30
0.000000
  70
    32
  0
VERTEX
  8
0
  5
6341
 10
122.876
 20
94.0272
 30
0.000000
  70
    32
  0
VERTEX
  8
0
  5
6342
 10
122.876
 20
93.9848
 30
0.000000
  70
    32
  0
VERTEX
  8
0
  5
6343
 10
122.876
 20
93.9424
 30
0.000000
  70
    32
  0
VERTEX
  8
0
  5
6344
 10
122.876
 20
93.9001
 30
0.000000
  70
    32
  0
VERTEX
  8
0
  5
6345
 10
122.876
 20
93.8577
 30
0.000000
  70
    32
  0
VERTEX
  8
0
  5
6346
 10
122.876
 20
93.8153
 30
0.000000
  70
    32
  0
VERTEX
  8
0
  5
6347
 10
122.876
 20
93.7729
 30
0.000000
  70
    32
  0
VERTEX
  8
0
  5
6348
 10
122.876
 20
93.7305
 30
0.000000
  70
    32
  0
VERTEX
  8
0
  5
6349
 10
122.876
 20
93.6881
 30
0.000000
  70
    32
  0
VERTEX
  8
0
  5
634A
 10
122.876
 20
93.6457
 30
0.000000
  70
    32
  0
VERTEX
  8
0
  5
634B
 10
122.876
 20
93.6033
 30
0.000000
  70
    32
  0
VERTEX
  8
0
  5
634C
 10
122.876
 20
93.5609
 30
0.000000
  70
    32
  0
VERTEX
  8
0
  5
634D
 10
122.876
 20
93.5185
 30
0.000000
  70
    32
  0
VERTEX
  8
0
  5
634E
 10
122.876
 20
93.4761
 30
0.000000
  70
    32
  0
VERTEX
  8
0
  5
634F
 10
122.876
 20
93.4337
 30
0.000000
  70
    32
  0
VERTEX
  8
0
  5
6350
 10
122.876
 20
93.3913
 30
0.000000
  70
    32
  0
VERTEX
  8
0
  5
6351
 10
122.876
 20
93.3490
 30
0.000000
  70
    32
  0
VERTEX
  8
0
  5
6352
 10
122.876
 20
93.3066
 30
0.000000
  70
    32
  0
VERTEX
  8
0
  5
6353
 10
122.876
 20
93.2642
 30
0.000000
  70
    32
  0
VERTEX
  8
0
  5
6354
 10
122.876
 20
93.2218
 30
0.000000
  70
    32
  0
VERTEX
  8
0
  5
6355
 10
122.876
 20
93.1794
 30
0.000000
  70
    32
  0
VERTEX
  8
0
  5
6356
 10
122.876
 20
93.1370
 30
0.000000
  70
    32
  0
VERTEX
  8
0
  5
6357
 10
122.876
 20
93.0946
 30
0.000000
  70
    32
  0
VERTEX
  8
0
  5
6358
 10
122.876
 20
93.0522
 30
0.000000
  70
    32
  0
VERTEX
  8
0
  5
6359
 10
122.876
 20
93.0098
 30
0.000000
  70
    32
  0
VERTEX
  8
0
  5
635A
 10
122.876
 20
92.9674
 30
0.000000
  70
    32
  0
VERTEX
  8
0
  5
635B
 10
122.876
 20
92.9250
 30
0.000000
  70
    32
  0
VERTEX
  8
0
  5
635C
 10
122.876
 20
92.8826
 30
0.000000
  70
    32
  0
VERTEX
  8
0
  5
635D
 10
122.876
 20
92.8402
 30
0.000000
  70
    32
  0
VERTEX
  8
0
  5
635E
 10
122.876
 20
92.7978
 30
0.000000
  70
    32
  0
VERTEX
  8
0
  5
635F
 10
122.876
 20
92.7555
 30
0.000000
  70
    32
  0
VERTEX
  8
0
  5
6360
 10
122.876
 20
92.7131
 30
0.000000
  70
    32
  0
SEQEND
  8
0
  5
6361
  0
LINE
  5
3E58
  8
0
 10
159.19831784218189
 20
95.383798882901601
 30
0.0
 11
122.8763178421822
 21
95.383798882901601
 31
0.0
  0
LINE
  5
3E59
  8
0
 10
122.8763178421822
 20
92.713060351958106
 30
0.0
 11
159.19831784218189
 21
92.713060351958106
 31
0.0
  0
LINE
  5
3E6E
  8
0
 10
447.16006048772209
 20
92.713060351958006
 30
0.0
 11
483.48206048772198
 21
92.713060351958006
 31
0.0
  0
LINE
  5
3E6F
  8
0
 10
483.48206048772198
 20
95.383798882901488
 30
0.0
 11
447.16006048772209
 21
95.383798882901488
 31
0.0
  0
POLYLINE
  8
0
  5
6362
  66
     1
 10
0.000000
 20
0.000000
 30
0.000000
  70
     8
  0
VERTEX
  8
0
  5
6363
 10
447.160
 20
95.3838
 30
0.000000
  70
    32
  0
VERTEX
  8
0
  5
6364
 10
447.160
 20
95.3414
 30
0.000000
  70
    32
  0
VERTEX
  8
0
  5
6365
 10
447.160
 20
95.2990
 30
0.000000
  70
    32
  0
VERTEX
  8
0
  5
6366
 10
447.160
 20
95.2566
 30
0.000000
  70
    32
  0
VERTEX
  8
0
  5
6367
 10
447.160
 20
95.2142
 30
0.000000
  70
    32
  0
VERTEX
  8
0
  5
6368
 10
447.160
 20
95.1718
 30
0.000000
  70
    32
  0
VERTEX
  8
0
  5
6369
 10
447.160
 20
95.1294
 30
0.000000
  70
    32
  0
VERTEX
  8
0
  5
636A
 10
447.160
 20
95.0871
 30
0.000000
  70
    32
  0
VERTEX
  8
0
  5
636B
 10
447.160
 20
95.0447
 30
0.000000
  70
    32
  0
VERTEX
  8
0
  5
636C
 10
447.160
 20
95.0023
 30
0.000000
  70
    32
  0
VERTEX
  8
0
  5
636D
 10
447.160
 20
94.9599
 30
0.000000
  70
    32
  0
VERTEX
  8
0
  5
636E
 10
447.160
 20
94.9175
 30
0.000000
  70
    32
  0
VERTEX
  8
0
  5
636F
 10
447.160
 20
94.8751
 30
0.000000
  70
    32
  0
VERTEX
  8
0
  5
6370
 10
447.160
 20
94.8327
 30
0.000000
  70
    32
  0
VERTEX
  8
0
  5
6371
 10
447.160
 20
94.7903
 30
0.000000
  70
    32
  0
VERTEX
  8
0
  5
6372
 10
447.160
 20
94.7479
 30
0.000000
  70
    32
  0
VERTEX
  8
0
  5
6373
 10
447.160
 20
94.7055
 30
0.000000
  70
    32
  0
VERTEX
  8
0
  5
6374
 10
447.160
 20
94.6631
 30
0.000000
  70
    32
  0
VERTEX
  8
0
  5
6375
 10
447.160
 20
94.6207
 30
0.000000
  70
    32
  0
VERTEX
  8
0
  5
6376
 10
447.160
 20
94.5783
 30
0.000000
  70
    32
  0
VERTEX
  8
0
  5
6377
 10
447.160
 20
94.5359
 30
0.000000
  70
    32
  0
VERTEX
  8
0
  5
6378
 10
447.160
 20
94.4936
 30
0.000000
  70
    32
  0
VERTEX
  8
0
  5
6379
 10
447.160
 20
94.4512
 30
0.000000
  70
    32
  0
VERTEX
  8
0
  5
637A
 10
447.160
 20
94.4088
 30
0.000000
  70
    32
  0
VERTEX
  8
0
  5
637B
 10
447.160
 20
94.3664
 30
0.000000
  70
    32
  0
VERTEX
  8
0
  5
637C
 10
447.160
 20
94.3240
 30
0.000000
  70
    32
  0
VERTEX
  8
0
  5
637D
 10
447.160
 20
94.2816
 30
0.000000
  70
    32
  0
VERTEX
  8
0
  5
637E
 10
447.160
 20
94.2392
 30
0.000000
  70
    32
  0
VERTEX
  8
0
  5
637F
 10
447.160
 20
94.1968
 30
0.000000
  70
    32
  0
VERTEX
  8
0
  5
6380
 10
447.160
 20
94.1544
 30
0.000000
  70
    32
  0
VERTEX
  8
0
  5
6381
 10
447.160
 20
94.1120
 30
0.000000
  70
    32
  0
VERTEX
  8
0
  5
6382
 10
447.160
 20
94.0696
 30
0.000000
  70
    32
  0
VERTEX
  8
0
  5
6383
 10
447.160
 20
94.0272
 30
0.000000
  70
    32
  0
VERTEX
  8
0
  5
6384
 10
447.160
 20
93.9848
 30
0.000000
  70
    32
  0
VERTEX
  8
0
  5
6385
 10
447.160
 20
93.9424
 30
0.000000
  70
    32
  0
VERTEX
  8
0
  5
6386
 10
447.160
 20
93.9001
 30
0.000000
  70
    32
  0
VERTEX
  8
0
  5
6387
 10
447.160
 20
93.8577
 30
0.000000
  70
    32
  0
VERTEX
  8
0
  5
6388
 10
447.160
 20
93.8153
 30
0.000000
  70
    32
  0
VERTEX
  8
0
  5
6389
 10
447.160
 20
93.7729
 30
0.000000
  70
    32
  0
VERTEX
  8
0
  5
638A
 10
447.160
 20
93.7305
 30
0.000000
  70
    32
  0
VERTEX
  8
0
  5
638B
 10
447.160
 20
93.6881
 30
0.000000
  70
    32
  0
VERTEX
  8
0
  5
638C
 10
447.160
 20
93.6457
 30
0.000000
  70
    32
  0
VERTEX
  8
0
  5
638D
 10
447.160
 20
93.6033
 30
0.000000
  70
    32
  0
VERTEX
  8
0
  5
638E
 10
447.160
 20
93.5609
 30
0.000000
  70
    32
  0
VERTEX
  8
0
  5
638F
 10
447.160
 20
93.5185
 30
0.000000
  70
    32
  0
VERTEX
  8
0
  5
6390
 10
447.160
 20
93.4761
 30
0.000000
  70
    32
  0
VERTEX
  8
0
  5
6391
 10
447.160
 20
93.4337
 30
0.000000
  70
    32
  0
VERTEX
  8
0
  5
6392
 10
447.160
 20
93.3913
 30
0.000000
  70
    32
  0
VERTEX
  8
0
  5
6393
 10
447.160
 20
93.3490
 30
0.000000
  70
    32
  0
VERTEX
  8
0
  5
6394
 10
447.160
 20
93.3066
 30
0.000000
  70
    32
  0
VERTEX
  8
0
  5
6395
 10
447.160
 20
93.2642
 30
0.000000
  70
    32
  0
VERTEX
  8
0
  5
6396
 10
447.160
 20
93.2218
 30
0.000000
  70
    32
  0
VERTEX
  8
0
  5
6397
 10
447.160
 20
93.1794
 30
0.000000
  70
    32
  0
VERTEX
  8
0
  5
6398
 10
447.160
 20
93.1370
 30
0.000000
  70
    32
  0
VERTEX
  8
0
  5
6399
 10
447.160
 20
93.0946
 30
0.000000
  70
    32
  0
VERTEX
  8
0
  5
639A
 10
447.160
 20
93.0522
 30
0.000000
  70
    32
  0
VERTEX
  8
0
  5
639B
 10
447.160
 20
93.0098
 30
0.000000
  70
    32
  0
VERTEX
  8
0
  5
639C
 10
447.160
 20
92.9674
 30
0.000000
  70
    32
  0
VERTEX
  8
0
  5
639D
 10
447.160
 20
92.9250
 30
0.000000
  70
    32
  0
VERTEX
  8
0
  5
639E
 10
447.160
 20
92.8826
 30
0.000000
  70
    32
  0
VERTEX
  8
0
  5
639F
 10
447.160
 20
92.8402
 30
0.000000
  70
    32
  0
VERTEX
  8
0
  5
63A0
 10
447.160
 20
92.7978
 30
0.000000
  70
    32
  0
VERTEX
  8
0
  5
63A1
 10
447.160
 20
92.7555
 30
0.000000
  70
    32
  0
VERTEX
  8
0
  5
63A2
 10
447.160
 20
92.7131
 30
0.000000
  70
    32
  0
SEQEND
  8
0
  5
63A3
  0
POLYLINE
  8
0
  5
63A4
  66
     1
 10
0.000000
 20
0.000000
 30
0.000000
  70
     8
  0
VERTEX
  8
0
  5
63A5
 10
483.482
 20
92.7131
 30
0.000000
  70
    32
  0
VERTEX
  8
0
  5
63A6
 10
483.482
 20
92.7555
 30
0.000000
  70
    32
  0
VERTEX
  8
0
  5
63A7
 10
483.482
 20
92.7978
 30
0.000000
  70
    32
  0
VERTEX
  8
0
  5
63A8
 10
483.482
 20
92.8402
 30
0.000000
  70
    32
  0
VERTEX
  8
0
  5
63A9
 10
483.482
 20
92.8826
 30
0.000000
  70
    32
  0
VERTEX
  8
0
  5
63AA
 10
483.482
 20
92.9250
 30
0.000000
  70
    32
  0
VERTEX
  8
0
  5
63AB
 10
483.482
 20
92.9674
 30
0.000000
  70
    32
  0
VERTEX
  8
0
  5
63AC
 10
483.482
 20
93.0098
 30
0.000000
  70
    32
  0
VERTEX
  8
0
  5
63AD
 10
483.482
 20
93.0522
 30
0.000000
  70
    32
  0
VERTEX
  8
0
  5
63AE
 10
483.482
 20
93.0946
 30
0.000000
  70
    32
  0
VERTEX
  8
0
  5
63AF
 10
483.482
 20
93.1370
 30
0.000000
  70
    32
  0
VERTEX
  8
0
  5
63B0
 10
483.482
 20
93.1794
 30
0.000000
  70
    32
  0
VERTEX
  8
0
  5
63B1
 10
483.482
 20
93.2218
 30
0.000000
  70
    32
  0
VERTEX
  8
0
  5
63B2
 10
483.482
 20
93.2642
 30
0.000000
  70
    32
  0
VERTEX
  8
0
  5
63B3
 10
483.482
 20
93.3066
 30
0.000000
  70
    32
  0
VERTEX
  8
0
  5
63B4
 10
483.482
 20
93.3490
 30
0.000000
  70
    32
  0
VERTEX
  8
0
  5
63B5
 10
483.482
 20
93.3913
 30
0.000000
  70
    32
  0
VERTEX
  8
0
  5
63B6
 10
483.482
 20
93.4337
 30
0.000000
  70
    32
  0
VERTEX
  8
0
  5
63B7
 10
483.482
 20
93.4761
 30
0.000000
  70
    32
  0
VERTEX
  8
0
  5
63B8
 10
483.482
 20
93.5185
 30
0.000000
  70
    32
  0
VERTEX
  8
0
  5
63B9
 10
483.482
 20
93.5609
 30
0.000000
  70
    32
  0
VERTEX
  8
0
  5
63BA
 10
483.482
 20
93.6033
 30
0.000000
  70
    32
  0
VERTEX
  8
0
  5
63BB
 10
483.482
 20
93.6457
 30
0.000000
  70
    32
  0
VERTEX
  8
0
  5
63BC
 10
483.482
 20
93.6881
 30
0.000000
  70
    32
  0
VERTEX
  8
0
  5
63BD
 10
483.482
 20
93.7305
 30
0.000000
  70
    32
  0
VERTEX
  8
0
  5
63BE
 10
483.482
 20
93.7729
 30
0.000000
  70
    32
  0
VERTEX
  8
0
  5
63BF
 10
483.482
 20
93.8153
 30
0.000000
  70
    32
  0
VERTEX
  8
0
  5
63C0
 10
483.482
 20
93.8577
 30
0.000000
  70
    32
  0
VERTEX
  8
0
  5
63C1
 10
483.482
 20
93.9001
 30
0.000000
  70
    32
  0
VERTEX
  8
0
  5
63C2
 10
483.482
 20
93.9424
 30
0.000000
  70
    32
  0
VERTEX
  8
0
  5
63C3
 10
483.482
 20
93.9848
 30
0.000000
  70
    32
  0
VERTEX
  8
0
  5
63C4
 10
483.482
 20
94.0272
 30
0.000000
  70
    32
  0
VERTEX
  8
0
  5
63C5
 10
483.482
 20
94.0696
 30
0.000000
  70
    32
  0
VERTEX
  8
0
  5
63C6
 10
483.482
 20
94.1120
 30
0.000000
  70
    32
  0
VERTEX
  8
0
  5
63C7
 10
483.482
 20
94.1544
 30
0.000000
  70
    32
  0
VERTEX
  8
0
  5
63C8
 10
483.482
 20
94.1968
 30
0.000000
  70
    32
  0
VERTEX
  8
0
  5
63C9
 10
483.482
 20
94.2392
 30
0.000000
  70
    32
  0
VERTEX
  8
0
  5
63CA
 10
483.482
 20
94.2816
 30
0.000000
  70
    32
  0
VERTEX
  8
0
  5
63CB
 10
483.482
 20
94.3240
 30
0.000000
  70
    32
  0
VERTEX
  8
0
  5
63CC
 10
483.482
 20
94.3664
 30
0.000000
  70
    32
  0
VERTEX
  8
0
  5
63CD
 10
483.482
 20
94.4088
 30
0.000000
  70
    32
  0
VERTEX
  8
0
  5
63CE
 10
483.482
 20
94.4512
 30
0.000000
  70
    32
  0
VERTEX
  8
0
  5
63CF
 10
483.482
 20
94.4936
 30
0.000000
  70
    32
  0
VERTEX
  8
0
  5
63D0
 10
483.482
 20
94.5359
 30
0.000000
  70
    32
  0
VERTEX
  8
0
  5
63D1
 10
483.482
 20
94.5783
 30
0.000000
  70
    32
  0
VERTEX
  8
0
  5
63D2
 10
483.482
 20
94.6207
 30
0.000000
  70
    32
  0
VERTEX
  8
0
  5
63D3
 10
483.482
 20
94.6631
 30
0.000000
  70
    32
  0
VERTEX
  8
0
  5
63D4
 10
483.482
 20
94.7055
 30
0.000000
  70
    32
  0
VERTEX
  8
0
  5
63D5
 10
483.482
 20
94.7479
 30
0.000000
  70
    32
  0
VERTEX
  8
0
  5
63D6
 10
483.482
 20
94.7903
 30
0.000000
  70
    32
  0
VERTEX
  8
0
  5
63D7
 10
483.482
 20
94.8327
 30
0.000000
  70
    32
  0
VERTEX
  8
0
  5
63D8
 10
483.482
 20
94.8751
 30
0.000000
  70
    32
  0
VERTEX
  8
0
  5
63D9
 10
483.482
 20
94.9175
 30
0.000000
  70
    32
  0
VERTEX
  8
0
  5
63DA
 10
483.482
 20
94.9599
 30
0.000000
  70
    32
  0
VERTEX
  8
0
  5
63DB
 10
483.482
 20
95.0023
 30
0.000000
  70
    32
  0
VERTEX
  8
0
  5
63DC
 10
483.482
 20
95.0447
 30
0.000000
  70
    32
  0
VERTEX
  8
0
  5
63DD
 10
483.482
 20
95.0871
 30
0.000000
  70
    32
  0
VERTEX
  8
0
  5
63DE
 10
483.482
 20
95.1294
 30
0.000000
  70
    32
  0
VERTEX
  8
0
  5
63DF
 10
483.482
 20
95.1718
 30
0.000000
  70
    32
  0
VERTEX
  8
0
  5
63E0
 10
483.482
 20
95.2142
 30
0.000000
  70
    32
  0
VERTEX
  8
0
  5
63E1
 10
483.482
 20
95.2566
 30
0.000000
  70
    32
  0
VERTEX
  8
0
  5
63E2
 10
483.482
 20
95.2990
 30
0.000000
  70
    32
  0
VERTEX
  8
0
  5
63E3
 10
483.482
 20
95.3414
 30
0.000000
  70
    32
  0
VERTEX
  8
0
  5
63E4
 10
483.482
 20
95.3838
 30
0.000000
  70
    32
  0
SEQEND
  8
0
  5
63E5
  0
ARC
  5
3E72
  8
0
 10
445.63606048772232
 20
92.713060351958006
 30
0.0
 40
1.524000000000022
 50
315.00000000000068
 51
0.0
  0
ARC
  5
3E73
  8
0
 10
485.0060604877221
 20
92.713060351958006
 30
0.0
 40
1.524000000000022
 50
180.0
 51
225.00000000000071
  0
ARC
  5
3E74
  8
0
 10
445.63606048772232
 20
95.383798882901488
 30
0.0
 40
1.524000000000012
 50
0.0
 51
90.0
  0
ARC
  5
3E75
  8
0
 10
485.0060604877221
 20
95.383798882901488
 30
0.0
 40
1.524000000000012
 50
90.0
 51
180.0
  0
POLYLINE
  8
0
  5
63E6
  66
     1
 10
0.000000
 20
0.000000
 30
0.000000
  70
     8
  0
VERTEX
  8
0
  5
63E7
 10
446.714
 20
91.6354
 30
0.000000
  70
    32
  0
VERTEX
  8
0
  5
63E8
 10
446.676
 20
91.5999
 30
0.000000
  70
    32
  0
VERTEX
  8
0
  5
63E9
 10
446.638
 20
91.5644
 30
0.000000
  70
    32
  0
VERTEX
  8
0
  5
63EA
 10
446.600
 20
91.5290
 30
0.000000
  70
    32
  0
VERTEX
  8
0
  5
63EB
 10
446.562
 20
91.4935
 30
0.000000
  70
    32
  0
VERTEX
  8
0
  5
63EC
 10
446.524
 20
91.4580
 30
0.000000
  70
    32
  0
VERTEX
  8
0
  5
63ED
 10
446.486
 20
91.4225
 30
0.000000
  70
    32
  0
VERTEX
  8
0
  5
63EE
 10
446.448
 20
91.3870
 30
0.000000
  70
    32
  0
VERTEX
  8
0
  5
63EF
 10
446.410
 20
91.3515
 30
0.000000
  70
    32
  0
VERTEX
  8
0
  5
63F0
 10
446.372
 20
91.3160
 30
0.000000
  70
    32
  0
VERTEX
  8
0
  5
63F1
 10
446.334
 20
91.2805
 30
0.000000
  70
    32
  0
VERTEX
  8
0
  5
63F2
 10
446.296
 20
91.2450
 30
0.000000
  70
    32
  0
VERTEX
  8
0
  5
63F3
 10
446.258
 20
91.2095
 30
0.000000
  70
    32
  0
VERTEX
  8
0
  5
63F4
 10
446.220
 20
91.1741
 30
0.000000
  70
    32
  0
VERTEX
  8
0
  5
63F5
 10
446.182
 20
91.1386
 30
0.000000
  70
    32
  0
VERTEX
  8
0
  5
63F6
 10
446.144
 20
91.1031
 30
0.000000
  70
    32
  0
VERTEX
  8
0
  5
63F7
 10
446.106
 20
91.0676
 30
0.000000
  70
    32
  0
VERTEX
  8
0
  5
63F8
 10
446.068
 20
91.0321
 30
0.000000
  70
    32
  0
VERTEX
  8
0
  5
63F9
 10
446.030
 20
90.9966
 30
0.000000
  70
    32
  0
VERTEX
  8
0
  5
63FA
 10
445.992
 20
90.9611
 30
0.000000
  70
    32
  0
VERTEX
  8
0
  5
63FB
 10
445.954
 20
90.9256
 30
0.000000
  70
    32
  0
VERTEX
  8
0
  5
63FC
 10
445.916
 20
90.8901
 30
0.000000
  70
    32
  0
VERTEX
  8
0
  5
63FD
 10
445.878
 20
90.8546
 30
0.000000
  70
    32
  0
VERTEX
  8
0
  5
63FE
 10
445.840
 20
90.8192
 30
0.000000
  70
    32
  0
VERTEX
  8
0
  5
63FF
 10
445.802
 20
90.7837
 30
0.000000
  70
    32
  0
VERTEX
  8
0
  5
6400
 10
445.764
 20
90.7482
 30
0.000000
  70
    32
  0
VERTEX
  8
0
  5
6401
 10
445.726
 20
90.7127
 30
0.000000
  70
    32
  0
VERTEX
  8
0
  5
6402
 10
445.688
 20
90.6772
 30
0.000000
  70
    32
  0
VERTEX
  8
0
  5
6403
 10
445.650
 20
90.6417
 30
0.000000
  70
    32
  0
VERTEX
  8
0
  5
6404
 10
445.612
 20
90.6062
 30
0.000000
  70
    32
  0
VERTEX
  8
0
  5
6405
 10
445.574
 20
90.5707
 30
0.000000
  70
    32
  0
VERTEX
  8
0
  5
6406
 10
445.536
 20
90.5352
 30
0.000000
  70
    32
  0
VERTEX
  8
0
  5
6407
 10
445.498
 20
90.4997
 30
0.000000
  70
    32
  0
VERTEX
  8
0
  5
6408
 10
445.460
 20
90.4643
 30
0.000000
  70
    32
  0
VERTEX
  8
0
  5
6409
 10
445.422
 20
90.4288
 30
0.000000
  70
    32
  0
VERTEX
  8
0
  5
640A
 10
445.384
 20
90.3933
 30
0.000000
  70
    32
  0
VERTEX
  8
0
  5
640B
 10
445.346
 20
90.3578
 30
0.000000
  70
    32
  0
VERTEX
  8
0
  5
640C
 10
445.308
 20
90.3223
 30
0.000000
  70
    32
  0
VERTEX
  8
0
  5
640D
 10
445.271
 20
90.2868
 30
0.000000
  70
    32
  0
VERTEX
  8
0
  5
640E
 10
445.233
 20
90.2513
 30
0.000000
  70
    32
  0
VERTEX
  8
0
  5
640F
 10
445.195
 20
90.2158
 30
0.000000
  70
    32
  0
VERTEX
  8
0
  5
6410
 10
445.157
 20
90.1803
 30
0.000000
  70
    32
  0
VERTEX
  8
0
  5
6411
 10
445.119
 20
90.1448
 30
0.000000
  70
    32
  0
VERTEX
  8
0
  5
6412
 10
445.081
 20
90.1094
 30
0.000000
  70
    32
  0
VERTEX
  8
0
  5
6413
 10
445.043
 20
90.0739
 30
0.000000
  70
    32
  0
VERTEX
  8
0
  5
6414
 10
445.005
 20
90.0384
 30
0.000000
  70
    32
  0
VERTEX
  8
0
  5
6415
 10
444.967
 20
90.0029
 30
0.000000
  70
    32
  0
VERTEX
  8
0
  5
6416
 10
444.929
 20
89.9674
 30
0.000000
  70
    32
  0
VERTEX
  8
0
  5
6417
 10
444.891
 20
89.9319
 30
0.000000
  70
    32
  0
VERTEX
  8
0
  5
6418
 10
444.853
 20
89.8964
 30
0.000000
  70
    32
  0
VERTEX
  8
0
  5
6419
 10
444.815
 20
89.8609
 30
0.000000
  70
    32
  0
VERTEX
  8
0
  5
641A
 10
444.777
 20
89.8254
 30
0.000000
  70
    32
  0
VERTEX
  8
0
  5
641B
 10
444.739
 20
89.7899
 30
0.000000
  70
    32
  0
VERTEX
  8
0
  5
641C
 10
444.701
 20
89.7545
 30
0.000000
  70
    32
  0
VERTEX
  8
0
  5
641D
 10
444.663
 20
89.7190
 30
0.000000
  70
    32
  0
VERTEX
  8
0
  5
641E
 10
444.625
 20
89.6835
 30
0.000000
  70
    32
  0
VERTEX
  8
0
  5
641F
 10
444.587
 20
89.6480
 30
0.000000
  70
    32
  0
VERTEX
  8
0
  5
6420
 10
444.549
 20
89.6125
 30
0.000000
  70
    32
  0
VERTEX
  8
0
  5
6421
 10
444.511
 20
89.5770
 30
0.000000
  70
    32
  0
VERTEX
  8
0
  5
6422
 10
444.473
 20
89.5415
 30
0.000000
  70
    32
  0
VERTEX
  8
0
  5
6423
 10
444.435
 20
89.5060
 30
0.000000
  70
    32
  0
VERTEX
  8
0
  5
6424
 10
444.397
 20
89.4705
 30
0.000000
  70
    32
  0
VERTEX
  8
0
  5
6425
 10
444.359
 20
89.4350
 30
0.000000
  70
    32
  0
VERTEX
  8
0
  5
6426
 10
444.321
 20
89.3996
 30
0.000000
  70
    32
  0
SEQEND
  8
0
  5
6427
  0
POLYLINE
  8
0
  5
6428
  66
     1
 10
0.000000
 20
0.000000
 30
0.000000
  70
     8
  0
VERTEX
  8
0
  5
6429
 10
486.321
 20
89.3996
 30
0.000000
  70
    32
  0
VERTEX
  8
0
  5
642A
 10
486.283
 20
89.4350
 30
0.000000
  70
    32
  0
VERTEX
  8
0
  5
642B
 10
486.245
 20
89.4705
 30
0.000000
  70
    32
  0
VERTEX
  8
0
  5
642C
 10
486.207
 20
89.5060
 30
0.000000
  70
    32
  0
VERTEX
  8
0
  5
642D
 10
486.169
 20
89.5415
 30
0.000000
  70
    32
  0
VERTEX
  8
0
  5
642E
 10
486.131
 20
89.5770
 30
0.000000
  70
    32
  0
VERTEX
  8
0
  5
642F
 10
486.093
 20
89.6125
 30
0.000000
  70
    32
  0
VERTEX
  8
0
  5
6430
 10
486.055
 20
89.6480
 30
0.000000
  70
    32
  0
VERTEX
  8
0
  5
6431
 10
486.017
 20
89.6835
 30
0.000000
  70
    32
  0
VERTEX
  8
0
  5
6432
 10
485.979
 20
89.7190
 30
0.000000
  70
    32
  0
VERTEX
  8
0
  5
6433
 10
485.941
 20
89.7545
 30
0.000000
  70
    32
  0
VERTEX
  8
0
  5
6434
 10
485.903
 20
89.7899
 30
0.000000
  70
    32
  0
VERTEX
  8
0
  5
6435
 10
485.865
 20
89.8254
 30
0.000000
  70
    32
  0
VERTEX
  8
0
  5
6436
 10
485.827
 20
89.8609
 30
0.000000
  70
    32
  0
VERTEX
  8
0
  5
6437
 10
485.789
 20
89.8964
 30
0.000000
  70
    32
  0
VERTEX
  8
0
  5
6438
 10
485.751
 20
89.9319
 30
0.000000
  70
    32
  0
VERTEX
  8
0
  5
6439
 10
485.713
 20
89.9674
 30
0.000000
  70
    32
  0
VERTEX
  8
0
  5
643A
 10
485.675
 20
90.0029
 30
0.000000
  70
    32
  0
VERTEX
  8
0
  5
643B
 10
485.637
 20
90.0384
 30
0.000000
  70
    32
  0
VERTEX
  8
0
  5
643C
 10
485.599
 20
90.0739
 30
0.000000
  70
    32
  0
VERTEX
  8
0
  5
643D
 10
485.561
 20
90.1094
 30
0.000000
  70
    32
  0
VERTEX
  8
0
  5
643E
 10
485.524
 20
90.1448
 30
0.000000
  70
    32
  0
VERTEX
  8
0
  5
643F
 10
485.486
 20
90.1803
 30
0.000000
  70
    32
  0
VERTEX
  8
0
  5
6440
 10
485.448
 20
90.2158
 30
0.000000
  70
    32
  0
VERTEX
  8
0
  5
6441
 10
485.410
 20
90.2513
 30
0.000000
  70
    32
  0
VERTEX
  8
0
  5
6442
 10
485.372
 20
90.2868
 30
0.000000
  70
    32
  0
VERTEX
  8
0
  5
6443
 10
485.334
 20
90.3223
 30
0.000000
  70
    32
  0
VERTEX
  8
0
  5
6444
 10
485.296
 20
90.3578
 30
0.000000
  70
    32
  0
VERTEX
  8
0
  5
6445
 10
485.258
 20
90.3933
 30
0.000000
  70
    32
  0
VERTEX
  8
0
  5
6446
 10
485.220
 20
90.4288
 30
0.000000
  70
    32
  0
VERTEX
  8
0
  5
6447
 10
485.182
 20
90.4643
 30
0.000000
  70
    32
  0
VERTEX
  8
0
  5
6448
 10
485.144
 20
90.4997
 30
0.000000
  70
    32
  0
VERTEX
  8
0
  5
6449
 10
485.106
 20
90.5352
 30
0.000000
  70
    32
  0
VERTEX
  8
0
  5
644A
 10
485.068
 20
90.5707
 30
0.000000
  70
    32
  0
VERTEX
  8
0
  5
644B
 10
485.030
 20
90.6062
 30
0.000000
  70
    32
  0
VERTEX
  8
0
  5
644C
 10
484.992
 20
90.6417
 30
0.000000
  70
    32
  0
VERTEX
  8
0
  5
644D
 10
484.954
 20
90.6772
 30
0.000000
  70
    32
  0
VERTEX
  8
0
  5
644E
 10
484.916
 20
90.7127
 30
0.000000
  70
    32
  0
VERTEX
  8
0
  5
644F
 10
484.878
 20
90.7482
 30
0.000000
  70
    32
  0
VERTEX
  8
0
  5
6450
 10
484.840
 20
90.7837
 30
0.000000
  70
    32
  0
VERTEX
  8
0
  5
6451
 10
484.802
 20
90.8192
 30
0.000000
  70
    32
  0
VERTEX
  8
0
  5
6452
 10
484.764
 20
90.8546
 30
0.000000
  70
    32
  0
VERTEX
  8
0
  5
6453
 10
484.726
 20
90.8901
 30
0.000000
  70
    32
  0
VERTEX
  8
0
  5
6454
 10
484.688
 20
90.9256
 30
0.000000
  70
    32
  0
VERTEX
  8
0
  5
6455
 10
484.650
 20
90.9611
 30
0.000000
  70
    32
  0
VERTEX
  8
0
  5
6456
 10
484.612
 20
90.9966
 30
0.000000
  70
    32
  0
VERTEX
  8
0
  5
6457
 10
484.574
 20
91.0321
 30
0.000000
  70
    32
  0
VERTEX
  8
0
  5
6458
 10
484.536
 20
91.0676
 30
0.000000
  70
    32
  0
VERTEX
  8
0
  5
6459
 10
484.498
 20
91.1031
 30
0.000000
  70
    32
  0
VERTEX
  8
0
  5
645A
 10
484.460
 20
91.1386
 30
0.000000
  70
    32
  0
VERTEX
  8
0
  5
645B
 10
484.422
 20
91.1741
 30
0.000000
  70
    32
  0
VERTEX
  8
0
  5
645C
 10
484.384
 20
91.2095
 30
0.000000
  70
    32
  0
VERTEX
  8
0
  5
645D
 10
484.346
 20
91.2450
 30
0.000000
  70
    32
  0
VERTEX
  8
0
  5
645E
 10
484.308
 20
91.2805
 30
0.000000
  70
    32
  0
VERTEX
  8
0
  5
645F
 10
484.270
 20
91.3160
 30
0.000000
  70
    32
  0
VERTEX
  8
0
  5
6460
 10
484.232
 20
91.3515
 30
0.000000
  70
    32
  0
VERTEX
  8
0
  5
6461
 10
484.194
 20
91.3870
 30
0.000000
  70
    32
  0
VERTEX
  8
0
  5
6462
 10
484.156
 20
91.4225
 30
0.000000
  70
    32
  0
VERTEX
  8
0
  5
6463
 10
484.118
 20
91.4580
 30
0.000000
  70
    32
  0
VERTEX
  8
0
  5
6464
 10
484.080
 20
91.4935
 30
0.000000
  70
    32
  0
VERTEX
  8
0
  5
6465
 10
484.042
 20
91.5290
 30
0.000000
  70
    32
  0
VERTEX
  8
0
  5
6466
 10
484.004
 20
91.5644
 30
0.000000
  70
    32
  0
VERTEX
  8
0
  5
6467
 10
483.966
 20
91.5999
 30
0.000000
  70
    32
  0
VERTEX
  8
0
  5
6468
 10
483.928
 20
91.6354
 30
0.000000
  70
    32
  0
SEQEND
  8
0
  5
6469
  0
LINE
  5
3E78
  8
0
 10
486.32106048772221
 20
89.399558882901275
 30
0.0
 11
444.32106048772209
 21
89.399558882901275
 31
0.0
  0
LINE
  5
3E79
  8
0
 10
481.82106048772238
 20
34.207798882901557
 30
0.0
 11
448.82106048772238
 21
34.207798882901557
 31
0.0
  0
LINE
  5
3E7A
  8
0
 10
486.32106048772238
 20
38.707798882901557
 30
0.0
 11
444.32106048772238
 21
38.707798882901557
 31
0.0
  0
LINE
  5
3E7B
  8
0
 10
486.32106048772221
 20
89.399558882901275
 30
0.0
 11
486.32106048772221
 21
38.707798882901557
 31
0.0
  0
LINE
  5
3E7C
  8
3
 10
483.8855604877221
 20
91.680076445984596
 30
0.0
 11
483.8855604877221
 21
36.272298882901509
 31
0.0
  0
LINE
  5
3E7D
  8
0
 10
481.82106048772238
 20
34.207798882901557
 30
0.0
 11
486.32106048772238
 21
38.707798882901557
 31
0.0
  0
LINE
  5
3E7E
  8
0
 10
448.82106048772238
 20
34.207798882901557
 30
0.0
 11
444.32106048772238
 21
38.707798882901557
 31
0.0
  0
LINE
  5
3E7F
  8
3
 10
446.7565604877222
 20
91.680076445984596
 30
0.0
 11
446.7565604877222
 21
36.27229888290163
 31
0.0
  0
LINE
  5
3E80
  8
0
 10
444.32106048772209
 20
89.399558882901275
 30
0.0
 11
444.32106048772209
 21
38.707798882901557
 31
0.0
  0
TEXT
  5
61C5
  8
0
 62
     3
 10
0.0
 20
0.0
 30
0.0
 40
10.0
  1
HRE42
  7
STANDARD1
  0
ENDSEC
  0
EOF
