  0
SECTION
  2
HEADER
  9
$ACADVER
  1
AC1009
  9
$INSBASE
 10
0.0
 20
0.0
 30
0.0
  9
$EXTMIN
 10
0.0
 20
-1.4802182810368341
 30
0.0
  9
$EXTMAX
 10
59.000000000000043
 20
59.0
 30
0.0
  9
$LIMMIN
 10
0.0
 20
0.0
  9
$LIMMAX
 10
187.5
 20
135.0
  9
$ORTHOMODE
 70
     1
  9
$REGENMODE
 70
     1
  9
$FILLMODE
 70
     1
  9
$QTEXTMODE
 70
     0
  9
$MIRRTEXT
 70
     0
  9
$DRAGMODE
 70
     2
  9
$LTSCALE
 40
5.0
  9
$OSMODE
 70
    37
  9
$ATTMODE
 70
     1
  9
$TEXTSIZE
 40
2.5
  9
$TRACEWID
 40
0.05
  9
$TEXTSTYLE
  7
STANDARD
  9
$CLAYER
  8
0
  9
$CELTYPE
  6
BYLAYER
  9
$CECOLOR
 62
   256
  9
$DIMSCALE
 40
0.5
  9
$DIMASZ
 40
3.0
  9
$DIMEXO
 40
2.0
  9
$DIMDLI
 40
10.0
  9
$DIMRND
 40
0.0
  9
$DIMDLE
 40
0.0
  9
$DIMEXE
 40
2.0
  9
$DIMTP
 40
0.0
  9
$DIMTM
 40
0.0
  9
$DIMTXT
 40
3.2000000000000002
  9
$DIMCEN
 40
0.09
  9
$DIMTSZ
 40
0.0
  9
$DIMTOL
 70
     0
  9
$DIMLIM
 70
     0
  9
$DIMTIH
 70
     0
  9
$DIMTOH
 70
     0
  9
$DIMSE1
 70
     0
  9
$DIMSE2
 70
     0
  9
$DIMTAD
 70
     1
  9
$DIMZIN
 70
     8
  9
$DIMBLK
  1

  9
$DIMASO
 70
     0
  9
$DIMSHO
 70
     0
  9
$DIMPOST
  1

  9
$DIMAPOST
  1

  9
$DIMALT
 70
     0
  9
$DIMALTD
 70
     2
  9
$DIMALTF
 40
25.399999999999999
  9
$DIMLFAC
 40
1.0
  9
$DIMTOFL
 70
     1
  9
$DIMTVP
 40
1.6000000000000001
  9
$DIMTIX
 70
     1
  9
$DIMSOXD
 70
     0
  9
$DIMSAH
 70
     0
  9
$DIMBLK1
  1

  9
$DIMBLK2
  1

  9
$DIMSTYLE
  2
STANDARD
  9
$DIMCLRD
 70
     0
  9
$DIMCLRE
 70
     0
  9
$DIMCLRT
 70
     0
  9
$DIMTFAC
 40
1.0
  9
$DIMGAP
 40
0.09
  9
$LUNITS
 70
     2
  9
$LUPREC
 70
     1
  9
$SKETCHINC
 40
0.1
  9
$FILLETRAD
 40
0.0
  9
$AUNITS
 70
     0
  9
$AUPREC
 70
     1
  9
$MENU
  1
E:\r13\win\SUPPORT\ACAD
  9
$ELEVATION
 40
0.0
  9
$PELEVATION
 40
0.0
  9
$THICKNESS
 40
0.0
  9
$LIMCHECK
 70
     0
  9
$BLIPMODE
 70
     0
  9
$CHAMFERA
 40
0.0
  9
$CHAMFERB
 40
0.0
  9
$SKPOLY
 70
     0
  9
$TDCREATE
 40
2449840.5944097228
  9
$TDUPDATE
 40
2457711.4316245602
  9
$TDINDWG
 40
0.0465412963
  9
$TDUSRTIMER
 40
0.0465412963
  9
$USRTIMER
 70
     1
  9
$ANGBASE
 50
0.0
  9
$ANGDIR
 70
     0
  9
$PDMODE
 70
     0
  9
$PDSIZE
 40
0.0
  9
$PLINEWID
 40
0.0
  9
$COORDS
 70
     1
  9
$SPLFRAME
 70
     0
  9
$SPLINETYPE
 70
     6
  9
$SPLINESEGS
 70
     8
  9
$ATTDIA
 70
     0
  9
$ATTREQ
 70
     1
  9
$HANDLING
 70
     1
  9
$HANDSEED
  5
12C1
  9
$SURFTAB1
 70
     6
  9
$SURFTAB2
 70
     6
  9
$SURFTYPE
 70
     6
  9
$SURFU
 70
     6
  9
$SURFV
 70
     6
  9
$UCSNAME
  2

  9
$UCSORG
 10
0.0
 20
0.0
 30
0.0
  9
$UCSXDIR
 10
1.0
 20
0.0
 30
0.0
  9
$UCSYDIR
 10
0.0
 20
1.0
 30
0.0
  9
$PUCSNAME
  2

  9
$PUCSORG
 10
0.0
 20
0.0
 30
0.0
  9
$PUCSXDIR
 10
1.0
 20
0.0
 30
0.0
  9
$PUCSYDIR
 10
0.0
 20
1.0
 30
0.0
  9
$USERI1
 70
     0
  9
$USERI2
 70
     1
  9
$USERI3
 70
     0
  9
$USERI4
 70
     0
  9
$USERI5
 70
     0
  9
$USERR1
 40
0.0
  9
$USERR2
 40
0.0
  9
$USERR3
 40
0.0
  9
$USERR4
 40
0.0
  9
$USERR5
 40
0.0
  9
$WORLDVIEW
 70
     1
  9
$SHADEDGE
 70
     3
  9
$SHADEDIF
 70
    70
  9
$TILEMODE
 70
     1
  9
$MAXACTVP
 70
    16
  9
$PLIMCHECK
 70
     0
  9
$PEXTMIN
 10
1.0000000000000000E+020
 20
1.0000000000000000E+020
 30
1.0000000000000000E+020
  9
$PEXTMAX
 10
-1.0000000000000000E+020
 20
-1.0000000000000000E+020
 30
-1.0000000000000000E+020
  9
$PLIMMIN
 10
0.0
 20
0.0
  9
$PLIMMAX
 10
12.0
 20
9.0
  9
$UNITMODE
 70
     0
  9
$VISRETAIN
 70
     0
  9
$PLINEGEN
 70
     0
  9
$PSLTSCALE
 70
     0
  0
ENDSEC
  0
SECTION
  2
TABLES
  0
TABLE
  2
VPORT
 70
     1
  0
VPORT
  2
*ACTIVE
 70
     0
 10
0.0
 20
0.0
 11
1.0
 21
1.0
 12
81.730769230769226
 22
45.0
 13
0.0
 23
0.0
 14
5.0
 24
5.0
 15
5.0
 25
5.0
 16
0.0
 26
0.0
 36
1.0
 17
0.0
 27
0.0
 37
0.0
 40
90.0
 41
1.816239316239316
 42
50.0
 43
0.0
 44
0.0
 50
0.0
 51
0.0
 71
     0
 72
   100
 73
     1
 74
     0
 75
     0
 76
     0
 77
     0
 78
     0
  0
ENDTAB
  0
TABLE
  2
LTYPE
 70
     4
  0
LTYPE
  2
CONTINUOUS
 70
     0
  3
Solid Line
 72
    65
 73
     0
 40
0.0
  0
LTYPE
  2
CENTER
 70
     0
  3
____ _ ____ _ ____ _ ____ _ ____ _ ____ _ ____
 72
    65
 73
     4
 40
2.0
 49
1.25
 49
-0.25
 49
0.25
 49
-0.25
  0
LTYPE
  2
HIDDEN
 70
     0
  3
_ _ _ _ _ _ _ _ _ _ _ _ _ _ _ _ _ _ _ _ _ _ _
 72
    65
 73
     2
 40
0.375
 49
0.25
 49
-0.125
  0
LTYPE
  2
PHANTOM2
 70
     0
  3
___ _ _ ___ _ _ ___ _ _ ___ _ _
 72
    65
 73
     6
 40
1.25
 49
0.625
 49
-0.125
 49
0.125
 49
-0.125
 49
0.125
 49
-0.125
  0
ENDTAB
  0
TABLE
  2
LAYER
 70
     4
  0
LAYER
  2
0
 70
     0
 62
     7
  6
CONTINUOUS
  0
LAYER
  2
1
 70
     0
 62
     1
  6
CENTER
  0
LAYER
  2
2
 70
     0
 62
     2
  6
HIDDEN
  0
LAYER
  2
3
 70
     0
 62
     3
  6
CONTINUOUS
  0
ENDTAB
  0
TABLE
  2
STYLE
 70
     2
  0
STYLE
  2
STANDARD
 70
     0
 40
0.0
 41
1.0
 50
0.0
 71
     0
 42
2.5
  3
TXT
  4
BIGFONT
  0
STYLE
  2
STANDARD1
 70
     0
 40
0.0
 41
1.0
 50
0.0
 71
     0
 42
3.0
  3
txt
  4

  0
ENDTAB
  0
TABLE
  2
VIEW
 70
     1
  0
VIEW
  2
ALL
 70
     0
 40
135.0
 10
110.49579799999999
 20
67.5
 41
0.0
 11
0.0
 21
0.0
 31
1.0
 12
0.0
 22
0.0
 32
0.0
 42
0.0
 43
0.0
 44
0.0
 50
0.0
 71
     0
  0
ENDTAB
  0
TABLE
  2
UCS
 70
     0
  0
ENDTAB
  0
TABLE
  2
APPID
 70
     6
  0
APPID
  2
ACAD
 70
     0
  0
APPID
  2
ACAD_MLEADERVER
 70
     0
  0
APPID
  2
ACAD_EXEMPT_FROM_CAD_STANDARDS
 70
     0
  0
APPID
  2
ACAD_NAV_VCDISPLAY
 70
     0
  0
APPID
  2
ACAD_DSTYLE_DIMJAG
 70
     0
  0
APPID
  2
ACAD_DSTYLE_DIMTALN
 70
     0
  0
ENDTAB
  0
TABLE
  2
DIMSTYLE
 70
     1
  0
DIMSTYLE
  2
STANDARD
 70
     0
  3

  4

  5

  6

  7

 40
1.0
 41
0.18
 42
0.0625
 43
0.38
 44
0.18
 45
0.0
 46
0.0
 47
0.0
 48
0.0
140
0.18
141
0.09
142
0.0
143
25.399999999999999
144
1.0
145
0.0
146
1.0
147
0.09
 71
     0
 72
     0
 73
     1
 74
     1
 75
     0
 76
     0
 77
     0
 78
     0
170
     0
171
     2
172
     0
173
     0
174
     0
175
     0
176
     0
177
     0
178
     0
  0
ENDTAB
  0
ENDSEC
  0
SECTION
  2
BLOCKS
  0
BLOCK
  8
0
  2
$MODEL_SPACE
 70
     0
 10
0.0
 20
0.0
 30
0.0
  3
$MODEL_SPACE
  1

  0
ENDBLK
  5
15D
  8
0
  0
BLOCK
 67
     1
  8
0
  2
$PAPER_SPACE
 70
     0
 10
0.0
 20
0.0
 30
0.0
  3
$PAPER_SPACE
  1

  0
ENDBLK
  5
15B
 67
     1
  8
0
  0
ENDSEC
  0
SECTION
  2
ENTITIES
  0
TEXT
  5
212
  8
0
 62
     3
 10
0.0
 20
0.0
 30
0.0
 40
5.0
  1
HS-082
  7
STANDARD1
  0
LINE
  5
DD1
  8
0
 10
56.199999999999989
 20
34.0
 30
0.0
 11
45.698999999998847
 21
34.0
 31
0.0
  0
LINE
  5
DD2
  8
0
 10
45.698999999998847
 20
25.999999999999989
 30
0.0
 11
56.199999999999989
 21
25.999999999999989
 31
0.0
  0
LINE
  5
DD3
  8
0
 10
56.199999999999989
 20
25.999999999999989
 30
0.0
 11
57.000000000000021
 21
26.800000000000001
 31
0.0
  0
LINE
  5
DD4
  8
0
 10
57.000000000000021
 20
33.199999999999989
 30
0.0
 11
56.199999999999989
 21
34.0
 31
0.0
  0
LINE
  5
DD5
  8
0
 10
45.73024999999884
 20
26.03125
 30
0.0
 11
45.698999999998847
 21
25.999999999999989
 31
0.0
  0
LINE
  5
DD6
  8
0
 10
45.689906608558879
 20
26.071593391439961
 30
0.0
 11
45.73024999999884
 21
26.031249999999989
 31
0.0
  0
LINE
  5
DD9
  8
0
 10
45.270017197660543
 20
26.491482802338268
 30
0.0
 11
45.669068589776231
 21
26.092431410222598
 31
0.0
  0
LINE
  5
DDC
  8
0
 10
45.73024999999884
 20
27.618749999999991
 30
0.0
 11
45.28307287525265
 21
27.171572875253801
 31
0.0
  0
LINE
  5
DDD
  8
0
 10
45.270017197660543
 20
28.07898280233827
 30
0.0
 11
45.730249999998868
 21
27.618749999999991
 31
0.0
  0
LINE
  5
DDF
  8
0
 10
45.730249999998868
 20
29.20624999999999
 30
0.0
 11
45.669068589776231
 21
29.14506858977737
 31
0.0
  0
LINE
  5
DE0
  8
0
 10
45.689906608558879
 20
29.246593391439969
 30
0.0
 11
45.730249999998868
 21
29.206250000000001
 31
0.0
  0
LINE
  5
DE3
  8
0
 10
45.730249999998868
 20
30.793749999999989
 30
0.0
 11
45.689906608558879
 21
30.75340660856002
 31
0.0
  0
LINE
  5
DE4
  8
0
 10
45.669068589776202
 20
30.854931410222619
 30
0.0
 11
45.73024999999884
 21
30.793749999999989
 31
0.0
  0
LINE
  5
DE6
  8
0
 10
45.730249999998868
 20
32.381250000000001
 30
0.0
 11
45.270017197660543
 21
31.921017197661701
 31
0.0
  0
LINE
  5
DE7
  8
0
 10
45.28307287525265
 20
32.82842712474617
 30
0.0
 11
45.73024999999884
 21
32.381250000000001
 31
0.0
  0
LINE
  5
DEA
  8
0
 10
45.669068589776202
 20
33.907568589777362
 30
0.0
 11
45.270017197660543
 21
33.508517197661689
 31
0.0
  0
LINE
  5
DED
  8
0
 10
45.73024999999884
 20
33.968749999999993
 30
0.0
 11
45.689906608558879
 21
33.92840660856001
 31
0.0
  0
LINE
  5
DEE
  8
0
 10
45.698999999998847
 20
34.0
 30
0.0
 11
45.73024999999884
 21
33.968749999999993
 31
0.0
  0
LINE
  5
DF0
  8
0
 10
56.199999999999989
 20
25.999999999999989
 30
0.0
 11
56.199999999999989
 21
34.000000000000007
 31
0.0
  0
LINE
  5
DF2
  8
0
 10
57.000000000000057
 20
33.20000000000001
 30
0.0
 11
57.000000000000021
 21
26.800000000000001
 31
0.0
  0
LINE
  5
DF4
  8
0
 10
45.689906608558879
 20
29.246593391439959
 30
0.0
 11
45.0
 21
29.936499999998809
 31
0.0
  0
LINE
  5
DF5
  8
0
 10
45.0
 20
30.063500000001159
 30
0.0
 11
45.0
 21
29.936499999998809
 31
0.0
  0
LINE
  5
DF6
  8
0
 10
45.0
 20
30.063500000001159
 30
0.0
 11
45.689906608558879
 21
30.75340660856002
 31
0.0
  0
LINE
  5
DF7
  8
0
 10
45.270017197660543
 20
28.07898280233827
 30
0.0
 11
45.0
 21
28.34899999999881
 31
0.0
  0
LINE
  5
DF8
  8
0
 10
45.0
 20
28.476000000001171
 30
0.0
 11
45.0
 21
28.34899999999881
 31
0.0
  0
LINE
  5
DF9
  8
0
 10
45.0
 20
28.476000000001171
 30
0.0
 11
45.669068589776231
 21
29.14506858977737
 31
0.0
  0
LINE
  5
DFA
  8
0
 10
45.0
 20
31.651000000001162
 30
0.0
 11
45.270017197660543
 21
31.921017197661701
 31
0.0
  0
LINE
  5
DFB
  8
0
 10
45.0
 20
31.651000000001162
 30
0.0
 11
45.0
 21
31.523999999998811
 31
0.0
  0
LINE
  5
DFC
  8
0
 10
45.669068589776202
 20
30.854931410222619
 30
0.0
 11
45.0
 21
31.523999999998811
 31
0.0
  0
LINE
  5
DFD
  8
0
 10
45.0
 20
26.888500000001159
 30
0.0
 11
45.28307287525265
 21
27.171572875253791
 31
0.0
  0
LINE
  5
DFE
  8
0
 10
45.270017197660543
 20
26.491482802338268
 30
0.0
 11
45.0
 21
26.761499999998819
 31
0.0
  0
LINE
  5
DFF
  8
0
 10
45.0
 20
26.888500000001159
 30
0.0
 11
45.0
 21
26.761499999998819
 31
0.0
  0
LINE
  5
E00
  8
0
 10
45.28307287525265
 20
32.82842712474617
 30
0.0
 11
45.0
 21
33.111499999998813
 31
0.0
  0
LINE
  5
E01
  8
0
 10
45.0
 20
33.238500000001167
 30
0.0
 11
45.0
 21
33.111499999998813
 31
0.0
  0
LINE
  5
E02
  8
0
 10
45.0
 20
33.238500000001167
 30
0.0
 11
45.270017197660543
 21
33.50851719766171
 31
0.0
  0
LINE
  5
E03
  8
0
 10
45.669068589776231
 20
33.90756858977737
 30
0.0
 11
45.689906608558879
 21
33.92840660856001
 31
0.0
  0
LINE
  5
E04
  8
0
 10
45.689906608558879
 20
26.071593391439961
 30
0.0
 11
45.669068589776202
 21
26.09243141022263
 31
0.0
  0
LINE
  5
E5F
  8
3
 10
28.348999999998799
 20
28.476000000001171
 30
0.0
 11
28.476000000001171
 21
28.476000000001171
 31
0.0
  0
LINE
  5
E60
  8
3
 10
28.476000000001171
 20
28.476000000001171
 30
0.0
 11
28.476000000001171
 21
28.34899999999881
 31
0.0
  0
LINE
  5
E61
  8
3
 10
28.476000000001171
 20
28.34899999999881
 30
0.0
 11
28.348999999998799
 21
28.34899999999881
 31
0.0
  0
LINE
  5
E62
  8
3
 10
28.348999999998799
 20
28.34899999999881
 30
0.0
 11
28.348999999998799
 21
28.476000000001171
 31
0.0
  0
LINE
  5
E63
  8
3
 10
28.348999999998799
 20
30.063500000001159
 30
0.0
 11
28.476000000001171
 21
30.063500000001159
 31
0.0
  0
LINE
  5
E64
  8
3
 10
28.476000000001171
 20
30.063500000001159
 30
0.0
 11
28.476000000001171
 21
29.936499999998809
 31
0.0
  0
LINE
  5
E65
  8
3
 10
28.476000000001171
 20
29.936499999998809
 30
0.0
 11
28.348999999998799
 21
29.936499999998809
 31
0.0
  0
LINE
  5
E66
  8
3
 10
28.348999999998799
 20
29.936499999998809
 30
0.0
 11
28.348999999998799
 21
30.063500000001159
 31
0.0
  0
LINE
  5
E67
  8
3
 10
28.348999999998799
 20
31.651000000001162
 30
0.0
 11
28.476000000001171
 21
31.651000000001162
 31
0.0
  0
LINE
  5
E68
  8
3
 10
28.476000000001171
 20
31.651000000001162
 30
0.0
 11
28.476000000001171
 21
31.523999999998811
 31
0.0
  0
LINE
  5
E69
  8
3
 10
28.476000000001171
 20
31.523999999998811
 30
0.0
 11
28.348999999998799
 21
31.523999999998811
 31
0.0
  0
LINE
  5
E6A
  8
3
 10
28.348999999998799
 20
31.523999999998811
 30
0.0
 11
28.348999999998799
 21
31.651000000001162
 31
0.0
  0
LINE
  5
E6E
  8
3
 10
28.476000000001171
 20
33.111499999998813
 30
0.0
 11
28.348999999998799
 21
33.111499999998813
 31
0.0
  0
LINE
  5
E7F
  8
3
 10
28.348999999998799
 20
26.888500000001159
 30
0.0
 11
28.476000000001129
 21
26.888500000001159
 31
0.0
  0
LINE
  5
E81
  8
3
 10
29.936499999998802
 20
28.476000000001171
 30
0.0
 11
30.063500000001142
 21
28.476000000001171
 31
0.0
  0
LINE
  5
E82
  8
3
 10
30.063500000001142
 20
28.476000000001171
 30
0.0
 11
30.063500000001142
 21
28.34899999999881
 31
0.0
  0
LINE
  5
E83
  8
3
 10
30.063500000001142
 20
28.34899999999881
 30
0.0
 11
29.936499999998802
 21
28.34899999999881
 31
0.0
  0
LINE
  5
E84
  8
3
 10
29.936499999998802
 20
28.34899999999881
 30
0.0
 11
29.936499999998802
 21
28.476000000001171
 31
0.0
  0
LINE
  5
E85
  8
3
 10
29.936499999998802
 20
30.063500000001159
 30
0.0
 11
30.063500000001142
 21
30.063500000001159
 31
0.0
  0
LINE
  5
E86
  8
3
 10
30.063500000001142
 20
30.063500000001159
 30
0.0
 11
30.063500000001142
 21
29.936499999998809
 31
0.0
  0
LINE
  5
E87
  8
3
 10
30.063500000001142
 20
29.936499999998809
 30
0.0
 11
29.936499999998802
 21
29.936499999998809
 31
0.0
  0
LINE
  5
E88
  8
3
 10
29.936499999998802
 20
29.936499999998809
 30
0.0
 11
29.936499999998802
 21
30.063500000001159
 31
0.0
  0
LINE
  5
E89
  8
3
 10
29.93649999999883
 20
31.651000000001162
 30
0.0
 11
30.063500000001142
 21
31.651000000001162
 31
0.0
  0
LINE
  5
E8A
  8
3
 10
30.063500000001142
 20
31.651000000001162
 30
0.0
 11
30.063500000001142
 21
31.523999999998811
 31
0.0
  0
LINE
  5
E8B
  8
3
 10
30.063500000001142
 20
31.523999999998811
 30
0.0
 11
29.93649999999883
 21
31.523999999998811
 31
0.0
  0
LINE
  5
E8C
  8
3
 10
29.93649999999883
 20
31.523999999998811
 30
0.0
 11
29.93649999999883
 21
31.651000000001162
 31
0.0
  0
LINE
  5
E8D
  8
3
 10
29.93649999999883
 20
33.238500000001167
 30
0.0
 11
30.06350000000117
 21
33.238500000001167
 31
0.0
  0
LINE
  5
E8E
  8
3
 10
30.06350000000117
 20
33.238500000001167
 30
0.0
 11
30.06350000000117
 21
33.111499999998813
 31
0.0
  0
LINE
  5
E8F
  8
3
 10
30.06350000000117
 20
33.111499999998813
 30
0.0
 11
29.93649999999883
 21
33.111499999998813
 31
0.0
  0
LINE
  5
E90
  8
3
 10
29.93649999999883
 20
33.111499999998813
 30
0.0
 11
29.93649999999883
 21
33.238500000001167
 31
0.0
  0
LINE
  5
E91
  8
3
 10
29.936499999998802
 20
26.888500000001159
 30
0.0
 11
30.063500000001142
 21
26.888500000001159
 31
0.0
  0
LINE
  5
E92
  8
3
 10
30.063500000001142
 20
26.888500000001159
 30
0.0
 11
30.063500000001142
 21
26.761499999998819
 31
0.0
  0
LINE
  5
E93
  8
3
 10
30.063500000001142
 20
26.761499999998819
 30
0.0
 11
29.936499999998802
 21
26.761499999998819
 31
0.0
  0
LINE
  5
E94
  8
3
 10
29.936499999998802
 20
26.761499999998819
 30
0.0
 11
29.936499999998802
 21
26.888500000001159
 31
0.0
  0
LINE
  5
E97
  8
3
 10
30.06350000000117
 20
33.238500000001167
 30
0.0
 11
30.753406608560031
 21
33.92840660856001
 31
0.0
  0
LINE
  5
E98
  8
3
 10
29.246593391439969
 20
33.928406608560017
 30
0.0
 11
29.93649999999883
 21
33.238500000001167
 31
0.0
  0
LINE
  5
E9A
  8
3
 10
31.523999999998821
 20
31.651000000001162
 30
0.0
 11
30.06350000000117
 21
33.111499999998813
 31
0.0
  0
LINE
  5
E9C
  8
3
 10
29.93649999999883
 20
33.111499999998813
 30
0.0
 11
28.476000000001179
 21
31.651000000001162
 31
0.0
  0
LINE
  5
E9D
  8
3
 10
30.063500000001142
 20
31.651000000001162
 30
0.0
 11
31.523999999998839
 21
33.111499999998813
 31
0.0
  0
LINE
  5
E9E
  8
3
 10
28.476000000001211
 20
33.111499999998813
 30
0.0
 11
29.93649999999883
 21
31.651000000001162
 31
0.0
  0
LINE
  5
E9F
  8
3
 10
31.523999999998839
 20
30.063500000001149
 30
0.0
 11
30.063500000001142
 21
31.523999999998811
 31
0.0
  0
LINE
  5
EA1
  8
3
 10
29.93649999999883
 20
31.523999999998811
 30
0.0
 11
28.476000000001122
 21
30.063500000001149
 31
0.0
  0
LINE
  5
EA2
  8
3
 10
30.063500000001142
 20
30.063500000001159
 30
0.0
 11
31.523999999998821
 21
31.523999999998811
 31
0.0
  0
LINE
  5
EA3
  8
3
 10
28.476000000001171
 20
31.5239999999988
 30
0.0
 11
29.936499999998802
 21
30.063500000001159
 31
0.0
  0
LINE
  5
EA4
  8
3
 10
31.52399999999885
 20
28.476000000001171
 30
0.0
 11
30.063500000001142
 21
29.936499999998809
 31
0.0
  0
LINE
  5
EA6
  8
3
 10
29.936499999998802
 20
29.936499999998809
 30
0.0
 11
28.476000000001171
 21
28.476000000001171
 31
0.0
  0
LINE
  5
EA7
  8
3
 10
30.063500000001142
 20
28.476000000001171
 30
0.0
 11
31.523999999998839
 21
29.936499999998809
 31
0.0
  0
LINE
  5
EA8
  8
3
 10
28.476000000001171
 20
29.936499999998809
 30
0.0
 11
29.936499999998802
 21
28.476000000001171
 31
0.0
  0
LINE
  5
EA9
  8
3
 10
31.523999999998839
 20
26.888500000001159
 30
0.0
 11
30.063500000001142
 21
28.34899999999881
 31
0.0
  0
LINE
  5
EAB
  8
3
 10
29.936499999998802
 20
28.34899999999881
 30
0.0
 11
28.47600000000115
 21
26.888500000001159
 31
0.0
  0
LINE
  5
EAC
  8
3
 10
30.063500000001142
 20
26.888500000001159
 30
0.0
 11
31.523999999998821
 21
28.34899999999881
 31
0.0
  0
LINE
  5
EAD
  8
3
 10
28.476000000001171
 20
28.348999999998821
 30
0.0
 11
29.936499999998802
 21
26.888500000001159
 31
0.0
  0
LINE
  5
EAE
  8
3
 10
30.753406608559999
 20
26.071593391439961
 30
0.0
 11
30.063500000001142
 21
26.761499999998819
 31
0.0
  0
LINE
  5
EB2
  8
3
 10
29.936499999998802
 20
26.761499999998819
 30
0.0
 11
29.246593391439951
 21
26.071593391439961
 31
0.0
  0
LINE
  5
EB3
  8
3
 10
31.523999999998811
 20
28.476000000001171
 30
0.0
 11
31.651000000001151
 21
28.476000000001171
 31
0.0
  0
LINE
  5
EB4
  8
3
 10
31.651000000001151
 20
28.476000000001171
 30
0.0
 11
31.651000000001151
 21
28.34899999999881
 31
0.0
  0
LINE
  5
EB5
  8
3
 10
31.651000000001151
 20
28.34899999999881
 30
0.0
 11
31.523999999998811
 21
28.34899999999881
 31
0.0
  0
LINE
  5
EB6
  8
3
 10
31.523999999998811
 20
28.34899999999881
 30
0.0
 11
31.523999999998811
 21
28.476000000001171
 31
0.0
  0
LINE
  5
EB7
  8
3
 10
31.523999999998811
 20
30.063500000001159
 30
0.0
 11
31.651000000001179
 21
30.063500000001159
 31
0.0
  0
LINE
  5
EB8
  8
3
 10
31.651000000001179
 20
30.063500000001159
 30
0.0
 11
31.651000000001179
 21
29.936499999998809
 31
0.0
  0
LINE
  5
EB9
  8
3
 10
31.651000000001179
 20
29.936499999998809
 30
0.0
 11
31.523999999998811
 21
29.936499999998809
 31
0.0
  0
LINE
  5
EBA
  8
3
 10
31.523999999998811
 20
29.936499999998809
 30
0.0
 11
31.523999999998811
 21
30.063500000001159
 31
0.0
  0
LINE
  5
EBB
  8
3
 10
31.523999999998811
 20
31.651000000001162
 30
0.0
 11
31.651000000001179
 21
31.651000000001162
 31
0.0
  0
LINE
  5
EBC
  8
3
 10
31.651000000001179
 20
31.651000000001162
 30
0.0
 11
31.651000000001179
 21
31.523999999998811
 31
0.0
  0
LINE
  5
EBD
  8
3
 10
31.651000000001179
 20
31.523999999998811
 30
0.0
 11
31.523999999998811
 21
31.523999999998811
 31
0.0
  0
LINE
  5
EBE
  8
3
 10
31.523999999998811
 20
31.523999999998811
 30
0.0
 11
31.523999999998811
 21
31.651000000001162
 31
0.0
  0
LINE
  5
EBF
  8
3
 10
31.523999999998811
 20
33.238500000001167
 30
0.0
 11
31.651000000001179
 21
33.238500000001167
 31
0.0
  0
LINE
  5
EC0
  8
3
 10
31.651000000001179
 20
33.238500000001167
 30
0.0
 11
31.651000000001179
 21
33.111499999998813
 31
0.0
  0
LINE
  5
EC1
  8
3
 10
31.651000000001179
 20
33.111499999998813
 30
0.0
 11
31.523999999998811
 21
33.111499999998813
 31
0.0
  0
LINE
  5
EC2
  8
3
 10
31.523999999998811
 20
33.111499999998813
 30
0.0
 11
31.523999999998811
 21
33.238500000001167
 31
0.0
  0
LINE
  5
EC3
  8
3
 10
31.523999999998779
 20
26.888500000001159
 30
0.0
 11
31.651000000001151
 21
26.888500000001159
 31
0.0
  0
LINE
  5
EC4
  8
3
 10
31.651000000001151
 20
26.888500000001159
 30
0.0
 11
31.651000000001151
 21
26.761499999998819
 31
0.0
  0
LINE
  5
EC5
  8
3
 10
31.651000000001151
 20
26.761499999998819
 30
0.0
 11
31.523999999998779
 21
26.761499999998819
 31
0.0
  0
LINE
  5
EC6
  8
3
 10
31.523999999998779
 20
26.761499999998819
 30
0.0
 11
31.523999999998779
 21
26.888500000001159
 31
0.0
  0
LINE
  5
EC7
  8
3
 10
31.651000000001179
 20
33.238500000001167
 30
0.0
 11
31.921017197661708
 21
33.50851719766171
 31
0.0
  0
LINE
  5
EC8
  8
3
 10
30.85493141022264
 20
33.907568589777362
 30
0.0
 11
31.523999999998811
 21
33.238500000001167
 31
0.0
  0
LINE
  5
EDE
  8
3
 10
31.92101719766168
 20
26.491482802338268
 30
0.0
 11
31.651000000001151
 21
26.761499999998819
 31
0.0
  0
LINE
  5
EE0
  8
3
 10
31.523999999998779
 20
26.761499999998819
 30
0.0
 11
30.854931410222608
 21
26.09243141022262
 31
0.0
  0
LINE
  5
EE1
  8
3
 10
33.111499999998813
 20
28.476000000001171
 30
0.0
 11
33.23850000000116
 21
28.476000000001171
 31
0.0
  0
LINE
  5
EE2
  8
3
 10
33.23850000000116
 20
28.476000000001171
 30
0.0
 11
33.23850000000116
 21
28.34899999999881
 31
0.0
  0
LINE
  5
EE3
  8
3
 10
33.23850000000116
 20
28.34899999999881
 30
0.0
 11
33.111499999998813
 21
28.34899999999881
 31
0.0
  0
LINE
  5
EE4
  8
3
 10
33.111499999998813
 20
28.34899999999881
 30
0.0
 11
33.111499999998813
 21
28.476000000001171
 31
0.0
  0
LINE
  5
EE5
  8
3
 10
33.111499999998813
 20
30.063500000001159
 30
0.0
 11
33.23850000000116
 21
30.063500000001159
 31
0.0
  0
LINE
  5
EE6
  8
3
 10
33.23850000000116
 20
30.063500000001159
 30
0.0
 11
33.23850000000116
 21
29.936499999998809
 31
0.0
  0
LINE
  5
EE7
  8
3
 10
33.23850000000116
 20
29.936499999998809
 30
0.0
 11
33.111499999998813
 21
29.936499999998809
 31
0.0
  0
LINE
  5
EE8
  8
3
 10
33.111499999998813
 20
29.936499999998809
 30
0.0
 11
33.111499999998813
 21
30.063500000001159
 31
0.0
  0
LINE
  5
EE9
  8
3
 10
33.111499999998813
 20
31.651000000001162
 30
0.0
 11
33.23850000000116
 21
31.651000000001162
 31
0.0
  0
LINE
  5
EEA
  8
3
 10
33.23850000000116
 20
31.651000000001162
 30
0.0
 11
33.23850000000116
 21
31.523999999998811
 31
0.0
  0
LINE
  5
EEB
  8
3
 10
33.23850000000116
 20
31.523999999998811
 30
0.0
 11
33.111499999998813
 21
31.523999999998811
 31
0.0
  0
LINE
  5
EEC
  8
3
 10
33.111499999998813
 20
31.523999999998811
 30
0.0
 11
33.111499999998813
 21
31.651000000001162
 31
0.0
  0
LINE
  5
EED
  8
3
 10
26.09243141022262
 20
29.14506858977737
 30
0.0
 11
26.761499999998819
 21
28.476000000001171
 31
0.0
  0
LINE
  5
EEE
  8
3
 10
26.761499999998819
 20
28.34899999999881
 30
0.0
 11
26.761499999998819
 21
28.476000000001171
 31
0.0
  0
LINE
  5
EEF
  8
3
 10
26.761499999998819
 20
28.34899999999881
 30
0.0
 11
26.491482802338279
 21
28.078982802338292
 31
0.0
  0
LINE
  5
EF2
  8
3
 10
33.23850000000116
 20
31.651000000001162
 30
0.0
 11
33.508517197661689
 21
31.921017197661701
 31
0.0
  0
LINE
  5
EF3
  8
3
 10
31.651000000001179
 20
33.111499999998841
 30
0.0
 11
33.111499999998813
 21
31.651000000001162
 31
0.0
  0
LINE
  5
EF4
  8
3
 10
26.786022956289202
 20
32.381250000000001
 30
0.0
 11
33.21397704371077
 21
32.381250000000001
 31
0.0
  0
LINE
  5
EF5
  8
3
 10
33.907568589777362
 20
30.854931410222619
 30
0.0
 11
33.23850000000116
 21
31.523999999998811
 31
0.0
  0
LINE
  5
EF7
  8
3
 10
26.07954582509883
 20
30.793749999999989
 30
0.0
 11
33.920454174901153
 21
30.793749999999989
 31
0.0
  0
LINE
  5
EF8
  8
3
 10
33.111499999998813
 20
31.523999999998811
 30
0.0
 11
31.651000000001151
 21
30.063500000001149
 31
0.0
  0
LINE
  5
EFA
  8
3
 10
33.23850000000116
 20
30.063500000001159
 30
0.0
 11
33.92840660856001
 21
30.75340660856002
 31
0.0
  0
LINE
  5
EFB
  8
3
 10
31.651000000001179
 20
31.5239999999988
 30
0.0
 11
33.111499999998813
 21
30.063500000001159
 31
0.0
  0
LINE
  5
EFC
  8
3
 10
33.92840660856001
 20
29.246593391439959
 30
0.0
 11
33.23850000000116
 21
29.936499999998809
 31
0.0
  0
LINE
  5
EFE
  8
3
 10
26.07954582509883
 20
29.206250000000001
 30
0.0
 11
33.920454174901153
 21
29.206250000000001
 31
0.0
  0
LINE
  5
EFF
  8
3
 10
33.111499999998813
 20
29.936499999998809
 30
0.0
 11
31.651000000001179
 21
28.476000000001171
 31
0.0
  0
LINE
  5
F01
  8
3
 10
33.23850000000116
 20
28.476000000001171
 30
0.0
 11
33.907568589777362
 21
29.14506858977737
 31
0.0
  0
LINE
  5
F02
  8
3
 10
31.651000000001179
 20
29.93649999999883
 30
0.0
 11
33.111499999998813
 21
28.476000000001171
 31
0.0
  0
LINE
  5
F03
  8
3
 10
33.508517197661689
 20
28.07898280233827
 30
0.0
 11
33.23850000000116
 21
28.34899999999881
 31
0.0
  0
LINE
  5
F05
  8
3
 10
26.786022956289191
 20
27.618749999999991
 30
0.0
 11
33.21397704371077
 21
27.618749999999991
 31
0.0
  0
LINE
  5
F06
  8
3
 10
33.111499999998813
 20
28.34899999999881
 30
0.0
 11
31.651000000001162
 21
26.888500000001159
 31
0.0
  0
LINE
  5
F09
  8
3
 10
26.761499999998819
 20
28.476000000001171
 30
0.0
 11
26.88850000000113
 21
28.476000000001171
 31
0.0
  0
LINE
  5
F0A
  8
3
 10
26.88850000000113
 20
28.476000000001171
 30
0.0
 11
26.88850000000113
 21
28.34899999999881
 31
0.0
  0
LINE
  5
F0B
  8
3
 10
26.88850000000113
 20
28.34899999999881
 30
0.0
 11
26.761499999998819
 21
28.34899999999881
 31
0.0
  0
LINE
  5
F0C
  8
3
 10
26.761499999998819
 20
30.063500000001159
 30
0.0
 11
26.888500000001159
 21
30.063500000001159
 31
0.0
  0
LINE
  5
F0D
  8
3
 10
26.888500000001159
 20
30.063500000001159
 30
0.0
 11
26.888500000001159
 21
29.936499999998809
 31
0.0
  0
LINE
  5
F0E
  8
3
 10
26.888500000001159
 20
29.936499999998809
 30
0.0
 11
26.761499999998819
 21
29.936499999998809
 31
0.0
  0
LINE
  5
F0F
  8
3
 10
26.761499999998819
 20
29.936499999998809
 30
0.0
 11
26.761499999998819
 21
30.063500000001159
 31
0.0
  0
LINE
  5
F10
  8
3
 10
26.761499999998819
 20
31.651000000001162
 30
0.0
 11
26.888500000001159
 21
31.651000000001162
 31
0.0
  0
LINE
  5
F11
  8
3
 10
26.888500000001159
 20
31.651000000001162
 30
0.0
 11
26.888500000001159
 21
31.523999999998811
 31
0.0
  0
LINE
  5
F12
  8
3
 10
26.888500000001159
 20
31.523999999998811
 30
0.0
 11
26.761499999998819
 21
31.523999999998811
 31
0.0
  0
LINE
  5
F13
  8
3
 10
26.761499999998819
 20
31.523999999998811
 30
0.0
 11
26.761499999998819
 21
31.651000000001162
 31
0.0
  0
LINE
  5
F14
  8
3
 10
28.348999999998821
 20
33.238500000001167
 30
0.0
 11
28.476000000001171
 21
33.238500000001167
 31
0.0
  0
LINE
  5
F15
  8
3
 10
28.476000000001171
 20
33.238500000001167
 30
0.0
 11
28.476000000001171
 21
33.111499999998813
 31
0.0
  0
LINE
  5
F16
  8
3
 10
28.348999999998799
 20
33.111499999998813
 30
0.0
 11
28.348999999998821
 21
33.238500000001167
 31
0.0
  0
LINE
  5
F18
  8
3
 10
28.476000000001129
 20
26.888500000001159
 30
0.0
 11
28.476000000001129
 21
26.761499999998819
 31
0.0
  0
LINE
  5
F19
  8
3
 10
28.476000000001129
 20
26.761499999998819
 30
0.0
 11
28.348999999998799
 21
26.761499999998819
 31
0.0
  0
LINE
  5
F1A
  8
3
 10
28.348999999998799
 20
26.761499999998819
 30
0.0
 11
28.348999999998799
 21
26.888500000001159
 31
0.0
  0
LINE
  5
F1D
  8
3
 10
30.793749999999989
 20
33.920454174901153
 30
0.0
 11
30.793749999999989
 21
26.079545825098808
 31
0.0
  0
LINE
  5
F21
  8
3
 10
29.145068589777338
 20
26.09243141022262
 30
0.0
 11
28.476000000001129
 21
26.761499999998819
 31
0.0
  0
LINE
  5
F22
  8
3
 10
28.476000000001171
 20
33.238500000001167
 30
0.0
 11
29.14506858977737
 21
33.90756858977737
 31
0.0
  0
LINE
  5
F23
  8
3
 10
28.078982802338292
 20
33.50851719766171
 30
0.0
 11
28.348999999998821
 21
33.238500000001167
 31
0.0
  0
LINE
  5
F27
  8
3
 10
26.888500000001159
 20
31.651000000001162
 30
0.0
 11
28.348999999998782
 21
33.111499999998813
 31
0.0
  0
LINE
  5
F28
  8
3
 10
26.491482802338279
 20
31.921017197661701
 30
0.0
 11
26.761499999998819
 21
31.651000000001162
 31
0.0
  0
LINE
  5
F2A
  8
3
 10
28.34899999999881
 20
30.063500000001149
 30
0.0
 11
26.888500000001159
 21
31.523999999998811
 31
0.0
  0
LINE
  5
F2D
  8
3
 10
26.761499999998819
 20
31.523999999998811
 30
0.0
 11
26.09243141022262
 21
30.854931410222619
 31
0.0
  0
LINE
  5
F2E
  8
3
 10
26.888500000001159
 20
30.063500000001159
 30
0.0
 11
28.348999999998782
 21
31.523999999998811
 31
0.0
  0
LINE
  5
F2F
  8
3
 10
26.071593391439961
 20
30.75340660856002
 30
0.0
 11
26.761499999998819
 21
30.063500000001159
 31
0.0
  0
LINE
  5
F31
  8
3
 10
28.348999999998799
 20
28.476000000001171
 30
0.0
 11
26.888500000001159
 21
29.936499999998809
 31
0.0
  0
LINE
  5
F34
  8
3
 10
26.761499999998819
 20
29.936499999998809
 30
0.0
 11
26.071593391439961
 21
29.246593391439969
 31
0.0
  0
LINE
  5
F35
  8
3
 10
26.88850000000113
 20
28.476000000001171
 30
0.0
 11
28.34899999999881
 21
29.936499999998809
 31
0.0
  0
LINE
  5
F37
  8
3
 10
28.348999999998821
 20
26.888500000001159
 30
0.0
 11
26.88850000000113
 21
28.34899999999881
 31
0.0
  0
LINE
  5
F3B
  8
3
 10
29.206250000000011
 20
33.920454174901153
 30
0.0
 11
29.206250000000011
 21
26.079545825098808
 31
0.0
  0
LINE
  5
F3C
  8
3
 10
28.348999999998799
 20
26.761499999998819
 30
0.0
 11
28.07898280233826
 21
26.491482802338279
 31
0.0
  0
LINE
  5
F4E
  8
3
 10
32.381250000000001
 20
33.213977043710777
 30
0.0
 11
32.381250000000001
 21
26.78602295628918
 31
0.0
  0
LINE
  5
F56
  8
3
 10
27.618749999999981
 20
33.213977043710798
 30
0.0
 11
27.618749999999959
 21
26.786022956289219
 31
0.0
  0
LINE
  5
F5B
  8
3
 10
28.348999999998771
 20
31.651000000001162
 30
0.0
 11
27.171572875253808
 21
32.828427124746177
 31
0.0
  0
LINE
  5
F5E
  8
3
 10
31.651000000001151
 20
28.348999999998881
 30
0.0
 11
32.828427124746163
 21
27.171572875253791
 31
0.0
  0
LINE
  5
F61
  8
3
 10
32.828427124746163
 20
32.82842712474617
 30
0.0
 11
31.651000000001179
 21
31.651000000001162
 31
0.0
  0
LINE
  5
F64
  8
3
 10
27.171572875253791
 20
27.171572875253801
 30
0.0
 11
28.348999999998799
 21
28.34899999999881
 31
0.0
  0
LINE
  5
F6B
  8
0
 10
25.999999999999972
 20
56.199999999999989
 30
0.0
 11
25.999999999999972
 21
45.698999999998819
 31
0.0
  0
LINE
  5
F6C
  8
0
 10
34.0
 20
45.698999999998819
 30
0.0
 11
34.0
 21
56.199999999999989
 31
0.0
  0
LINE
  5
F6D
  8
0
 10
34.0
 20
56.199999999999989
 30
0.0
 11
33.19999999999996
 21
57.0
 31
0.0
  0
LINE
  5
F6E
  8
0
 10
26.799999999999979
 20
57.0
 30
0.0
 11
25.999999999999972
 21
56.199999999999989
 31
0.0
  0
LINE
  5
F70
  8
0
 10
26.03125
 20
45.730249999998833
 30
0.0
 11
26.071593391439961
 21
45.68990660855885
 31
0.0
  0
LINE
  5
F71
  8
0
 10
25.999999999999972
 20
45.698999999998819
 30
0.0
 11
26.03125
 21
45.730249999998833
 31
0.0
  0
LINE
  5
F72
  8
0
 10
33.968749999999972
 20
45.730249999998819
 30
0.0
 11
34.0
 21
45.698999999998819
 31
0.0
  0
LINE
  5
F73
  8
0
 10
33.92840660856001
 20
45.68990660855885
 30
0.0
 11
33.968749999999972
 21
45.730249999998833
 31
0.0
  0
LINE
  5
F76
  8
0
 10
33.508517197661689
 20
45.270017197660543
 30
0.0
 11
33.907568589777362
 21
45.669068589776202
 31
0.0
  0
LINE
  5
F79
  8
0
 10
32.381250000000001
 20
45.730249999998819
 30
0.0
 11
32.828427124746177
 21
45.283072875252628
 31
0.0
  0
LINE
  5
F7A
  8
0
 10
31.921017197661708
 20
45.270017197660522
 30
0.0
 11
32.381250000000001
 21
45.730249999998819
 31
0.0
  0
LINE
  5
F7C
  8
0
 10
30.793749999999989
 20
45.730249999998819
 30
0.0
 11
30.85493141022264
 21
45.669068589776188
 31
0.0
  0
LINE
  5
F7D
  8
0
 10
30.753406608559999
 20
45.689906608558843
 30
0.0
 11
30.793749999999989
 21
45.730249999998819
 31
0.0
  0
LINE
  5
F81
  8
0
 10
29.206250000000011
 20
45.730249999998819
 30
0.0
 11
29.246593391439969
 21
45.68990660855885
 31
0.0
  0
LINE
  5
F82
  8
0
 10
29.14506858977737
 20
45.669068589776202
 30
0.0
 11
29.206250000000011
 21
45.730249999998819
 31
0.0
  0
LINE
  5
F84
  8
0
 10
27.618749999999981
 20
45.730249999998833
 30
0.0
 11
28.078982802338292
 21
45.270017197660543
 31
0.0
  0
LINE
  5
F85
  8
0
 10
27.171572875253808
 20
45.283072875252628
 30
0.0
 11
27.618749999999981
 21
45.730249999998819
 31
0.0
  0
LINE
  5
F88
  8
0
 10
26.092431410222591
 20
45.669068589776202
 30
0.0
 11
26.491482802338279
 21
45.270017197660543
 31
0.0
  0
LINE
  5
F8A
  8
0
 10
34.0
 20
56.199999999999989
 30
0.0
 11
25.999999999999972
 21
56.199999999999989
 31
0.0
  0
LINE
  5
F8B
  8
0
 10
26.799999999999979
 20
57.0
 30
0.0
 11
33.199999999999989
 21
57.0
 31
0.0
  0
LINE
  5
F8C
  8
0
 10
30.06350000000117
 20
44.999999999999993
 30
0.0
 11
30.753406608560031
 21
45.689906608558843
 31
0.0
  0
LINE
  5
F8D
  8
0
 10
29.93649999999883
 20
44.999999999999993
 30
0.0
 11
30.06350000000117
 21
44.999999999999993
 31
0.0
  0
LINE
  5
F8E
  8
0
 10
29.246593391439969
 20
45.689906608558843
 30
0.0
 11
29.93649999999883
 21
44.999999999999993
 31
0.0
  0
LINE
  5
F8F
  8
0
 10
28.348999999998821
 20
44.999999999999993
 30
0.0
 11
28.476000000001171
 21
44.999999999999993
 31
0.0
  0
LINE
  5
F90
  8
0
 10
28.078982802338292
 20
45.270017197660543
 30
0.0
 11
28.348999999998821
 21
44.999999999999993
 31
0.0
  0
LINE
  5
F91
  8
0
 10
28.476000000001171
 20
44.999999999999993
 30
0.0
 11
29.14506858977737
 21
45.669068589776188
 31
0.0
  0
LINE
  5
F92
  8
0
 10
31.651000000001179
 20
44.999999999999993
 30
0.0
 11
31.921017197661708
 21
45.270017197660522
 31
0.0
  0
LINE
  5
F93
  8
0
 10
31.523999999998811
 20
44.999999999999993
 30
0.0
 11
31.651000000001179
 21
44.999999999999993
 31
0.0
  0
LINE
  5
F94
  8
0
 10
30.85493141022264
 20
45.669068589776188
 30
0.0
 11
31.523999999998811
 21
44.999999999999993
 31
0.0
  0
LINE
  5
F95
  8
0
 10
33.23850000000116
 20
45.0
 30
0.0
 11
33.508517197661689
 21
45.270017197660543
 31
0.0
  0
LINE
  5
F96
  8
0
 10
33.111499999998813
 20
45.0
 30
0.0
 11
33.23850000000116
 21
45.0
 31
0.0
  0
LINE
  5
F97
  8
0
 10
32.828427124746177
 20
45.283072875252628
 30
0.0
 11
33.111499999998813
 21
45.0
 31
0.0
  0
LINE
  5
F98
  8
0
 10
26.888500000001159
 20
45.0
 30
0.0
 11
27.171572875253791
 21
45.283072875252628
 31
0.0
  0
LINE
  5
F99
  8
0
 10
26.761499999998819
 20
45.0
 30
0.0
 11
26.888500000001159
 21
45.0
 31
0.0
  0
LINE
  5
F9A
  8
0
 10
26.491482802338279
 20
45.270017197660543
 30
0.0
 11
26.761499999998819
 21
45.0
 31
0.0
  0
LINE
  5
F9B
  8
0
 10
26.071593391439961
 20
45.68990660855885
 30
0.0
 11
26.09243141022262
 21
45.669068589776202
 31
0.0
  0
LINE
  5
F9C
  8
0
 10
33.907568589777377
 20
45.669068589776202
 30
0.0
 11
33.92840660856001
 21
45.689906608558843
 31
0.0
  0
LINE
  5
FF3
  8
2
 10
50.000000000000043
 20
28.00000000000006
 30
0.0
 11
49.343552743930999
 21
28.37900000000031
 31
0.0
  0
LINE
  5
FF4
  8
2
 10
50.000000000000043
 20
32.0
 30
0.0
 11
49.343552743930999
 21
31.620999999999761
 31
0.0
  0
LINE
  5
FF5
  8
2
 10
48.54607259421654
 20
31.620999999999761
 30
0.0
 11
47.572077530772972
 21
30.0
 31
0.0
  0
LINE
  5
FF6
  8
2
 10
48.546072594216419
 20
28.37900000000036
 30
0.0
 11
47.572077530772972
 21
30.0
 31
0.0
  0
LINE
  5
FF7
  8
2
 10
48.546072594216419
 20
28.379000000000278
 30
0.0
 11
48.546072594216419
 21
31.620999999999761
 31
0.0
  0
LINE
  5
FF8
  8
2
 10
50.000000000000043
 20
28.0
 30
0.0
 11
50.000000000000043
 21
32.0
 31
0.0
  0
LINE
  5
FF9
  8
2
 10
56.200000000000038
 20
31.620999999999761
 30
0.0
 11
48.546072594216419
 21
31.620999999999761
 31
0.0
  0
LINE
  5
FFA
  8
2
 10
56.579000000000292
 20
32.0
 30
0.0
 11
50.000000000000043
 21
32.0
 31
0.0
  0
LINE
  5
FFB
  8
2
 10
56.200000000000038
 20
28.379000000000278
 30
0.0
 11
48.546072594216419
 21
28.379000000000278
 31
0.0
  0
LINE
  5
FFC
  8
2
 10
56.579000000000292
 20
28.0
 30
0.0
 11
50.000000000000043
 21
28.0
 31
0.0
  0
LINE
  5
FFD
  8
2
 10
57.000000000000057
 20
32.420999999999822
 30
0.0
 11
56.200000000000038
 21
31.620999999999761
 31
0.0
  0
LINE
  5
FFE
  8
2
 10
56.200000000000038
 20
31.620999999999761
 30
0.0
 11
56.200000000000038
 21
28.379000000000278
 31
0.0
  0
LINE
  5
FFF
  8
2
 10
56.200000000000038
 20
28.379000000000278
 30
0.0
 11
57.000000000000057
 21
27.579000000000239
 31
0.0
  0
LINE
  5
106F
  8
2
 10
31.99999999999994
 20
50.0
 30
0.0
 11
31.6209999999997
 21
49.34355274393095
 31
0.0
  0
LINE
  5
1070
  8
2
 10
28.0
 20
50.0
 30
0.0
 11
28.37900000000025
 21
49.34355274393095
 31
0.0
  0
LINE
  5
1071
  8
2
 10
28.37900000000025
 20
48.546072594216497
 30
0.0
 11
30.0
 21
47.57207753077293
 31
0.0
  0
LINE
  5
1072
  8
2
 10
31.62099999999964
 20
48.546072594216383
 30
0.0
 11
30.0
 21
47.57207753077293
 31
0.0
  0
LINE
  5
1073
  8
2
 10
31.620999999999729
 20
48.546072594216383
 30
0.0
 11
28.37900000000025
 21
48.546072594216383
 31
0.0
  0
LINE
  5
1074
  8
2
 10
32.0
 20
50.0
 30
0.0
 11
28.0
 21
50.0
 31
0.0
  0
LINE
  5
1075
  8
2
 10
28.37900000000025
 20
56.200000000000003
 30
0.0
 11
28.37900000000025
 21
48.546072594216383
 31
0.0
  0
LINE
  5
1076
  8
2
 10
28.0
 20
56.579000000000249
 30
0.0
 11
28.0
 21
50.0
 31
0.0
  0
LINE
  5
1077
  8
2
 10
31.620999999999729
 20
56.200000000000003
 30
0.0
 11
31.620999999999729
 21
48.546072594216383
 31
0.0
  0
LINE
  5
1078
  8
2
 10
32.0
 20
56.579000000000249
 30
0.0
 11
32.0
 21
50.0
 31
0.0
  0
LINE
  5
1079
  8
2
 10
27.579000000000178
 20
57.000000000000007
 30
0.0
 11
28.37900000000025
 21
56.200000000000003
 31
0.0
  0
LINE
  5
107A
  8
2
 10
28.37900000000025
 20
56.200000000000003
 30
0.0
 11
31.620999999999729
 21
56.200000000000003
 31
0.0
  0
LINE
  5
107B
  8
2
 10
31.620999999999729
 20
56.200000000000003
 30
0.0
 11
32.420999999999772
 21
57.000000000000007
 31
0.0
  0
CIRCLE
  5
107C
  8
0
 10
30.0
 20
29.999999999999989
 30
0.0
 40
4.0
  0
LINE
  5
1104
  8
1
 10
30.0
 20
59.0
 30
0.0
 11
30.0
 21
42.999999999999979
 31
0.0
  0
LINE
  5
1105
  8
1
 10
59.000000000000043
 20
29.999999999999989
 30
0.0
 11
43.0
 21
29.999999999999989
 31
0.0
  0
LINE
  5
110D
  8
1
 10
30.0
 20
35.999999999999993
 30
0.0
 11
30.0
 21
23.999999999999989
 31
0.0
  0
LINE
  5
110E
  8
1
 10
36.0
 20
29.999999999999989
 30
0.0
 11
24.0
 21
29.999999999999989
 31
0.0
  0
ENDSEC
  0
EOF
