  0
SECTION
  2
HEADER
  9
$ACADVER
  1
AC1009
  9
$INSBASE
 10
0.0
 20
0.0
 30
0.0
  9
$EXTMIN
 10
0.0
 20
-1.4802182810368341
 30
0.0
  9
$EXTMAX
 10
139.29232200000001
 20
103.400254
 30
0.0
  9
$LIMMIN
 10
0.0
 20
0.0
  9
$LIMMAX
 10
187.5
 20
135.0
  9
$ORTHOMODE
 70
     1
  9
$REGENMODE
 70
     1
  9
$FILLMODE
 70
     1
  9
$QTEXTMODE
 70
     0
  9
$MIRRTEXT
 70
     0
  9
$DRAGMODE
 70
     2
  9
$LTSCALE
 40
5.0
  9
$OSMODE
 70
    55
  9
$ATTMODE
 70
     1
  9
$TEXTSIZE
 40
2.5
  9
$TRACEWID
 40
0.05
  9
$TEXTSTYLE
  7
STANDARD
  9
$CLAYER
  8
0
  9
$CELTYPE
  6
BYLAYER
  9
$CECOLOR
 62
   256
  9
$DIMSCALE
 40
0.5
  9
$DIMASZ
 40
3.0
  9
$DIMEXO
 40
2.0
  9
$DIMDLI
 40
10.0
  9
$DIMRND
 40
0.0
  9
$DIMDLE
 40
0.0
  9
$DIMEXE
 40
2.0
  9
$DIMTP
 40
0.0
  9
$DIMTM
 40
0.0
  9
$DIMTXT
 40
3.2000000000000002
  9
$DIMCEN
 40
0.09
  9
$DIMTSZ
 40
0.0
  9
$DIMTOL
 70
     0
  9
$DIMLIM
 70
     0
  9
$DIMTIH
 70
     0
  9
$DIMTOH
 70
     0
  9
$DIMSE1
 70
     0
  9
$DIMSE2
 70
     0
  9
$DIMTAD
 70
     1
  9
$DIMZIN
 70
     0
  9
$DIMBLK
  1

  9
$DIMASO
 70
     0
  9
$DIMSHO
 70
     0
  9
$DIMPOST
  1

  9
$DIMAPOST
  1

  9
$DIMALT
 70
     0
  9
$DIMALTD
 70
     2
  9
$DIMALTF
 40
25.399999999999999
  9
$DIMLFAC
 40
1.0
  9
$DIMTOFL
 70
     1
  9
$DIMTVP
 40
1.6000000000000001
  9
$DIMTIX
 70
     1
  9
$DIMSOXD
 70
     0
  9
$DIMSAH
 70
     0
  9
$DIMBLK1
  1

  9
$DIMBLK2
  1

  9
$DIMSTYLE
  2
STANDARD
  9
$DIMCLRD
 70
     0
  9
$DIMCLRE
 70
     0
  9
$DIMCLRT
 70
     0
  9
$DIMTFAC
 40
1.0
  9
$DIMGAP
 40
0.09
  9
$LUNITS
 70
     2
  9
$LUPREC
 70
     4
  9
$SKETCHINC
 40
0.1
  9
$FILLETRAD
 40
0.0
  9
$AUNITS
 70
     0
  9
$AUPREC
 70
     0
  9
$MENU
  1
E:\r13\win\SUPPORT\ACAD
  9
$ELEVATION
 40
0.0
  9
$PELEVATION
 40
0.0
  9
$THICKNESS
 40
0.0
  9
$LIMCHECK
 70
     0
  9
$BLIPMODE
 70
     0
  9
$CHAMFERA
 40
0.0
  9
$CHAMFERB
 40
0.0
  9
$SKPOLY
 70
     0
  9
$TDCREATE
 40
2449840.5944097228
  9
$TDUPDATE
 40
2456598.691858843
  9
$TDINDWG
 40
0.0102465741
  9
$TDUSRTIMER
 40
0.0102465741
  9
$USRTIMER
 70
     1
  9
$ANGBASE
 50
0.0
  9
$ANGDIR
 70
     0
  9
$PDMODE
 70
     0
  9
$PDSIZE
 40
0.0
  9
$PLINEWID
 40
0.0
  9
$COORDS
 70
     1
  9
$SPLFRAME
 70
     0
  9
$SPLINETYPE
 70
     6
  9
$SPLINESEGS
 70
     8
  9
$ATTDIA
 70
     0
  9
$ATTREQ
 70
     1
  9
$HANDLING
 70
     1
  9
$HANDSEED
  5
31D
  9
$SURFTAB1
 70
     6
  9
$SURFTAB2
 70
     6
  9
$SURFTYPE
 70
     6
  9
$SURFU
 70
     6
  9
$SURFV
 70
     6
  9
$UCSNAME
  2

  9
$UCSORG
 10
0.0
 20
0.0
 30
0.0
  9
$UCSXDIR
 10
1.0
 20
0.0
 30
0.0
  9
$UCSYDIR
 10
0.0
 20
1.0
 30
0.0
  9
$PUCSNAME
  2

  9
$PUCSORG
 10
0.0
 20
0.0
 30
0.0
  9
$PUCSXDIR
 10
1.0
 20
0.0
 30
0.0
  9
$PUCSYDIR
 10
0.0
 20
1.0
 30
0.0
  9
$USERI1
 70
     0
  9
$USERI2
 70
     1
  9
$USERI3
 70
     0
  9
$USERI4
 70
     0
  9
$USERI5
 70
     0
  9
$USERR1
 40
0.0
  9
$USERR2
 40
0.0
  9
$USERR3
 40
0.0
  9
$USERR4
 40
0.0
  9
$USERR5
 40
0.0
  9
$WORLDVIEW
 70
     1
  9
$SHADEDGE
 70
     3
  9
$SHADEDIF
 70
    70
  9
$TILEMODE
 70
     1
  9
$MAXACTVP
 70
    16
  9
$PLIMCHECK
 70
     0
  9
$PEXTMIN
 10
1.0000000000000000E+020
 20
1.0000000000000000E+020
 30
1.0000000000000000E+020
  9
$PEXTMAX
 10
-1.0000000000000000E+020
 20
-1.0000000000000000E+020
 30
-1.0000000000000000E+020
  9
$PLIMMIN
 10
0.0
 20
0.0
  9
$PLIMMAX
 10
12.0
 20
9.0
  9
$UNITMODE
 70
     0
  9
$VISRETAIN
 70
     0
  9
$PLINEGEN
 70
     0
  9
$PSLTSCALE
 70
     0
  0
ENDSEC
  0
SECTION
  2
TABLES
  0
TABLE
  2
VPORT
 70
     1
  0
VPORT
  2
*ACTIVE
 70
     0
 10
0.0
 20
0.0
 11
1.0
 21
1.0
 12
93.74713919532617
 22
87.458386271734256
 13
0.0
 23
0.0
 14
5.0
 24
5.0
 15
5.0
 25
5.0
 16
0.0
 26
0.0
 36
1.0
 17
0.0
 27
0.0
 37
0.0
 40
179.46013949787169
 41
1.7807262569832401
 42
50.0
 43
0.0
 44
0.0
 50
0.0
 51
0.0
 71
     0
 72
   100
 73
     1
 74
     0
 75
     0
 76
     0
 77
     0
 78
     0
  0
ENDTAB
  0
TABLE
  2
LTYPE
 70
     4
  0
LTYPE
  2
CONTINUOUS
 70
     0
  3
Solid Line
 72
    65
 73
     0
 40
0.0
  0
LTYPE
  2
CENTER
 70
     0
  3
____ _ ____ _ ____ _ ____ _ ____ _ ____ _ ____
 72
    65
 73
     4
 40
2.0
 49
1.25
 49
-0.25
 49
0.25
 49
-0.25
  0
LTYPE
  2
HIDDEN
 70
     0
  3
_ _ _ _ _ _ _ _ _ _ _ _ _ _ _ _ _ _ _ _ _ _ _
 72
    65
 73
     2
 40
0.375
 49
0.25
 49
-0.125
  0
LTYPE
  2
PHANTOM2
 70
     0
  3
___ _ _ ___ _ _ ___ _ _ ___ _ _
 72
    65
 73
     6
 40
1.25
 49
0.625
 49
-0.125
 49
0.125
 49
-0.125
 49
0.125
 49
-0.125
  0
ENDTAB
  0
TABLE
  2
LAYER
 70
     4
  0
LAYER
  2
0
 70
     0
 62
     7
  6
CONTINUOUS
  0
LAYER
  2
1
 70
     0
 62
     1
  6
CENTER
  0
LAYER
  2
2
 70
     0
 62
     2
  6
HIDDEN
  0
LAYER
  2
3
 70
     0
 62
     3
  6
CONTINUOUS
  0
ENDTAB
  0
TABLE
  2
STYLE
 70
     2
  0
STYLE
  2
STANDARD
 70
     0
 40
0.0
 41
1.0
 50
0.0
 71
     0
 42
2.5
  3
SIMPLEX
  4
BIGFONT
  0
STYLE
  2
STANDARD1
 70
     0
 40
0.0
 41
1.0
 50
0.0
 71
     0
 42
3.0
  3
txt
  4

  0
ENDTAB
  0
TABLE
  2
VIEW
 70
     1
  0
VIEW
  2
ALL
 70
     0
 40
135.0
 10
110.49579799999999
 20
67.5
 41
0.0
 11
0.0
 21
0.0
 31
1.0
 12
0.0
 22
0.0
 32
0.0
 42
0.0
 43
0.0
 44
0.0
 50
0.0
 71
     0
  0
ENDTAB
  0
TABLE
  2
UCS
 70
     0
  0
ENDTAB
  0
TABLE
  2
APPID
 70
     3
  0
APPID
  2
ACAD
 70
     0
  0
APPID
  2
ACAD_MLEADERVER
 70
     0
  0
APPID
  2
ACAD_NAV_VCDISPLAY
 70
     0
  0
ENDTAB
  0
TABLE
  2
DIMSTYLE
 70
     1
  0
DIMSTYLE
  2
STANDARD
 70
     0
  3

  4

  5

  6

  7

 40
1.0
 41
0.18
 42
0.0625
 43
0.38
 44
0.18
 45
0.0
 46
0.0
 47
0.0
 48
0.0
140
0.18
141
0.09
142
0.0
143
25.399999999999999
144
1.0
145
0.0
146
1.0
147
0.09
 71
     0
 72
     0
 73
     1
 74
     1
 75
     0
 76
     0
 77
     0
 78
     0
170
     0
171
     2
172
     0
173
     0
174
     0
175
     0
176
     0
177
     0
178
     0
  0
ENDTAB
  0
ENDSEC
  0
SECTION
  2
BLOCKS
  0
BLOCK
  8
0
  2
$MODEL_SPACE
 70
     0
 10
0.0
 20
0.0
 30
0.0
  3
$MODEL_SPACE
  1

  0
ENDBLK
  5
1D6
  8
0
  0
BLOCK
 67
     1
  8
0
  2
$PAPER_SPACE
 70
     0
 10
0.0
 20
0.0
 30
0.0
  3
$PAPER_SPACE
  1

  0
ENDBLK
  5
1D4
 67
     1
  8
0
  0
BLOCK
  8
0
  2
STDGX5
 70
     0
 10
0.0
 20
0.0
 30
0.0
  3
STDGX5
  1

  0
ENDBLK
  5
41
  8
0
  0
ENDSEC
  0
SECTION
  2
ENTITIES
  0
LINE
  5
70
  8
0
 10
88.663267000000005
 20
46.654811000000002
 30
0.0
 11
89.806267000000005
 21
47.797811000000003
 31
0.0
  0
LINE
  5
71
  8
0
 10
88.235266999999993
 20
47.082810999999992
 30
0.0
 11
88.663267000000005
 21
46.654811000000002
 31
0.0
  0
LINE
  5
72
  8
0
 10
98.235267000000022
 20
47.082810999999992
 30
0.0
 11
97.807267000000024
 21
46.654811000000002
 31
0.0
  0
LINE
  5
73
  8
1
 10
93.235266999999993
 20
50.297811000000003
 30
0.0
 11
93.235266999999993
 21
33.297811000000003
 31
0.0
  0
LINE
  5
74
  8
0
 10
92.092267000000007
 20
47.797811000000003
 30
0.0
 11
93.235266999999993
 21
46.654811000000002
 31
0.0
  0
LINE
  5
75
  8
0
 10
90.949267000000006
 20
46.654811000000002
 30
0.0
 11
92.092267000000007
 21
47.797811000000003
 31
0.0
  0
LINE
  5
76
  8
0
 10
89.806267000000005
 20
47.797811000000003
 30
0.0
 11
90.949267000000006
 21
46.654811000000002
 31
0.0
  0
LINE
  5
77
  8
0
 10
97.807267000000024
 20
46.654811000000002
 30
0.0
 11
96.664267000000024
 21
47.797811000000003
 31
0.0
  0
LINE
  5
78
  8
0
 10
96.664267000000024
 20
47.797811000000003
 30
0.0
 11
95.521266999999995
 21
46.654811000000002
 31
0.0
  0
LINE
  5
79
  8
0
 10
95.521266999999995
 20
46.654811000000002
 30
0.0
 11
94.378266999999994
 21
47.797811000000003
 31
0.0
  0
LINE
  5
7A
  8
0
 10
93.235266999999993
 20
46.654811000000002
 30
0.0
 11
92.092267000000007
 21
47.797811000000003
 31
0.0
  0
LINE
  5
7B
  8
0
 10
94.378266999999994
 20
47.797811000000003
 30
0.0
 11
93.235266999999993
 21
46.654811000000002
 31
0.0
  0
LINE
  5
7C
  8
2
 10
90.735266999999993
 20
46.868810999999987
 30
0.0
 11
90.735266999999993
 21
36.164811
 31
0.0
  0
LINE
  5
7D
  8
2
 10
91.168267
 20
46.873810999999989
 30
0.0
 11
91.168267
 21
36.597811
 31
0.0
  0
LINE
  5
7E
  8
2
 10
91.168267
 20
36.597811
 30
0.0
 11
90.368267000000003
 21
35.797811000000003
 31
0.0
  0
LINE
  5
7F
  8
2
 10
95.302267000000001
 20
36.597811
 30
0.0
 11
96.102266999999998
 21
35.797811000000003
 31
0.0
  0
LINE
  5
80
  8
2
 10
95.302267000000001
 20
46.873810999999989
 30
0.0
 11
95.302267000000001
 21
36.597811
 31
0.0
  0
LINE
  5
81
  8
2
 10
95.735266999999993
 20
46.868810999999987
 30
0.0
 11
95.735266999999993
 21
36.164811
 31
0.0
  0
LINE
  5
82
  8
0
 10
98.235267000000022
 20
36.597811
 30
0.0
 11
88.235266999999993
 21
36.597811
 31
0.0
  0
LINE
  5
83
  8
0
 10
89.035267000000005
 20
35.797811000000003
 30
0.0
 11
88.235266999999993
 21
36.597811
 31
0.0
  0
LINE
  5
84
  8
0
 10
98.235267000000022
 20
36.597811
 30
0.0
 11
97.435267000000024
 21
35.797811000000003
 31
0.0
  0
LINE
  5
85
  8
0
 10
88.235266999999993
 20
47.082810999999992
 30
0.0
 11
88.235266999999993
 21
36.597811
 31
0.0
  0
LINE
  5
86
  8
0
 10
98.235267000000022
 20
47.082810999999992
 30
0.0
 11
98.235267000000022
 21
36.597811
 31
0.0
  0
LINE
  5
87
  8
0
 10
97.435267000000024
 20
35.797811000000003
 30
0.0
 11
89.035267000000005
 21
35.797811000000003
 31
0.0
  0
LINE
  5
88
  8
0
 10
97.435267000000024
 20
100.900254
 30
0.0
 11
89.035267000000005
 21
100.900254
 31
0.0
  0
LINE
  5
89
  8
0
 10
98.235267000000022
 20
89.615254000000007
 30
0.0
 11
98.235267000000022
 21
100.10025400000001
 31
0.0
  0
LINE
  5
8A
  8
0
 10
88.235266999999993
 20
89.615254000000007
 30
0.0
 11
88.235266999999993
 21
100.10025400000001
 31
0.0
  0
LINE
  5
8B
  8
0
 10
98.235267000000022
 20
100.10025400000001
 30
0.0
 11
97.435267000000024
 21
100.900254
 31
0.0
  0
LINE
  5
8C
  8
0
 10
89.035267000000005
 20
100.900254
 30
0.0
 11
88.235266999999993
 21
100.10025400000001
 31
0.0
  0
LINE
  5
8D
  8
0
 10
98.235267000000022
 20
100.10025400000001
 30
0.0
 11
88.235266999999993
 21
100.10025400000001
 31
0.0
  0
LINE
  5
8E
  8
2
 10
95.735266999999993
 20
89.829254000000006
 30
0.0
 11
95.735266999999993
 21
100.533254
 31
0.0
  0
LINE
  5
8F
  8
2
 10
95.302267000000001
 20
89.824254000000025
 30
0.0
 11
95.302267000000001
 21
100.10025400000001
 31
0.0
  0
LINE
  5
90
  8
2
 10
95.302267000000001
 20
100.10025400000001
 30
0.0
 11
96.102266999999998
 21
100.900254
 31
0.0
  0
LINE
  5
91
  8
2
 10
91.168267
 20
100.10025400000001
 30
0.0
 11
90.368267000000003
 21
100.900254
 31
0.0
  0
LINE
  5
92
  8
2
 10
91.168267
 20
89.824254000000025
 30
0.0
 11
91.168267
 21
100.10025400000001
 31
0.0
  0
LINE
  5
93
  8
2
 10
90.735266999999993
 20
89.829254000000006
 30
0.0
 11
90.735266999999993
 21
100.533254
 31
0.0
  0
LINE
  5
94
  8
0
 10
94.378266999999994
 20
88.900254000000004
 30
0.0
 11
93.235266999999993
 21
90.043254000000005
 31
0.0
  0
LINE
  5
95
  8
0
 10
93.235266999999993
 20
90.043254000000005
 30
0.0
 11
92.092267000000007
 21
88.900254000000004
 31
0.0
  0
LINE
  5
96
  8
0
 10
95.521266999999995
 20
90.043254000000005
 30
0.0
 11
94.378266999999994
 21
88.900254000000004
 31
0.0
  0
LINE
  5
97
  8
0
 10
96.664267000000024
 20
88.900254000000004
 30
0.0
 11
95.521266999999995
 21
90.043254000000005
 31
0.0
  0
LINE
  5
98
  8
0
 10
97.807267000000024
 20
90.043254000000005
 30
0.0
 11
96.664267000000024
 21
88.900254000000004
 31
0.0
  0
LINE
  5
99
  8
0
 10
89.806267000000005
 20
88.900254000000004
 30
0.0
 11
90.949267000000006
 21
90.043254000000005
 31
0.0
  0
LINE
  5
9A
  8
0
 10
90.949267000000006
 20
90.043254000000005
 30
0.0
 11
92.092267000000007
 21
88.900254000000004
 31
0.0
  0
LINE
  5
9B
  8
0
 10
92.092267000000007
 20
88.900254000000004
 30
0.0
 11
93.235266999999993
 21
90.043254000000005
 31
0.0
  0
LINE
  5
9C
  8
1
 10
93.235266999999993
 20
86.400254000000004
 30
0.0
 11
93.235266999999993
 21
103.400254
 31
0.0
  0
LINE
  5
9D
  8
0
 10
98.235267000000022
 20
89.615254000000007
 30
0.0
 11
97.807267000000024
 21
90.043254000000005
 31
0.0
  0
LINE
  5
9E
  8
0
 10
88.235266999999993
 20
89.615254000000007
 30
0.0
 11
88.663267000000005
 21
90.043254000000005
 31
0.0
  0
LINE
  5
9F
  8
0
 10
88.663267000000005
 20
90.043254000000005
 30
0.0
 11
89.806267000000005
 21
88.900254000000004
 31
0.0
  0
LINE
  5
A0
  8
0
 10
95.948199000000002
 20
92.650254000000004
 30
0.0
 11
95.948199000000002
 21
97.150254000000004
 31
0.0
  0
LINE
  5
A1
  8
0
 10
90.522334999999984
 20
92.650254000000004
 30
0.0
 11
90.522334999999984
 21
97.150254000000004
 31
0.0
  0
LINE
  5
A2
  8
0
 10
90.522334999999984
 20
92.650254000000004
 30
0.0
 11
95.948199000000002
 21
92.650254000000004
 31
0.0
  0
LINE
  5
A3
  8
0
 10
90.522334999999984
 20
97.150254000000004
 30
0.0
 11
95.948199000000002
 21
97.150254000000004
 31
0.0
  0
INSERT
  5
CA
  8
0
  2
STDGX5
 10
0.0
 20
0.0
 30
0.0
  0
LINE
  5
CC
  8
0
 10
136.7923219999999
 20
72.799032999999994
 30
0.0
 11
136.7923219999999
 21
64.399033000000003
 31
0.0
  0
LINE
  5
CD
  8
0
 10
125.507322
 20
73.599032999999991
 30
0.0
 11
128.41732200000001
 21
73.599032999999991
 31
0.0
  0
LINE
  5
CE
  8
0
 10
125.507322
 20
63.599032999999999
 30
0.0
 11
135.992322
 21
63.599032999999999
 31
0.0
  0
LINE
  5
CF
  8
0
 10
135.992322
 20
73.599032999999991
 30
0.0
 11
136.7923219999999
 21
72.799032999999994
 31
0.0
  0
LINE
  5
D0
  8
0
 10
136.7923219999999
 20
64.399033000000003
 30
0.0
 11
135.992322
 21
63.599032999999999
 31
0.0
  0
LINE
  5
D1
  8
0
 10
135.992322
 20
73.599032999999991
 30
0.0
 11
135.992322
 21
63.599032999999999
 31
0.0
  0
LINE
  5
D2
  8
2
 10
125.721322
 20
71.099032999999991
 30
0.0
 11
136.42532199999999
 21
71.099032999999991
 31
0.0
  0
LINE
  5
D3
  8
2
 10
125.71632200000001
 20
70.666032999999999
 30
0.0
 11
135.992322
 21
70.666032999999999
 31
0.0
  0
LINE
  5
D4
  8
2
 10
135.992322
 20
70.666032999999999
 30
0.0
 11
136.7923219999999
 21
71.466032999999996
 31
0.0
  0
LINE
  5
D5
  8
2
 10
135.992322
 20
66.532032999999998
 30
0.0
 11
136.7923219999999
 21
65.732033000000001
 31
0.0
  0
LINE
  5
D6
  8
2
 10
125.71632200000001
 20
66.532032999999998
 30
0.0
 11
135.992322
 21
66.532032999999998
 31
0.0
  0
LINE
  5
D7
  8
2
 10
125.721322
 20
66.099032999999991
 30
0.0
 11
136.42532199999999
 21
66.099032999999991
 31
0.0
  0
LINE
  5
D8
  8
0
 10
124.792322
 20
69.742032999999992
 30
0.0
 11
125.935322
 21
68.599032999999991
 31
0.0
  0
LINE
  5
D9
  8
0
 10
125.935322
 20
68.599032999999991
 30
0.0
 11
124.792322
 21
67.456032999999991
 31
0.0
  0
LINE
  5
DA
  8
0
 10
125.935322
 20
70.885032999999993
 30
0.0
 11
124.792322
 21
69.742032999999992
 31
0.0
  0
LINE
  5
DB
  8
0
 10
124.792322
 20
72.028032999999994
 30
0.0
 11
125.935322
 21
70.885032999999993
 31
0.0
  0
LINE
  5
DC
  8
0
 10
125.935322
 20
73.171032999999994
 30
0.0
 11
124.792322
 21
72.028032999999994
 31
0.0
  0
LINE
  5
DD
  8
1
 10
130.79232200000001
 20
76.099032999999991
 30
0.0
 11
130.79232200000001
 21
70.299032999999994
 31
0.0
  0
LINE
  5
DE
  8
0
 10
133.16732200000001
 20
73.599032999999991
 30
0.0
 11
133.16732200000001
 21
72.799032999999994
 31
0.0
  0
LINE
  5
DF
  8
0
 10
128.41732200000001
 20
72.799032999999994
 30
0.0
 11
133.16732200000001
 21
72.799032999999994
 31
0.0
  0
LINE
  5
E0
  8
0
 10
128.41732200000001
 20
73.599032999999991
 30
0.0
 11
128.41732200000001
 21
72.799032999999994
 31
0.0
  0
LINE
  5
E1
  8
0
 10
133.16732200000001
 20
73.599032999999991
 30
0.0
 11
135.992322
 21
73.599032999999991
 31
0.0
  0
LINE
  5
E2
  8
0
 10
124.792322
 20
65.170032999999975
 30
0.0
 11
125.935322
 21
66.31303299999999
 31
0.0
  0
LINE
  5
E3
  8
0
 10
125.935322
 20
66.31303299999999
 30
0.0
 11
124.792322
 21
67.456032999999991
 31
0.0
  0
LINE
  5
E4
  8
0
 10
124.792322
 20
67.456032999999991
 30
0.0
 11
125.935322
 21
68.599032999999991
 31
0.0
  0
LINE
  5
E5
  8
1
 10
122.292322
 20
68.599032999999991
 30
0.0
 11
139.29232200000001
 21
68.599032999999991
 31
0.0
  0
LINE
  5
E6
  8
0
 10
125.507322
 20
73.599032999999991
 30
0.0
 11
125.935322
 21
73.171032999999994
 31
0.0
  0
LINE
  5
E7
  8
0
 10
125.507322
 20
63.599032999999999
 30
0.0
 11
125.935322
 21
64.027032999999975
 31
0.0
  0
LINE
  5
E8
  8
0
 10
125.935322
 20
64.027032999999975
 30
0.0
 11
124.792322
 21
65.170032999999975
 31
0.0
  0
LINE
  5
F5
  8
0
 10
61.89269460931758
 20
67.456032999999991
 30
0.0
 11
60.749694609317579
 21
68.599032999999991
 31
0.0
  0
LINE
  5
F6
  8
0
 10
60.749694609317579
 20
68.599032999999991
 30
0.0
 11
61.89269460931758
 21
67.456032999999991
 31
0.0
  0
LINE
  5
F7
  8
0
 10
50.692694609317577
 20
73.599032999999991
 30
0.0
 11
50.692694609317577
 21
63.599032999999999
 31
0.0
  0
LINE
  5
F8
  8
0
 10
49.892694609317601
 20
72.799032999999994
 30
0.0
 11
49.892694609317601
 21
64.399033000000003
 31
0.0
  0
LINE
  5
F9
  8
2
 10
60.963694609317578
 20
66.099032999999991
 30
0.0
 11
50.259694609317592
 21
66.099032999999991
 31
0.0
  0
LINE
  5
FA
  8
2
 10
60.968694609317602
 20
66.532032999999998
 30
0.0
 11
50.692694609317577
 21
66.532032999999998
 31
0.0
  0
LINE
  5
FB
  8
0
 10
61.177694609317577
 20
63.599032999999999
 30
0.0
 11
50.692694609317577
 21
63.599032999999999
 31
0.0
  0
LINE
  5
FC
  8
0
 10
60.749694609317579
 20
64.027032999999975
 30
0.0
 11
61.89269460931758
 21
65.170032999999975
 31
0.0
  0
LINE
  5
FD
  8
0
 10
61.177694609317577
 20
63.599032999999999
 30
0.0
 11
60.749694609317579
 21
64.027032999999975
 31
0.0
  0
LINE
  5
FE
  8
0
 10
60.749694609317579
 20
66.31303299999999
 30
0.0
 11
61.89269460931758
 21
67.456032999999991
 31
0.0
  0
LINE
  5
FF
  8
0
 10
61.89269460931758
 20
65.170032999999975
 30
0.0
 11
60.749694609317579
 21
66.31303299999999
 31
0.0
  0
LINE
  5
100
  8
0
 10
49.892694609317601
 20
64.399033000000003
 30
0.0
 11
50.692694609317577
 21
63.599032999999999
 31
0.0
  0
LINE
  5
101
  8
2
 10
50.692694609317577
 20
66.532032999999998
 30
0.0
 11
49.892694609317601
 21
65.732033000000001
 31
0.0
  0
LINE
  5
102
  8
1
 10
64.392694609317573
 20
68.599032999999991
 30
0.0
 11
47.392694609317601
 21
68.599032999999991
 31
0.0
  0
LINE
  5
103
  8
0
 10
58.267694609317601
 20
72.799032999999994
 30
0.0
 11
53.517694609317601
 21
72.799032999999994
 31
0.0
  0
LINE
  5
104
  8
2
 10
60.968694609317602
 20
70.666032999999999
 30
0.0
 11
50.692694609317577
 21
70.666032999999999
 31
0.0
  0
LINE
  5
105
  8
2
 10
60.963694609317578
 20
71.099032999999991
 30
0.0
 11
50.259694609317592
 21
71.099032999999991
 31
0.0
  0
LINE
  5
106
  8
0
 10
60.749694609317579
 20
73.171032999999994
 30
0.0
 11
61.89269460931758
 21
72.028032999999994
 31
0.0
  0
LINE
  5
107
  8
0
 10
60.749694609317579
 20
70.885032999999993
 30
0.0
 11
61.89269460931758
 21
69.742032999999992
 31
0.0
  0
LINE
  5
108
  8
0
 10
61.89269460931758
 20
69.742032999999992
 30
0.0
 11
60.749694609317579
 21
68.599032999999991
 31
0.0
  0
LINE
  5
109
  8
0
 10
61.89269460931758
 20
72.028032999999994
 30
0.0
 11
60.749694609317579
 21
70.885032999999993
 31
0.0
  0
LINE
  5
10A
  8
0
 10
61.177694609317577
 20
73.599032999999991
 30
0.0
 11
58.267694609317601
 21
73.599032999999991
 31
0.0
  0
LINE
  5
10B
  8
0
 10
61.177694609317577
 20
73.599032999999991
 30
0.0
 11
60.749694609317579
 21
73.171032999999994
 31
0.0
  0
LINE
  5
10C
  8
0
 10
58.267694609317601
 20
73.599032999999991
 30
0.0
 11
58.267694609317601
 21
72.799032999999994
 31
0.0
  0
LINE
  5
10D
  8
1
 10
55.892694609317601
 20
76.099032999999991
 30
0.0
 11
55.892694609317601
 21
70.299032999999994
 31
0.0
  0
LINE
  5
10E
  8
2
 10
50.692694609317577
 20
70.666032999999999
 30
0.0
 11
49.892694609317601
 21
71.466032999999996
 31
0.0
  0
LINE
  5
10F
  8
0
 10
53.517694609317601
 20
73.599032999999991
 30
0.0
 11
50.692694609317577
 21
73.599032999999991
 31
0.0
  0
LINE
  5
110
  8
0
 10
53.517694609317601
 20
73.599032999999991
 30
0.0
 11
53.517694609317601
 21
72.799032999999994
 31
0.0
  0
LINE
  5
111
  8
0
 10
50.692694609317577
 20
73.599032999999991
 30
0.0
 11
49.892694609317601
 21
72.799032999999994
 31
0.0
  0
LINE
  5
121
  8
2
 10
95.948199000000002
 20
72.799032999999994
 30
0.0
 11
90.522335000000012
 21
72.799032999999994
 31
0.0
  0
LINE
  5
122
  8
3
 10
95.289198000000013
 20
68.831101999999987
 30
0.0
 11
97.723943000000006
 21
66.396356999999995
 31
0.0
  0
LINE
  5
123
  8
3
 10
94.696857000000008
 20
67.13744299999999
 30
0.0
 11
96.770801000000006
 21
65.063498999999993
 31
0.0
  0
LINE
  5
124
  8
3
 10
95.437943000000004
 20
64.110356999999993
 30
0.0
 11
93.003198000000026
 21
66.545101999999986
 31
0.0
  0
LINE
  5
125
  8
3
 10
88.944897000000012
 20
66.031402999999983
 30
0.0
 11
90.667636999999999
 21
64.308662999999996
 31
0.0
  0
LINE
  5
126
  8
3
 10
88.252193999999989
 20
69.010105999999993
 30
0.0
 11
93.646339999999995
 21
63.615959999999987
 31
0.0
  0
LINE
  5
127
  8
3
 10
91.181336000000002
 20
68.366963999999996
 30
0.0
 11
88.746590999999995
 21
70.801708999999974
 31
0.0
  0
LINE
  5
128
  8
3
 10
89.699733000000009
 20
72.13456699999999
 30
0.0
 11
91.773677000000006
 21
70.060622999999993
 31
0.0
  0
LINE
  5
129
  8
3
 10
91.032590999999996
 20
73.087708999999975
 30
0.0
 11
93.467336000000003
 21
70.652963999999997
 31
0.0
  0
LINE
  5
12A
  8
3
 10
92.824194000000006
 20
73.582105999999996
 30
0.0
 11
98.218340000000026
 21
68.187959999999975
 31
0.0
  0
LINE
  5
12B
  8
3
 10
95.802896999999987
 20
72.889402999999987
 30
0.0
 11
97.525637000000003
 21
71.166662999999986
 31
0.0
  0
LINE
  5
12C
  8
3
 10
95.289198000000013
 20
68.366963999999996
 30
0.0
 11
97.723943000000006
 21
70.801708999999974
 31
0.0
  0
LINE
  5
12D
  8
3
 10
91.773677000000006
 20
67.13744299999999
 30
0.0
 11
89.699733000000009
 21
65.063498999999993
 31
0.0
  0
LINE
  5
12E
  8
3
 10
91.181336000000002
 20
68.831101999999987
 30
0.0
 11
88.746590999999995
 21
66.396356999999995
 31
0.0
  0
LINE
  5
12F
  8
3
 10
97.525637000000003
 20
66.031402999999983
 30
0.0
 11
95.802896999999987
 21
64.308662999999996
 31
0.0
  0
LINE
  5
130
  8
3
 10
90.667636999999999
 20
72.889402999999987
 30
0.0
 11
88.944897000000012
 21
71.166662999999986
 31
0.0
  0
LINE
  5
131
  8
3
 10
98.218340000000026
 20
69.010105999999993
 30
0.0
 11
92.824194000000006
 21
63.615959999999987
 31
0.0
  0
LINE
  5
132
  8
3
 10
91.032590999999996
 20
64.110356999999993
 30
0.0
 11
93.467336000000003
 21
66.545101999999986
 31
0.0
  0
LINE
  5
133
  8
3
 10
96.770801000000006
 20
72.13456699999999
 30
0.0
 11
94.696857000000008
 21
70.060622999999993
 31
0.0
  0
LINE
  5
134
  8
3
 10
95.437943000000004
 20
73.087708999999975
 30
0.0
 11
93.003198000000026
 21
70.652963999999997
 31
0.0
  0
LINE
  5
135
  8
3
 10
93.646339999999995
 20
73.582105999999996
 30
0.0
 11
88.252193999999989
 21
68.187959999999975
 31
0.0
  0
LINE
  5
136
  8
3
 10
93.235266999999993
 20
66.532032999999998
 30
0.0
 11
93.235266999999993
 21
63.599032999999991
 31
0.0
  0
LINE
  5
137
  8
3
 10
97.807267000000024
 20
70.623091999999986
 30
0.0
 11
97.807267000000024
 21
66.574973999999997
 31
0.0
  0
LINE
  5
138
  8
3
 10
95.521266999999995
 20
73.045852999999994
 30
0.0
 11
95.521266999999995
 21
64.152212999999975
 31
0.0
  0
LINE
  5
139
  8
3
 10
93.235266999999993
 20
73.599032999999991
 30
0.0
 11
93.235266999999993
 21
70.666032999999985
 31
0.0
  0
LINE
  5
13A
  8
3
 10
90.949267000000006
 20
73.045852999999994
 30
0.0
 11
90.949267000000006
 21
64.152212999999975
 31
0.0
  0
LINE
  5
13B
  8
3
 10
88.663267000000005
 20
70.623091999999986
 30
0.0
 11
88.663267000000005
 21
66.574973999999997
 31
0.0
  0
LINE
  5
13C
  8
3
 10
91.168267000000014
 20
68.599032999999991
 30
0.0
 11
88.235266999999993
 21
68.599032999999991
 31
0.0
  0
LINE
  5
13D
  8
3
 10
95.259326000000001
 20
64.027032999999975
 30
0.0
 11
91.211208000000013
 21
64.027032999999975
 31
0.0
  0
LINE
  5
13E
  8
3
 10
95.259326000000001
 20
73.171032999999994
 30
0.0
 11
91.211208000000013
 21
73.171032999999994
 31
0.0
  0
LINE
  5
13F
  8
3
 10
97.682087000000024
 20
70.885032999999993
 30
0.0
 11
88.788447000000005
 21
70.885032999999993
 31
0.0
  0
LINE
  5
140
  8
3
 10
98.235267000000022
 20
68.599032999999991
 30
0.0
 11
95.302267000000001
 21
68.599032999999991
 31
0.0
  0
LINE
  5
141
  8
3
 10
97.682087000000024
 20
66.31303299999999
 30
0.0
 11
88.788447000000005
 21
66.31303299999999
 31
0.0
  0
CIRCLE
  5
142
  8
3
 10
93.235266999999993
 20
68.599032999999991
 30
0.0
 40
2.5
  0
CIRCLE
  5
143
  8
0
 10
93.235266999999993
 20
68.599032999999991
 30
0.0
 40
2.0669999999999988
  0
CIRCLE
  5
144
  8
0
 10
93.235266999999993
 20
68.599032999999991
 30
0.0
 40
5.0
  0
LINE
  5
145
  8
1
 10
93.235266999999993
 20
76.099032999999991
 30
0.0
 11
93.235266999999993
 21
61.099032999999991
 31
0.0
  0
LINE
  5
146
  8
1
 10
85.735266999999993
 20
68.599032999999991
 30
0.0
 11
100.73526699999999
 21
68.599032999999991
 31
0.0
  0
TEXT
  5
285
  8
0
 62
     3
 10
0.0
 20
0.0
 30
0.0
 40
5.0
  1
HS-102
  7
STANDARD1
  0
ENDSEC
  0
EOF
