  0
SECTION
  2
HEADER
  9
$ACADVER
  1
AC1009
  9
$INSBASE
 10
0.0
 20
0.0
 30
0.0
  9
$EXTMIN
 10
0.0
 20
-1.4802182810368341
 30
0.0
  9
$EXTMAX
 10
138.34258008014689
 20
103.0816636757379
 30
0.0
  9
$LIMMIN
 10
0.0
 20
0.0
  9
$LIMMAX
 10
187.5
 20
135.0
  9
$ORTHOMODE
 70
     1
  9
$REGENMODE
 70
     1
  9
$FILLMODE
 70
     1
  9
$QTEXTMODE
 70
     0
  9
$MIRRTEXT
 70
     0
  9
$DRAGMODE
 70
     2
  9
$LTSCALE
 40
5.0
  9
$OSMODE
 70
    55
  9
$ATTMODE
 70
     1
  9
$TEXTSIZE
 40
1.6000000000000001
  9
$TRACEWID
 40
0.05
  9
$TEXTSTYLE
  7
STANDARD
  9
$CLAYER
  8
0
  9
$CELTYPE
  6
BYLAYER
  9
$CECOLOR
 62
   256
  9
$DIMSCALE
 40
0.5
  9
$DIMASZ
 40
3.0
  9
$DIMEXO
 40
2.0
  9
$DIMDLI
 40
10.0
  9
$DIMRND
 40
0.0
  9
$DIMDLE
 40
0.0
  9
$DIMEXE
 40
2.0
  9
$DIMTP
 40
0.0
  9
$DIMTM
 40
0.0
  9
$DIMTXT
 40
3.2000000000000002
  9
$DIMCEN
 40
0.09
  9
$DIMTSZ
 40
0.0
  9
$DIMTOL
 70
     0
  9
$DIMLIM
 70
     0
  9
$DIMTIH
 70
     0
  9
$DIMTOH
 70
     0
  9
$DIMSE1
 70
     0
  9
$DIMSE2
 70
     0
  9
$DIMTAD
 70
     1
  9
$DIMZIN
 70
     0
  9
$DIMBLK
  1

  9
$DIMASO
 70
     0
  9
$DIMSHO
 70
     0
  9
$DIMPOST
  1

  9
$DIMAPOST
  1

  9
$DIMALT
 70
     0
  9
$DIMALTD
 70
     2
  9
$DIMALTF
 40
25.399999999999999
  9
$DIMLFAC
 40
1.0
  9
$DIMTOFL
 70
     1
  9
$DIMTVP
 40
1.6000000000000001
  9
$DIMTIX
 70
     1
  9
$DIMSOXD
 70
     0
  9
$DIMSAH
 70
     0
  9
$DIMBLK1
  1

  9
$DIMBLK2
  1

  9
$DIMSTYLE
  2
STANDARD
  9
$DIMCLRD
 70
     0
  9
$DIMCLRE
 70
     0
  9
$DIMCLRT
 70
     0
  9
$DIMTFAC
 40
1.0
  9
$DIMGAP
 40
0.09
  9
$LUNITS
 70
     2
  9
$LUPREC
 70
     4
  9
$SKETCHINC
 40
0.1
  9
$FILLETRAD
 40
0.0
  9
$AUNITS
 70
     0
  9
$AUPREC
 70
     0
  9
$MENU
  1
E:\r13\win\SUPPORT\ACAD
  9
$ELEVATION
 40
0.0
  9
$PELEVATION
 40
0.0
  9
$THICKNESS
 40
0.0
  9
$LIMCHECK
 70
     0
  9
$BLIPMODE
 70
     0
  9
$CHAMFERA
 40
0.0
  9
$CHAMFERB
 40
0.0
  9
$SKPOLY
 70
     0
  9
$TDCREATE
 40
2449840.5945833339
  9
$TDUPDATE
 40
2456598.6919164471
  9
$TDINDWG
 40
0.019116875
  9
$TDUSRTIMER
 40
0.019116875
  9
$USRTIMER
 70
     1
  9
$ANGBASE
 50
0.0
  9
$ANGDIR
 70
     0
  9
$PDMODE
 70
     0
  9
$PDSIZE
 40
0.0
  9
$PLINEWID
 40
0.0
  9
$COORDS
 70
     1
  9
$SPLFRAME
 70
     0
  9
$SPLINETYPE
 70
     6
  9
$SPLINESEGS
 70
     8
  9
$ATTDIA
 70
     0
  9
$ATTREQ
 70
     1
  9
$HANDLING
 70
     1
  9
$HANDSEED
  5
328
  9
$SURFTAB1
 70
     6
  9
$SURFTAB2
 70
     6
  9
$SURFTYPE
 70
     6
  9
$SURFU
 70
     6
  9
$SURFV
 70
     6
  9
$UCSNAME
  2

  9
$UCSORG
 10
0.0
 20
0.0
 30
0.0
  9
$UCSXDIR
 10
1.0
 20
0.0
 30
0.0
  9
$UCSYDIR
 10
0.0
 20
1.0
 30
0.0
  9
$PUCSNAME
  2

  9
$PUCSORG
 10
0.0
 20
0.0
 30
0.0
  9
$PUCSXDIR
 10
1.0
 20
0.0
 30
0.0
  9
$PUCSYDIR
 10
0.0
 20
1.0
 30
0.0
  9
$USERI1
 70
     0
  9
$USERI2
 70
     1
  9
$USERI3
 70
     0
  9
$USERI4
 70
     0
  9
$USERI5
 70
     0
  9
$USERR1
 40
0.0
  9
$USERR2
 40
0.0
  9
$USERR3
 40
0.0
  9
$USERR4
 40
0.0
  9
$USERR5
 40
0.0
  9
$WORLDVIEW
 70
     1
  9
$SHADEDGE
 70
     3
  9
$SHADEDIF
 70
    70
  9
$TILEMODE
 70
     1
  9
$MAXACTVP
 70
    16
  9
$PLIMCHECK
 70
     0
  9
$PEXTMIN
 10
1.0000000000000000E+020
 20
1.0000000000000000E+020
 30
1.0000000000000000E+020
  9
$PEXTMAX
 10
-1.0000000000000000E+020
 20
-1.0000000000000000E+020
 30
-1.0000000000000000E+020
  9
$PLIMMIN
 10
0.0
 20
0.0
  9
$PLIMMAX
 10
12.0
 20
9.0
  9
$UNITMODE
 70
     0
  9
$VISRETAIN
 70
     0
  9
$PLINEGEN
 70
     0
  9
$PSLTSCALE
 70
     0
  0
ENDSEC
  0
SECTION
  2
TABLES
  0
TABLE
  2
VPORT
 70
     1
  0
VPORT
  2
*ACTIVE
 70
     0
 10
0.0
 20
0.0
 11
1.0
 21
1.0
 12
93.74713919532617
 22
87.458386271734256
 13
0.0
 23
0.0
 14
5.0
 24
5.0
 15
5.0
 25
5.0
 16
0.0
 26
0.0
 36
1.0
 17
0.0
 27
0.0
 37
0.0
 40
179.46013949787169
 41
1.7807262569832401
 42
50.0
 43
0.0
 44
0.0
 50
0.0
 51
0.0
 71
     0
 72
   100
 73
     1
 74
     0
 75
     0
 76
     0
 77
     0
 78
     0
  0
ENDTAB
  0
TABLE
  2
LTYPE
 70
     4
  0
LTYPE
  2
CONTINUOUS
 70
     0
  3
Solid Line
 72
    65
 73
     0
 40
0.0
  0
LTYPE
  2
CENTER
 70
     0
  3
____ _ ____ _ ____ _ ____ _ ____ _ ____ _ ____
 72
    65
 73
     4
 40
2.0
 49
1.25
 49
-0.25
 49
0.25
 49
-0.25
  0
LTYPE
  2
HIDDEN
 70
     0
  3
_ _ _ _ _ _ _ _ _ _ _ _ _ _ _ _ _ _ _ _ _ _ _
 72
    65
 73
     2
 40
0.375
 49
0.25
 49
-0.125
  0
LTYPE
  2
PHANTOM2
 70
     0
  3
___ _ _ ___ _ _ ___ _ _ ___ _ _
 72
    65
 73
     6
 40
1.25
 49
0.625
 49
-0.125
 49
0.125
 49
-0.125
 49
0.125
 49
-0.125
  0
ENDTAB
  0
TABLE
  2
LAYER
 70
     4
  0
LAYER
  2
0
 70
     0
 62
     7
  6
CONTINUOUS
  0
LAYER
  2
1
 70
     0
 62
     1
  6
CENTER
  0
LAYER
  2
2
 70
     0
 62
     2
  6
HIDDEN
  0
LAYER
  2
3
 70
     0
 62
     3
  6
CONTINUOUS
  0
ENDTAB
  0
TABLE
  2
STYLE
 70
     2
  0
STYLE
  2
STANDARD
 70
     0
 40
0.0
 41
1.0
 50
0.0
 71
     0
 42
1.6000000000000001
  3
TXT
  4
BIGFONT
  0
STYLE
  2
STANDARD1
 70
     0
 40
0.0
 41
1.0
 50
0.0
 71
     0
 42
3.0
  3
txt
  4

  0
ENDTAB
  0
TABLE
  2
VIEW
 70
     1
  0
VIEW
  2
ALL
 70
     0
 40
135.0
 10
110.49579799999999
 20
67.5
 41
0.0
 11
0.0
 21
0.0
 31
1.0
 12
0.0
 22
0.0
 32
0.0
 42
0.0
 43
0.0
 44
0.0
 50
0.0
 71
     0
  0
ENDTAB
  0
TABLE
  2
UCS
 70
     0
  0
ENDTAB
  0
TABLE
  2
APPID
 70
     3
  0
APPID
  2
ACAD
 70
     0
  0
APPID
  2
ACAD_MLEADERVER
 70
     0
  0
APPID
  2
ACAD_NAV_VCDISPLAY
 70
     0
  0
ENDTAB
  0
TABLE
  2
DIMSTYLE
 70
     1
  0
DIMSTYLE
  2
STANDARD
 70
     0
  3

  4

  5

  6

  7

 40
1.0
 41
0.18
 42
0.0625
 43
0.38
 44
0.18
 45
0.0
 46
0.0
 47
0.0
 48
0.0
140
0.18
141
0.09
142
0.0
143
25.399999999999999
144
1.0
145
0.0
146
1.0
147
0.09
 71
     0
 72
     0
 73
     1
 74
     1
 75
     0
 76
     0
 77
     0
 78
     0
170
     0
171
     2
172
     0
173
     0
174
     0
175
     0
176
     0
177
     0
178
     0
  0
ENDTAB
  0
ENDSEC
  0
SECTION
  2
BLOCKS
  0
BLOCK
  8
0
  2
$MODEL_SPACE
 70
     0
 10
0.0
 20
0.0
 30
0.0
  3
$MODEL_SPACE
  1

  0
ENDBLK
  5
1DA
  8
0
  0
BLOCK
 67
     1
  8
0
  2
$PAPER_SPACE
 70
     0
 10
0.0
 20
0.0
 30
0.0
  3
$PAPER_SPACE
  1

  0
ENDBLK
  5
1D8
 67
     1
  8
0
  0
ENDSEC
  0
SECTION
  2
ENTITIES
  0
LINE
  5
38
  8
0
 10
135.84258008014689
 20
69.406059999999997
 30
0.0
 11
135.84258008014689
 21
59.006059999999991
 31
0.0
  0
LINE
  5
39
  8
1
 10
123.3425800801469
 20
64.206059999999994
 30
0.0
 11
138.34258008014689
 21
64.206059999999994
 31
0.0
  0
LINE
  5
3C
  8
0
 10
127.2705800801469
 20
70.206059999999994
 30
0.0
 11
135.04258008014691
 21
70.206059999999994
 31
0.0
  0
LINE
  5
3D
  8
0
 10
135.84258008014689
 20
69.406059999999997
 30
0.0
 11
135.04258008014691
 21
70.206059999999994
 31
0.0
  0
LINE
  5
3E
  8
0
 10
125.8425800801469
 20
65.730059999999995
 30
0.0
 11
127.3665800801469
 21
64.206059999999994
 31
0.0
  0
LINE
  5
3F
  8
0
 10
127.3665800801469
 20
67.254059999999996
 30
0.0
 11
125.8425800801469
 21
65.730059999999995
 31
0.0
  0
LINE
  5
40
  8
0
 10
125.8425800801469
 20
68.778059999999996
 30
0.0
 11
127.3665800801469
 21
67.254059999999996
 31
0.0
  0
LINE
  5
41
  8
0
 10
127.2705800801469
 20
70.206059999999994
 30
0.0
 11
125.8425800801469
 21
68.778059999999996
 31
0.0
  0
LINE
  5
42
  8
0
 10
127.2705800801469
 20
58.206060000000001
 30
0.0
 11
125.8425800801469
 21
59.634059999999991
 31
0.0
  0
LINE
  5
43
  8
0
 10
125.8425800801469
 20
59.634059999999991
 30
0.0
 11
127.3665800801469
 21
61.158059999999999
 31
0.0
  0
LINE
  5
44
  8
0
 10
127.3665800801469
 20
61.158059999999999
 30
0.0
 11
125.8425800801469
 21
62.68206
 31
0.0
  0
LINE
  5
45
  8
0
 10
125.8425800801469
 20
62.68206
 30
0.0
 11
127.3665800801469
 21
64.206059999999994
 31
0.0
  0
LINE
  5
46
  8
0
 10
127.2705800801469
 20
58.206060000000001
 30
0.0
 11
135.04258008014691
 21
58.206060000000001
 31
0.0
  0
LINE
  5
47
  8
0
 10
135.84258008014689
 20
59.006059999999991
 30
0.0
 11
135.04258008014691
 21
58.206060000000001
 31
0.0
  0
LINE
  5
48
  8
0
 10
135.04258008014691
 20
70.206059999999994
 30
0.0
 11
135.04258008014691
 21
58.206060000000001
 31
0.0
  0
LINE
  5
4F
  8
3
 10
99.137815412898462
 20
67.254059999999996
 30
0.0
 11
96.559981089783918
 21
67.254059999999996
 31
0.0
  0
LINE
  5
50
  8
3
 10
99.969673000000014
 20
64.206059999999994
 30
0.0
 11
97.969673
 21
64.206059999999994
 31
0.0
  0
LINE
  5
51
  8
3
 10
99.137815412898462
 20
61.158059999999992
 30
0.0
 11
96.559981089783918
 21
61.158059999999999
 31
0.0
  0
LINE
  5
52
  8
3
 10
90.921673000000013
 20
69.37420241289847
 30
0.0
 11
90.921672999999984
 21
66.796368089783911
 31
0.0
  0
LINE
  5
53
  8
3
 10
93.969673
 20
70.206059999999994
 30
0.0
 11
93.969673
 21
68.206059999999994
 31
0.0
  0
LINE
  5
54
  8
3
 10
97.017673000000002
 20
69.374202412898455
 30
0.0
 11
97.017673000000002
 21
66.796368089783911
 31
0.0
  0
LINE
  5
55
  8
3
 10
96.40514569216495
 20
69.689532692164946
 30
0.0
 11
94.828407563479516
 21
68.112794563479525
 31
0.0
  0
LINE
  5
56
  8
3
 10
98.212313493509726
 20
68.448700880728836
 30
0.0
 11
96.798099775331664
 21
67.034487474160656
 31
0.0
  0
LINE
  5
57
  8
3
 10
99.453145692164952
 20
66.641532692164944
 30
0.0
 11
97.876407563479546
 21
65.064794563479524
 31
0.0
  0
LINE
  5
58
  8
3
 10
93.873672999999997
 20
70.206059999999994
 30
0.0
 11
87.969673
 21
64.302059999999997
 31
0.0
  0
LINE
  5
59
  8
3
 10
99.969673000000014
 20
64.110060000000004
 30
0.0
 11
94.065673000000004
 21
58.206060000000001
 31
0.0
  0
LINE
  5
5A
  8
3
 10
94.065673000000004
 20
70.206059999999994
 30
0.0
 11
99.969673000000014
 21
64.302059999999997
 31
0.0
  0
LINE
  5
5B
  8
3
 10
91.534200307835064
 20
69.68953269216496
 30
0.0
 11
93.11093843652047
 21
68.112794563479525
 31
0.0
  0
LINE
  5
5C
  8
3
 10
89.727032312880695
 20
68.448700687119285
 30
0.0
 11
91.141245875253816
 21
67.034487124746164
 31
0.0
  0
LINE
  5
5D
  8
3
 10
88.486200307835048
 20
66.641532692164972
 30
0.0
 11
90.062938436520469
 21
65.064794563479524
 31
0.0
  0
LINE
  5
5E
  8
3
 10
87.969673
 20
64.110060000000004
 30
0.0
 11
93.873672999999997
 21
58.206060000000001
 31
0.0
  0
LINE
  5
5F
  8
3
 10
93.969673
 20
60.206059999999987
 30
0.0
 11
93.969673
 21
58.206060000000001
 31
0.0
  0
LINE
  5
60
  8
3
 10
96.798099775331664
 20
61.377632525839317
 30
0.0
 11
98.212313493509726
 21
59.963419119271158
 31
0.0
  0
LINE
  5
61
  8
3
 10
89.969672999999986
 20
64.206059999999994
 30
0.0
 11
87.969673
 21
64.206059999999994
 31
0.0
  0
LINE
  5
62
  8
3
 10
91.141245875253787
 20
61.377632875253802
 30
0.0
 11
89.727032312880695
 21
59.96341931288071
 31
0.0
  0
CIRCLE
  5
C0
  8
0
 10
93.969673
 20
64.206059999999994
 30
0.0
 40
6.0
  0
CIRCLE
  5
C1
  8
0
 10
93.969673
 20
64.206059999999994
 30
0.0
 40
4.0
  0
CIRCLE
  5
C2
  8
0
 10
93.969673
 20
64.206059999999994
 30
0.0
 40
2.25
  0
LINE
  5
C3
  8
3
 10
90.062938436520469
 20
63.34732543652045
 30
0.0
 11
88.486200307835048
 21
61.770587307835029
 31
0.0
  0
LINE
  5
C4
  8
3
 10
94.828407563479544
 20
60.299325436520462
 30
0.0
 11
96.405145692164965
 21
58.722587307835042
 31
0.0
  0
LINE
  5
C6
  8
3
 10
90.921672999999984
 20
61.615751910216083
 30
0.0
 11
90.921672999999984
 21
59.037917587101518
 31
0.0
  0
LINE
  5
C7
  8
3
 10
91.379364910216083
 20
67.254059999999996
 30
0.0
 11
88.801530587101539
 21
67.254059999999996
 31
0.0
  0
LINE
  5
C8
  8
3
 10
97.876407563479546
 20
63.347325436520443
 30
0.0
 11
99.453145692164952
 21
61.770587307835029
 31
0.0
  0
LINE
  5
C9
  8
3
 10
93.110938436520456
 20
60.299325436520462
 30
0.0
 11
91.534200307835036
 21
58.722587307835042
 31
0.0
  0
LINE
  5
CA
  8
3
 10
97.017673000000002
 20
61.615751910216083
 30
0.0
 11
97.017673000000002
 21
59.037917587101518
 31
0.0
  0
LINE
  5
CB
  8
3
 10
91.379364910216083
 20
61.158059999999999
 30
0.0
 11
88.801530587101524
 21
61.158059999999999
 31
0.0
  0
LINE
  5
CF
  8
1
 10
102.469673
 20
64.206059999999994
 30
0.0
 11
85.469673
 21
64.206059999999994
 31
0.0
  0
LINE
  5
D0
  8
1
 10
93.969673
 20
72.706059999999994
 30
0.0
 11
93.969673
 21
55.706059999999987
 31
0.0
  0
LINE
  5
D1
  8
2
 10
126.41458008014691
 20
68.206059999999994
 30
0.0
 11
131.34258008014689
 21
68.206060000000008
 31
0.0
  0
LINE
  5
D2
  8
2
 10
126.41458008014691
 20
60.206059999999987
 30
0.0
 11
131.34258008014689
 21
60.206060000000001
 31
0.0
  0
LINE
  5
D3
  8
2
 10
131.34258008014689
 20
66.456059999999994
 30
0.0
 11
135.84258008014689
 21
66.456059999999994
 31
0.0
  0
LINE
  5
D4
  8
2
 10
131.34258008014689
 20
61.956060000000001
 30
0.0
 11
135.84258008014689
 21
61.956059999999987
 31
0.0
  0
LINE
  5
D5
  8
2
 10
131.34258008014689
 20
68.206059999999994
 30
0.0
 11
131.34258008014689
 21
60.206060000000001
 31
0.0
  0
LINE
  5
D6
  8
2
 10
89.969672999999972
 20
96.081663675737957
 30
0.0
 11
97.969672999999958
 21
96.081663675737957
 31
0.0
  0
LINE
  5
D7
  8
0
 10
87.969672999999986
 20
99.781663675737974
 30
0.0
 11
99.969672999999972
 21
99.781663675737974
 31
0.0
  0
LINE
  5
D8
  8
0
 10
89.397672999999969
 20
90.581663675737957
 30
0.0
 11
90.921672999999984
 21
92.105663675737944
 31
0.0
  0
LINE
  5
D9
  8
0
 10
88.769672999999983
 20
100.5816636757379
 30
0.0
 11
99.169672999999989
 21
100.5816636757379
 31
0.0
  0
LINE
  5
DA
  8
2
 10
96.219672999999958
 20
96.081663675737957
 30
0.0
 11
96.219673000000014
 21
100.5816636757379
 31
0.0
  0
LINE
  5
DB
  8
2
 10
91.719672999999958
 20
96.081663675737957
 30
0.0
 11
91.719673
 21
100.5816636757379
 31
0.0
  0
LINE
  5
DC
  8
0
 10
99.969672999999972
 20
92.009663675737954
 30
0.0
 11
99.969672999999972
 21
99.781663675737974
 31
0.0
  0
LINE
  5
DD
  8
1
 10
93.969673
 20
88.081663675737957
 30
0.0
 11
93.969673
 21
103.0816636757379
 31
0.0
  0
LINE
  5
DE
  8
2
 10
97.969673
 20
91.153663675737974
 30
0.0
 11
97.969672999999958
 21
96.081663675737957
 31
0.0
  0
LINE
  5
DF
  8
0
 10
95.493672999999987
 20
90.581663675737957
 30
0.0
 11
93.969673
 21
92.105663675737944
 31
0.0
  0
LINE
  5
E0
  8
0
 10
97.017672999999974
 20
92.105663675737944
 30
0.0
 11
95.493672999999987
 21
90.581663675737957
 31
0.0
  0
LINE
  5
E1
  8
0
 10
98.541672999999975
 20
90.581663675737957
 30
0.0
 11
97.017672999999974
 21
92.105663675737944
 31
0.0
  0
LINE
  5
E2
  8
0
 10
99.969672999999972
 20
92.009663675737954
 30
0.0
 11
98.541672999999975
 21
90.581663675737957
 31
0.0
  0
LINE
  5
E3
  8
0
 10
90.921672999999984
 20
92.105663675737944
 30
0.0
 11
92.445672999999985
 21
90.581663675737957
 31
0.0
  0
LINE
  5
E4
  8
0
 10
92.445672999999985
 20
90.581663675737957
 30
0.0
 11
93.969673
 21
92.105663675737944
 31
0.0
  0
LINE
  5
E5
  8
0
 10
99.169672999999989
 20
100.5816636757379
 30
0.0
 11
99.969672999999972
 21
99.781663675737974
 31
0.0
  0
LINE
  5
E6
  8
0
 10
87.969672999999986
 20
92.009663675737954
 30
0.0
 11
87.969672999999986
 21
99.781663675737974
 31
0.0
  0
LINE
  5
E7
  8
2
 10
89.969672999999986
 20
91.153663675737974
 30
0.0
 11
89.969672999999958
 21
96.081663675737957
 31
0.0
  0
LINE
  5
E8
  8
0
 10
87.969672999999986
 20
92.009663675737954
 30
0.0
 11
89.397672999999969
 21
90.581663675737957
 31
0.0
  0
LINE
  5
E9
  8
0
 10
88.769672999999983
 20
100.5816636757379
 30
0.0
 11
87.969672999999986
 21
99.781663675737974
 31
0.0
  0
LINE
  5
11D
  8
2
 10
56.596765919853077
 20
68.206059999999994
 30
0.0
 11
56.596765919853077
 21
60.206060000000001
 31
0.0
  0
LINE
  5
11E
  8
0
 10
52.896765919853067
 20
70.206059999999994
 30
0.0
 11
52.896765919853067
 21
58.206060000000001
 31
0.0
  0
LINE
  5
11F
  8
0
 10
52.096765919853077
 20
69.406059999999997
 30
0.0
 11
52.096765919853077
 21
59.006059999999991
 31
0.0
  0
LINE
  5
120
  8
0
 10
62.096765919853077
 20
68.778059999999996
 30
0.0
 11
60.572765919853083
 21
67.254059999999996
 31
0.0
  0
LINE
  5
121
  8
1
 10
64.596765919853084
 20
64.206059999999994
 30
0.0
 11
49.596765919853077
 21
64.206059999999994
 31
0.0
  0
LINE
  5
122
  8
2
 10
61.524765919853081
 20
60.206059999999987
 30
0.0
 11
56.596765919853077
 21
60.206060000000001
 31
0.0
  0
LINE
  5
123
  8
0
 10
60.668765919853087
 20
58.206060000000001
 30
0.0
 11
52.896765919853067
 21
58.206060000000001
 31
0.0
  0
LINE
  5
124
  8
0
 10
60.572765919853083
 20
61.158059999999999
 30
0.0
 11
62.096765919853077
 21
62.68206
 31
0.0
  0
LINE
  5
125
  8
0
 10
62.096765919853077
 20
59.634059999999991
 30
0.0
 11
60.572765919853083
 21
61.158059999999999
 31
0.0
  0
LINE
  5
126
  8
0
 10
60.668765919853087
 20
58.206060000000001
 30
0.0
 11
62.096765919853077
 21
59.634059999999991
 31
0.0
  0
LINE
  5
127
  8
0
 10
62.096765919853077
 20
62.68206
 30
0.0
 11
60.572765919853083
 21
64.206059999999994
 31
0.0
  0
LINE
  5
128
  8
0
 10
60.572765919853083
 20
67.254059999999996
 30
0.0
 11
62.096765919853077
 21
65.730059999999995
 31
0.0
  0
LINE
  5
129
  8
0
 10
62.096765919853077
 20
65.730059999999995
 30
0.0
 11
60.572765919853083
 21
64.206059999999994
 31
0.0
  0
LINE
  5
12A
  8
2
 10
56.596765919853077
 20
61.956060000000001
 30
0.0
 11
52.096765919853077
 21
61.956059999999987
 31
0.0
  0
LINE
  5
12B
  8
0
 10
52.096765919853077
 20
59.006059999999991
 30
0.0
 11
52.896765919853067
 21
58.206060000000001
 31
0.0
  0
LINE
  5
12C
  8
2
 10
56.596765919853077
 20
66.456059999999994
 30
0.0
 11
52.096765919853077
 21
66.456059999999994
 31
0.0
  0
LINE
  5
12D
  8
2
 10
61.524765919853081
 20
68.206059999999994
 30
0.0
 11
56.596765919853077
 21
68.206060000000008
 31
0.0
  0
LINE
  5
12E
  8
0
 10
60.668765919853087
 20
70.206059999999994
 30
0.0
 11
52.896765919853067
 21
70.206059999999994
 31
0.0
  0
LINE
  5
12F
  8
0
 10
60.668765919853087
 20
70.206059999999994
 30
0.0
 11
62.096765919853077
 21
68.778059999999996
 31
0.0
  0
LINE
  5
130
  8
0
 10
52.096765919853077
 20
69.406059999999997
 30
0.0
 11
52.896765919853067
 21
70.206059999999994
 31
0.0
  0
LINE
  5
131
  8
0
 10
92.445672999999985
 20
37.83045632426203
 30
0.0
 11
93.969673
 21
36.30645632426203
 31
0.0
  0
LINE
  5
132
  8
0
 10
88.769672999999983
 20
27.83045632426203
 30
0.0
 11
99.169672999999989
 21
27.83045632426203
 31
0.0
  0
LINE
  5
133
  8
0
 10
87.969672999999986
 20
28.63045632426202
 30
0.0
 11
99.969672999999972
 21
28.63045632426202
 31
0.0
  0
LINE
  5
134
  8
2
 10
89.969672999999972
 20
32.33045632426203
 30
0.0
 11
97.969672999999958
 21
32.33045632426203
 31
0.0
  0
LINE
  5
135
  8
0
 10
87.969672999999986
 20
36.40245632426204
 30
0.0
 11
87.969672999999986
 21
28.63045632426202
 31
0.0
  0
LINE
  5
136
  8
2
 10
91.719672999999958
 20
32.33045632426203
 30
0.0
 11
91.719673
 21
27.83045632426203
 31
0.0
  0
LINE
  5
137
  8
2
 10
89.969672999999986
 20
37.258456324262028
 30
0.0
 11
89.969672999999958
 21
32.33045632426203
 31
0.0
  0
LINE
  5
138
  8
0
 10
89.397672999999969
 20
37.83045632426203
 30
0.0
 11
90.921672999999984
 21
36.30645632426203
 31
0.0
  0
LINE
  5
139
  8
0
 10
87.969672999999986
 20
36.40245632426204
 30
0.0
 11
89.397672999999969
 21
37.83045632426203
 31
0.0
  0
LINE
  5
13A
  8
0
 10
90.921672999999984
 20
36.30645632426203
 30
0.0
 11
92.445672999999985
 21
37.83045632426203
 31
0.0
  0
LINE
  5
13B
  8
0
 10
88.769672999999983
 20
27.83045632426203
 30
0.0
 11
87.969672999999986
 21
28.63045632426202
 31
0.0
  0
LINE
  5
13C
  8
1
 10
93.969673
 20
40.33045632426203
 30
0.0
 11
93.969673
 21
25.33045632426203
 31
0.0
  0
LINE
  5
13D
  8
0
 10
99.969672999999972
 20
36.40245632426204
 30
0.0
 11
99.969672999999972
 21
28.63045632426202
 31
0.0
  0
LINE
  5
13E
  8
2
 10
96.219672999999958
 20
32.33045632426203
 30
0.0
 11
96.219673000000014
 21
27.83045632426203
 31
0.0
  0
LINE
  5
13F
  8
2
 10
97.969673
 20
37.258456324262028
 30
0.0
 11
97.969672999999958
 21
32.33045632426203
 31
0.0
  0
LINE
  5
140
  8
0
 10
98.541672999999975
 20
37.83045632426203
 30
0.0
 11
97.017672999999974
 21
36.30645632426203
 31
0.0
  0
LINE
  5
141
  8
0
 10
97.017672999999974
 20
36.30645632426203
 30
0.0
 11
95.493672999999987
 21
37.83045632426203
 31
0.0
  0
LINE
  5
142
  8
0
 10
95.493672999999987
 20
37.83045632426203
 30
0.0
 11
93.969673
 21
36.30645632426203
 31
0.0
  0
LINE
  5
143
  8
0
 10
99.969672999999972
 20
36.40245632426204
 30
0.0
 11
98.541672999999975
 21
37.83045632426203
 31
0.0
  0
LINE
  5
144
  8
0
 10
99.169672999999989
 20
27.83045632426203
 30
0.0
 11
99.969672999999972
 21
28.63045632426202
 31
0.0
  0
TEXT
  5
28F
  8
0
 62
     3
 10
0.0
 20
0.0
 30
0.0
 40
5.0
  1
HS-120-C
  7
STANDARD1
  0
ENDSEC
  0
EOF
