  0
SECTION
  2
HEADER
  9
$ACADVER
  1
AC1009
  9
$INSBASE
 10
0.0
 20
0.0
 30
0.0
  9
$EXTMIN
 10
0.0
 20
-1.4802182810368341
 30
0.0
  9
$EXTMAX
 10
149.58958200000001
 20
107.86476
 30
0.0
  9
$LIMMIN
 10
0.0
 20
0.0
  9
$LIMMAX
 10
187.5
 20
135.0
  9
$ORTHOMODE
 70
     1
  9
$REGENMODE
 70
     1
  9
$FILLMODE
 70
     1
  9
$QTEXTMODE
 70
     0
  9
$MIRRTEXT
 70
     0
  9
$DRAGMODE
 70
     2
  9
$LTSCALE
 40
5.0
  9
$OSMODE
 70
    55
  9
$ATTMODE
 70
     1
  9
$TEXTSIZE
 40
1.6000000000000001
  9
$TRACEWID
 40
0.05
  9
$TEXTSTYLE
  7
STANDARD
  9
$CLAYER
  8
0
  9
$CELTYPE
  6
BYLAYER
  9
$CECOLOR
 62
   256
  9
$DIMSCALE
 40
0.5
  9
$DIMASZ
 40
3.0
  9
$DIMEXO
 40
2.0
  9
$DIMDLI
 40
10.0
  9
$DIMRND
 40
0.0
  9
$DIMDLE
 40
0.0
  9
$DIMEXE
 40
2.0
  9
$DIMTP
 40
0.0
  9
$DIMTM
 40
0.0
  9
$DIMTXT
 40
3.2000000000000002
  9
$DIMCEN
 40
0.09
  9
$DIMTSZ
 40
0.0
  9
$DIMTOL
 70
     0
  9
$DIMLIM
 70
     0
  9
$DIMTIH
 70
     0
  9
$DIMTOH
 70
     0
  9
$DIMSE1
 70
     0
  9
$DIMSE2
 70
     0
  9
$DIMTAD
 70
     1
  9
$DIMZIN
 70
     0
  9
$DIMBLK
  1

  9
$DIMASO
 70
     0
  9
$DIMSHO
 70
     0
  9
$DIMPOST
  1

  9
$DIMAPOST
  1

  9
$DIMALT
 70
     0
  9
$DIMALTD
 70
     2
  9
$DIMALTF
 40
25.399999999999999
  9
$DIMLFAC
 40
1.0
  9
$DIMTOFL
 70
     1
  9
$DIMTVP
 40
1.6000000000000001
  9
$DIMTIX
 70
     1
  9
$DIMSOXD
 70
     0
  9
$DIMSAH
 70
     0
  9
$DIMBLK1
  1

  9
$DIMBLK2
  1

  9
$DIMSTYLE
  2
STANDARD
  9
$DIMCLRD
 70
     0
  9
$DIMCLRE
 70
     0
  9
$DIMCLRT
 70
     0
  9
$DIMTFAC
 40
1.0
  9
$DIMGAP
 40
0.09
  9
$LUNITS
 70
     2
  9
$LUPREC
 70
     4
  9
$SKETCHINC
 40
0.1
  9
$FILLETRAD
 40
0.0
  9
$AUNITS
 70
     0
  9
$AUPREC
 70
     0
  9
$MENU
  1
E:\r13\win\SUPPORT\ACAD
  9
$ELEVATION
 40
0.0
  9
$PELEVATION
 40
0.0
  9
$THICKNESS
 40
0.0
  9
$LIMCHECK
 70
     0
  9
$BLIPMODE
 70
     0
  9
$CHAMFERA
 40
0.0
  9
$CHAMFERB
 40
0.0
  9
$SKPOLY
 70
     0
  9
$TDCREATE
 40
2449840.594479166
  9
$TDUPDATE
 40
2456598.6921208338
  9
$TDINDWG
 40
0.0038694329
  9
$TDUSRTIMER
 40
0.0038694329
  9
$USRTIMER
 70
     1
  9
$ANGBASE
 50
0.0
  9
$ANGDIR
 70
     0
  9
$PDMODE
 70
     0
  9
$PDSIZE
 40
0.0
  9
$PLINEWID
 40
0.0
  9
$COORDS
 70
     1
  9
$SPLFRAME
 70
     0
  9
$SPLINETYPE
 70
     6
  9
$SPLINESEGS
 70
     8
  9
$ATTDIA
 70
     0
  9
$ATTREQ
 70
     1
  9
$HANDLING
 70
     1
  9
$HANDSEED
  5
329
  9
$SURFTAB1
 70
     6
  9
$SURFTAB2
 70
     6
  9
$SURFTYPE
 70
     6
  9
$SURFU
 70
     6
  9
$SURFV
 70
     6
  9
$UCSNAME
  2

  9
$UCSORG
 10
0.0
 20
0.0
 30
0.0
  9
$UCSXDIR
 10
1.0
 20
0.0
 30
0.0
  9
$UCSYDIR
 10
0.0
 20
1.0
 30
0.0
  9
$PUCSNAME
  2

  9
$PUCSORG
 10
0.0
 20
0.0
 30
0.0
  9
$PUCSXDIR
 10
1.0
 20
0.0
 30
0.0
  9
$PUCSYDIR
 10
0.0
 20
1.0
 30
0.0
  9
$USERI1
 70
     0
  9
$USERI2
 70
     1
  9
$USERI3
 70
     0
  9
$USERI4
 70
     0
  9
$USERI5
 70
     0
  9
$USERR1
 40
0.0
  9
$USERR2
 40
0.0
  9
$USERR3
 40
0.0
  9
$USERR4
 40
0.0
  9
$USERR5
 40
0.0
  9
$WORLDVIEW
 70
     1
  9
$SHADEDGE
 70
     3
  9
$SHADEDIF
 70
    70
  9
$TILEMODE
 70
     1
  9
$MAXACTVP
 70
    16
  9
$PLIMCHECK
 70
     0
  9
$PEXTMIN
 10
1.0000000000000000E+020
 20
1.0000000000000000E+020
 30
1.0000000000000000E+020
  9
$PEXTMAX
 10
-1.0000000000000000E+020
 20
-1.0000000000000000E+020
 30
-1.0000000000000000E+020
  9
$PLIMMIN
 10
0.0
 20
0.0
  9
$PLIMMAX
 10
12.0
 20
9.0
  9
$UNITMODE
 70
     0
  9
$VISRETAIN
 70
     0
  9
$PLINEGEN
 70
     0
  9
$PSLTSCALE
 70
     0
  0
ENDSEC
  0
SECTION
  2
TABLES
  0
TABLE
  2
VPORT
 70
     1
  0
VPORT
  2
*ACTIVE
 70
     0
 10
0.0
 20
0.0
 11
1.0
 21
1.0
 12
93.74713919532617
 22
87.458386271734256
 13
0.0
 23
0.0
 14
5.0
 24
5.0
 15
5.0
 25
5.0
 16
0.0
 26
0.0
 36
1.0
 17
0.0
 27
0.0
 37
0.0
 40
179.46013949787169
 41
1.7807262569832401
 42
50.0
 43
0.0
 44
0.0
 50
0.0
 51
0.0
 71
     0
 72
   100
 73
     1
 74
     0
 75
     0
 76
     0
 77
     0
 78
     0
  0
ENDTAB
  0
TABLE
  2
LTYPE
 70
     4
  0
LTYPE
  2
CONTINUOUS
 70
     0
  3
Solid Line
 72
    65
 73
     0
 40
0.0
  0
LTYPE
  2
CENTER
 70
     0
  3
____ _ ____ _ ____ _ ____ _ ____ _ ____ _ ____
 72
    65
 73
     4
 40
2.0
 49
1.25
 49
-0.25
 49
0.25
 49
-0.25
  0
LTYPE
  2
HIDDEN
 70
     0
  3
_ _ _ _ _ _ _ _ _ _ _ _ _ _ _ _ _ _ _ _ _ _ _
 72
    65
 73
     2
 40
0.375
 49
0.25
 49
-0.125
  0
LTYPE
  2
PHANTOM2
 70
     0
  3
___ _ _ ___ _ _ ___ _ _ ___ _ _
 72
    65
 73
     6
 40
1.25
 49
0.625
 49
-0.125
 49
0.125
 49
-0.125
 49
0.125
 49
-0.125
  0
ENDTAB
  0
TABLE
  2
LAYER
 70
     4
  0
LAYER
  2
0
 70
     0
 62
     7
  6
CONTINUOUS
  0
LAYER
  2
1
 70
     0
 62
     1
  6
CENTER
  0
LAYER
  2
2
 70
     0
 62
     2
  6
HIDDEN
  0
LAYER
  2
3
 70
     0
 62
     3
  6
CONTINUOUS
  0
ENDTAB
  0
TABLE
  2
STYLE
 70
     2
  0
STYLE
  2
STANDARD
 70
     0
 40
0.0
 41
1.0
 50
0.0
 71
     0
 42
1.6000000000000001
  3
SIMPLEX
  4
BIGFONT
  0
STYLE
  2
STANDARD1
 70
     0
 40
0.0
 41
1.0
 50
0.0
 71
     0
 42
3.0
  3
txt
  4

  0
ENDTAB
  0
TABLE
  2
VIEW
 70
     1
  0
VIEW
  2
ALL
 70
     0
 40
135.0
 10
110.49579799999999
 20
67.5
 41
0.0
 11
0.0
 21
0.0
 31
1.0
 12
0.0
 22
0.0
 32
0.0
 42
0.0
 43
0.0
 44
0.0
 50
0.0
 71
     0
  0
ENDTAB
  0
TABLE
  2
UCS
 70
     0
  0
ENDTAB
  0
TABLE
  2
APPID
 70
     3
  0
APPID
  2
ACAD
 70
     0
  0
APPID
  2
ACAD_MLEADERVER
 70
     0
  0
APPID
  2
ACAD_NAV_VCDISPLAY
 70
     0
  0
ENDTAB
  0
TABLE
  2
DIMSTYLE
 70
     1
  0
DIMSTYLE
  2
STANDARD
 70
     0
  3

  4

  5

  6

  7

 40
1.0
 41
0.18
 42
0.0625
 43
0.38
 44
0.18
 45
0.0
 46
0.0
 47
0.0
 48
0.0
140
0.18
141
0.09
142
0.0
143
25.399999999999999
144
1.0
145
0.0
146
1.0
147
0.09
 71
     0
 72
     0
 73
     1
 74
     1
 75
     0
 76
     0
 77
     0
 78
     0
170
     0
171
     2
172
     0
173
     0
174
     0
175
     0
176
     0
177
     0
178
     0
  0
ENDTAB
  0
ENDSEC
  0
SECTION
  2
BLOCKS
  0
BLOCK
  8
0
  2
$MODEL_SPACE
 70
     0
 10
0.0
 20
0.0
 30
0.0
  3
$MODEL_SPACE
  1

  0
ENDBLK
  5
1E2
  8
0
  0
BLOCK
 67
     1
  8
0
  2
$PAPER_SPACE
 70
     0
 10
0.0
 20
0.0
 30
0.0
  3
$PAPER_SPACE
  1

  0
ENDBLK
  5
1E0
 67
     1
  8
0
  0
BLOCK
  8
0
  2
STDGX5
 70
     0
 10
0.0
 20
0.0
 30
0.0
  3
STDGX5
  1

  0
ENDBLK
  5
41
  8
0
  0
ENDSEC
  0
SECTION
  2
ENTITIES
  0
LINE
  5
74
  8
2
 10
93.131082000000006
 20
24.935240000000011
 30
0.0
 11
92.331081999999995
 21
24.13524
 31
0.0
  0
LINE
  5
75
  8
2
 10
98.848082000000005
 20
24.13524
 30
0.0
 11
98.048081999999994
 21
24.935240000000011
 31
0.0
  0
LINE
  5
76
  8
2
 10
92.589581999999993
 20
24.393740000000001
 30
0.0
 11
92.589581999999993
 21
36.087240000000001
 31
0.0
  0
LINE
  5
77
  8
2
 10
93.131082000000006
 20
24.935240000000011
 30
0.0
 11
93.131082000000006
 21
35.545740000000009
 31
0.0
  0
LINE
  5
78
  8
2
 10
98.048081999999994
 20
24.935240000000011
 30
0.0
 11
98.048081999999994
 21
35.545740000000009
 31
0.0
  0
LINE
  5
79
  8
2
 10
98.589581999999993
 20
24.393740000000001
 30
0.0
 11
98.589581999999993
 21
36.087240000000001
 31
0.0
  0
LINE
  5
7A
  8
1
 10
95.589581999999993
 20
38.635240000000003
 30
0.0
 11
95.589581999999993
 21
21.63524
 31
0.0
  0
LINE
  5
7B
  8
0
 10
91.01758199999999
 20
34.611240000000002
 30
0.0
 11
92.541581999999991
 21
36.135240000000003
 31
0.0
  0
LINE
  5
7C
  8
0
 10
89.493581999999975
 20
36.135240000000003
 30
0.0
 11
91.01758199999999
 21
34.611240000000002
 31
0.0
  0
LINE
  5
7D
  8
0
 10
87.589581999999993
 20
34.991240000000012
 30
0.0
 11
87.969581999999974
 21
34.611240000000002
 31
0.0
  0
LINE
  5
7E
  8
0
 10
87.969581999999974
 20
34.611240000000002
 30
0.0
 11
89.493581999999975
 21
36.135240000000003
 31
0.0
  0
LINE
  5
7F
  8
0
 10
103.209582
 20
34.611240000000002
 30
0.0
 11
101.685582
 21
36.135240000000003
 31
0.0
  0
LINE
  5
80
  8
0
 10
103.58958199999999
 20
34.991240000000012
 30
0.0
 11
103.209582
 21
34.611240000000002
 31
0.0
  0
LINE
  5
81
  8
0
 10
103.58958199999999
 20
24.935240000000011
 30
0.0
 11
87.589581999999993
 21
24.935240000000011
 31
0.0
  0
LINE
  5
82
  8
0
 10
88.389581999999976
 20
24.13524
 30
0.0
 11
87.589581999999993
 21
24.935240000000011
 31
0.0
  0
LINE
  5
83
  8
0
 10
87.589581999999993
 20
34.991240000000012
 30
0.0
 11
87.589581999999993
 21
24.935240000000011
 31
0.0
  0
LINE
  5
84
  8
0
 10
95.589581999999993
 20
36.135240000000003
 30
0.0
 11
97.113581999999994
 21
34.611240000000002
 31
0.0
  0
LINE
  5
85
  8
0
 10
94.065581999999992
 20
34.611240000000002
 30
0.0
 11
95.589581999999993
 21
36.135240000000003
 31
0.0
  0
LINE
  5
86
  8
0
 10
92.541581999999991
 20
36.135240000000003
 30
0.0
 11
94.065581999999992
 21
34.611240000000002
 31
0.0
  0
LINE
  5
87
  8
0
 10
101.685582
 20
36.135240000000003
 30
0.0
 11
100.161582
 21
34.611240000000002
 31
0.0
  0
LINE
  5
88
  8
0
 10
100.161582
 20
34.611240000000002
 30
0.0
 11
98.637581999999995
 21
36.135240000000003
 31
0.0
  0
LINE
  5
89
  8
0
 10
98.637581999999995
 20
36.135240000000003
 30
0.0
 11
97.113581999999994
 21
34.611240000000002
 31
0.0
  0
LINE
  5
8A
  8
0
 10
102.789582
 20
24.13524
 30
0.0
 11
103.58958199999999
 21
24.935240000000011
 31
0.0
  0
LINE
  5
8B
  8
0
 10
103.58958199999999
 20
34.991240000000012
 30
0.0
 11
103.58958199999999
 21
24.935240000000011
 31
0.0
  0
LINE
  5
8C
  8
0
 10
102.789582
 20
24.13524
 30
0.0
 11
88.389581999999976
 21
24.13524
 31
0.0
  0
LINE
  5
8D
  8
0
 10
102.789582
 20
105.36476
 30
0.0
 11
88.389581999999976
 21
105.36476
 31
0.0
  0
LINE
  5
8E
  8
0
 10
103.58958199999999
 20
94.508759999999995
 30
0.0
 11
103.58958199999999
 21
104.56476000000001
 31
0.0
  0
LINE
  5
8F
  8
0
 10
102.789582
 20
105.36476
 30
0.0
 11
103.58958199999999
 21
104.56476000000001
 31
0.0
  0
LINE
  5
90
  8
0
 10
98.637581999999995
 20
93.364760000000004
 30
0.0
 11
97.113581999999994
 21
94.888759999999991
 31
0.0
  0
LINE
  5
91
  8
0
 10
100.161582
 20
94.888759999999991
 30
0.0
 11
98.637581999999995
 21
93.364760000000004
 31
0.0
  0
LINE
  5
92
  8
0
 10
101.685582
 20
93.364760000000004
 30
0.0
 11
100.161582
 21
94.888759999999991
 31
0.0
  0
LINE
  5
93
  8
0
 10
92.541581999999991
 20
93.364760000000004
 30
0.0
 11
94.065581999999992
 21
94.888759999999991
 31
0.0
  0
LINE
  5
94
  8
0
 10
94.065581999999992
 20
94.888759999999991
 30
0.0
 11
95.589581999999993
 21
93.364760000000004
 31
0.0
  0
LINE
  5
95
  8
0
 10
95.589581999999993
 20
93.364760000000004
 30
0.0
 11
97.113581999999994
 21
94.888759999999991
 31
0.0
  0
LINE
  5
96
  8
0
 10
87.589581999999993
 20
94.508759999999995
 30
0.0
 11
87.589581999999993
 21
104.56476000000001
 31
0.0
  0
LINE
  5
97
  8
0
 10
88.389581999999976
 20
105.36476
 30
0.0
 11
87.589581999999993
 21
104.56476000000001
 31
0.0
  0
LINE
  5
98
  8
0
 10
103.58958199999999
 20
104.56476000000001
 30
0.0
 11
87.589581999999993
 21
104.56476000000001
 31
0.0
  0
LINE
  5
99
  8
0
 10
103.58958199999999
 20
94.508759999999995
 30
0.0
 11
103.209582
 21
94.888759999999991
 31
0.0
  0
LINE
  5
9A
  8
0
 10
103.209582
 20
94.888759999999991
 30
0.0
 11
101.685582
 21
93.364760000000004
 31
0.0
  0
LINE
  5
9B
  8
0
 10
87.969581999999974
 20
94.888759999999991
 30
0.0
 11
89.493581999999975
 21
93.364760000000004
 31
0.0
  0
LINE
  5
9C
  8
0
 10
87.589581999999993
 20
94.508759999999995
 30
0.0
 11
87.969581999999974
 21
94.888759999999991
 31
0.0
  0
LINE
  5
9D
  8
0
 10
89.493581999999975
 20
93.364760000000004
 30
0.0
 11
91.01758199999999
 21
94.888759999999991
 31
0.0
  0
LINE
  5
9E
  8
0
 10
91.01758199999999
 20
94.888759999999991
 30
0.0
 11
92.541581999999991
 21
93.364760000000004
 31
0.0
  0
LINE
  5
9F
  8
1
 10
95.589581999999993
 20
90.864760000000004
 30
0.0
 11
95.589581999999993
 21
107.86476
 31
0.0
  0
LINE
  5
A0
  8
2
 10
98.589581999999993
 20
105.10626000000001
 30
0.0
 11
98.589581999999993
 21
93.412759999999977
 31
0.0
  0
LINE
  5
A1
  8
2
 10
98.048081999999994
 20
104.56476000000001
 30
0.0
 11
98.048081999999994
 21
93.954259999999977
 31
0.0
  0
LINE
  5
A2
  8
2
 10
93.131082000000006
 20
104.56476000000001
 30
0.0
 11
93.131082000000006
 21
93.954259999999977
 31
0.0
  0
LINE
  5
A3
  8
2
 10
92.589581999999993
 20
105.10626000000001
 30
0.0
 11
92.589581999999993
 21
93.412759999999977
 31
0.0
  0
LINE
  5
A4
  8
2
 10
98.848082000000005
 20
105.36476
 30
0.0
 11
98.048081999999994
 21
104.56476000000001
 31
0.0
  0
LINE
  5
A5
  8
2
 10
93.131082000000006
 20
104.56476000000001
 30
0.0
 11
92.331081999999995
 21
105.36476
 31
0.0
  0
LINE
  5
A6
  8
0
 10
99.076701
 20
97.114760000000004
 30
0.0
 11
99.076701
 21
101.61476
 31
0.0
  0
LINE
  5
A7
  8
0
 10
92.102462999999986
 20
97.114760000000004
 30
0.0
 11
92.102462999999986
 21
101.61476
 31
0.0
  0
LINE
  5
A8
  8
0
 10
92.102462999999986
 20
97.114760000000004
 30
0.0
 11
99.076701
 21
97.114760000000004
 31
0.0
  0
LINE
  5
A9
  8
0
 10
92.102462999999986
 20
101.61476
 30
0.0
 11
99.076701
 21
101.61476
 31
0.0
  0
INSERT
  5
D1
  8
0
  2
STDGX5
 10
0.0
 20
0.0
 30
0.0
  0
LINE
  5
D3
  8
0
 10
147.08958200000001
 20
72.200000000000003
 30
0.0
 11
147.08958200000001
 21
57.799999999999997
 31
0.0
  0
LINE
  5
D4
  8
1
 10
141.08958200000001
 20
75.5
 30
0.0
 11
141.08958200000001
 21
69.700000000000003
 31
0.0
  0
LINE
  5
D5
  8
0
 10
136.23358200000001
 20
73.0
 30
0.0
 11
138.71458200000001
 21
73.0
 31
0.0
  0
LINE
  5
D6
  8
0
 10
147.08958200000001
 20
72.200000000000003
 30
0.0
 11
146.289582
 21
73.0
 31
0.0
  0
LINE
  5
D7
  8
0
 10
135.08958200000001
 20
68.048000000000002
 30
0.0
 11
136.61358200000001
 21
66.524000000000001
 31
0.0
  0
LINE
  5
D8
  8
0
 10
136.61358200000001
 20
69.572000000000003
 30
0.0
 11
135.08958200000001
 21
68.048000000000002
 31
0.0
  0
LINE
  5
D9
  8
0
 10
135.08958200000001
 20
71.096000000000004
 30
0.0
 11
136.61358200000001
 21
69.572000000000003
 31
0.0
  0
LINE
  5
DA
  8
0
 10
135.08958200000001
 20
61.951999999999991
 30
0.0
 11
136.61358200000001
 21
63.475999999999999
 31
0.0
  0
LINE
  5
DB
  8
0
 10
136.61358200000001
 20
63.475999999999999
 30
0.0
 11
135.08958200000001
 21
65.0
 31
0.0
  0
LINE
  5
DC
  8
0
 10
135.08958200000001
 20
65.0
 30
0.0
 11
136.61358200000001
 21
66.524000000000001
 31
0.0
  0
LINE
  5
DD
  8
0
 10
136.23358200000001
 20
57.0
 30
0.0
 11
146.289582
 21
57.0
 31
0.0
  0
LINE
  5
DE
  8
0
 10
147.08958200000001
 20
57.799999999999997
 30
0.0
 11
146.289582
 21
57.0
 31
0.0
  0
LINE
  5
DF
  8
0
 10
146.289582
 20
73.0
 30
0.0
 11
146.289582
 21
57.0
 31
0.0
  0
LINE
  5
E0
  8
0
 10
143.46458200000001
 20
73.0
 30
0.0
 11
143.46458200000001
 21
72.200000000000003
 31
0.0
  0
LINE
  5
E1
  8
0
 10
143.46458200000001
 20
72.200000000000003
 30
0.0
 11
138.71458200000001
 21
72.200000000000003
 31
0.0
  0
LINE
  5
E2
  8
0
 10
138.71458200000001
 20
72.200000000000003
 30
0.0
 11
138.71458200000001
 21
73.0
 31
0.0
  0
LINE
  5
E3
  8
0
 10
143.46458200000001
 20
73.0
 30
0.0
 11
146.289582
 21
73.0
 31
0.0
  0
LINE
  5
E4
  8
0
 10
136.23358200000001
 20
73.0
 30
0.0
 11
136.61358200000001
 21
72.620000000000005
 31
0.0
  0
LINE
  5
E5
  8
0
 10
136.61358200000001
 20
72.620000000000005
 30
0.0
 11
135.08958200000001
 21
71.096000000000004
 31
0.0
  0
LINE
  5
E6
  8
0
 10
136.61358200000001
 20
57.380000000000003
 30
0.0
 11
135.08958200000001
 21
58.903999999999989
 31
0.0
  0
LINE
  5
E7
  8
0
 10
136.23358200000001
 20
57.0
 30
0.0
 11
136.61358200000001
 21
57.380000000000003
 31
0.0
  0
LINE
  5
E8
  8
0
 10
135.08958200000001
 20
58.903999999999989
 30
0.0
 11
136.61358200000001
 21
60.427999999999997
 31
0.0
  0
LINE
  5
E9
  8
0
 10
136.61358200000001
 20
60.427999999999997
 30
0.0
 11
135.08958200000001
 21
61.951999999999991
 31
0.0
  0
LINE
  5
EA
  8
1
 10
132.58958200000001
 20
65.0
 30
0.0
 11
149.58958200000001
 21
65.0
 31
0.0
  0
LINE
  5
EB
  8
2
 10
146.83108200000001
 20
68.0
 30
0.0
 11
135.13758200000001
 21
68.0
 31
0.0
  0
LINE
  5
EC
  8
2
 10
146.289582
 20
67.458500000000001
 30
0.0
 11
135.67908199999999
 21
67.458500000000001
 31
0.0
  0
LINE
  5
ED
  8
2
 10
146.289582
 20
62.541499999999999
 30
0.0
 11
135.67908199999999
 21
62.541499999999999
 31
0.0
  0
LINE
  5
EE
  8
2
 10
146.83108200000001
 20
62.0
 30
0.0
 11
135.13758200000001
 21
62.0
 31
0.0
  0
LINE
  5
EF
  8
2
 10
147.08958200000001
 20
68.258499999999984
 30
0.0
 11
146.289582
 21
67.458500000000001
 31
0.0
  0
LINE
  5
F0
  8
2
 10
146.289582
 20
62.541499999999999
 30
0.0
 11
147.08958200000001
 21
61.741500000000002
 31
0.0
  0
LINE
  5
FD
  8
0
 10
56.089581999999979
 20
68.048000000000002
 30
0.0
 11
54.565581999999978
 21
66.524000000000001
 31
0.0
  0
LINE
  5
FE
  8
0
 10
44.089581999999979
 20
72.200000000000003
 30
0.0
 11
44.089581999999979
 21
57.799999999999997
 31
0.0
  0
LINE
  5
FF
  8
0
 10
44.88958199999999
 20
73.0
 30
0.0
 11
44.88958199999999
 21
57.0
 31
0.0
  0
LINE
  5
100
  8
2
 10
44.089581999999979
 20
68.258499999999984
 30
0.0
 11
44.88958199999999
 21
67.458500000000001
 31
0.0
  0
LINE
  5
101
  8
2
 10
44.348081999999977
 20
62.0
 30
0.0
 11
56.04158199999997
 21
62.0
 31
0.0
  0
LINE
  5
102
  8
2
 10
44.88958199999999
 20
62.541499999999999
 30
0.0
 11
55.500081999999992
 21
62.541499999999999
 31
0.0
  0
LINE
  5
103
  8
2
 10
44.88958199999999
 20
67.458500000000001
 30
0.0
 11
55.500081999999992
 21
67.458500000000001
 31
0.0
  0
LINE
  5
104
  8
1
 10
58.589581999999979
 20
65.0
 30
0.0
 11
41.589581999999979
 21
65.0
 31
0.0
  0
LINE
  5
105
  8
0
 10
54.945581999999973
 20
57.0
 30
0.0
 11
44.88958199999999
 21
57.0
 31
0.0
  0
LINE
  5
106
  8
0
 10
56.089581999999979
 20
61.951999999999991
 30
0.0
 11
54.565581999999978
 21
63.475999999999999
 31
0.0
  0
LINE
  5
107
  8
0
 10
56.089581999999979
 20
58.903999999999989
 30
0.0
 11
54.565581999999978
 21
60.427999999999997
 31
0.0
  0
LINE
  5
108
  8
0
 10
54.565581999999978
 20
57.380000000000003
 30
0.0
 11
56.089581999999979
 21
58.903999999999989
 31
0.0
  0
LINE
  5
109
  8
0
 10
54.945581999999973
 20
57.0
 30
0.0
 11
54.565581999999978
 21
57.380000000000003
 31
0.0
  0
LINE
  5
10A
  8
0
 10
54.565581999999978
 20
60.427999999999997
 30
0.0
 11
56.089581999999979
 21
61.951999999999991
 31
0.0
  0
LINE
  5
10B
  8
0
 10
54.565581999999978
 20
63.475999999999999
 30
0.0
 11
56.089581999999979
 21
65.0
 31
0.0
  0
LINE
  5
10C
  8
0
 10
56.089581999999979
 20
65.0
 30
0.0
 11
54.565581999999978
 21
66.524000000000001
 31
0.0
  0
LINE
  5
10D
  8
2
 10
44.88958199999999
 20
62.541499999999999
 30
0.0
 11
44.089581999999979
 21
61.741500000000002
 31
0.0
  0
LINE
  5
10E
  8
0
 10
44.089581999999979
 20
57.799999999999997
 30
0.0
 11
44.88958199999999
 21
57.0
 31
0.0
  0
LINE
  5
10F
  8
0
 10
54.945581999999973
 20
73.0
 30
0.0
 11
52.464581999999979
 21
73.0
 31
0.0
  0
LINE
  5
110
  8
2
 10
44.348081999999977
 20
68.0
 30
0.0
 11
56.04158199999997
 21
68.0
 31
0.0
  0
LINE
  5
111
  8
0
 10
54.945581999999973
 20
73.0
 30
0.0
 11
54.565581999999978
 21
72.620000000000005
 31
0.0
  0
LINE
  5
112
  8
0
 10
56.089581999999979
 20
71.096000000000004
 30
0.0
 11
54.565581999999978
 21
69.572000000000003
 31
0.0
  0
LINE
  5
113
  8
0
 10
54.565581999999978
 20
69.572000000000003
 30
0.0
 11
56.089581999999979
 21
68.048000000000002
 31
0.0
  0
LINE
  5
114
  8
0
 10
54.565581999999978
 20
72.620000000000005
 30
0.0
 11
56.089581999999979
 21
71.096000000000004
 31
0.0
  0
LINE
  5
115
  8
0
 10
47.714581999999972
 20
73.0
 30
0.0
 11
44.88958199999999
 21
73.0
 31
0.0
  0
LINE
  5
116
  8
0
 10
52.464581999999979
 20
72.200000000000003
 30
0.0
 11
52.464581999999979
 21
73.0
 31
0.0
  0
LINE
  5
117
  8
0
 10
47.714581999999972
 20
73.0
 30
0.0
 11
47.714581999999972
 21
72.200000000000003
 31
0.0
  0
LINE
  5
118
  8
1
 10
50.089581999999979
 20
75.5
 30
0.0
 11
50.089581999999979
 21
69.700000000000003
 31
0.0
  0
LINE
  5
119
  8
0
 10
47.714581999999972
 20
72.200000000000003
 30
0.0
 11
52.464581999999979
 21
72.200000000000003
 31
0.0
  0
LINE
  5
11A
  8
0
 10
44.089581999999979
 20
72.200000000000003
 30
0.0
 11
44.88958199999999
 21
73.0
 31
0.0
  0
LINE
  5
129
  8
3
 10
94.901964000000007
 20
62.639617999999999
 30
0.0
 11
99.513280999999992
 21
58.028300999999999
 31
0.0
  0
LINE
  5
12A
  8
3
 10
93.660424999999975
 20
63.475999999999992
 30
0.0
 11
87.736083999999977
 21
63.475999999999992
 31
0.0
  0
LINE
  5
12B
  8
3
 10
96.277199999999993
 20
62.639617999999999
 30
0.0
 11
91.665882999999994
 21
58.028300999999999
 31
0.0
  0
LINE
  5
12C
  8
3
 10
97.113581999999994
 20
63.070842999999989
 30
0.0
 11
97.113581999999994
 21
57.146501999999998
 31
0.0
  0
LINE
  5
12D
  8
3
 10
97.949963999999994
 20
65.687618000000001
 30
0.0
 11
102.56128099999999
 21
61.076301000000001
 31
0.0
  0
LINE
  5
12E
  8
3
 10
93.851159999999993
 20
63.261578
 30
0.0
 11
89.932727999999983
 21
59.343145999999997
 31
0.0
  0
LINE
  5
12F
  8
3
 10
97.328004000000007
 20
63.261578
 30
0.0
 11
101.246436
 21
59.343145999999997
 31
0.0
  0
LINE
  5
130
  8
3
 10
94.065581999999992
 20
63.070842999999989
 30
0.0
 11
94.065581999999992
 21
57.146501999999998
 31
0.0
  0
LINE
  5
131
  8
3
 10
93.660424999999975
 20
66.524000000000001
 30
0.0
 11
87.736083999999977
 21
66.524000000000001
 31
0.0
  0
LINE
  5
132
  8
3
 10
93.229199999999992
 20
65.687618000000001
 30
0.0
 11
88.617882999999978
 21
61.076301000000001
 31
0.0
  0
LINE
  5
133
  8
3
 10
93.153272999999984
 20
57.380000000000003
 30
0.0
 11
98.025890999999973
 21
57.380000000000003
 31
0.0
  0
LINE
  5
134
  8
3
 10
103.209582
 20
62.563690999999999
 30
0.0
 11
103.209582
 21
67.436308999999994
 31
0.0
  0
LINE
  5
135
  8
3
 10
103.403051
 20
66.717468999999994
 30
0.0
 11
93.872112999999999
 21
57.186531000000002
 31
0.0
  0
LINE
  5
136
  8
3
 10
103.49276999999999
 20
63.759188000000002
 30
0.0
 11
96.830393999999998
 21
57.096812
 31
0.0
  0
LINE
  5
137
  8
3
 10
101.246436
 20
70.656853999999996
 30
0.0
 11
97.328004000000007
 21
66.738422
 31
0.0
  0
LINE
  5
138
  8
3
 10
97.307050999999987
 20
72.813468999999984
 30
0.0
 11
87.776112999999995
 21
63.282530999999999
 31
0.0
  0
CIRCLE
  5
139
  8
0
 10
95.589581999999993
 20
65.0
 30
0.0
 40
2.458499999999999
  0
CIRCLE
  5
13A
  8
3
 10
95.589581999999993
 20
65.0
 30
0.0
 40
3.0
  0
LINE
  5
13B
  8
3
 10
102.154399
 20
60.42799999999999
 30
0.0
 11
89.024764999999974
 21
60.42799999999999
 31
0.0
  0
LINE
  5
13C
  8
3
 10
94.348769999999973
 20
57.096812
 30
0.0
 11
87.686393999999993
 21
63.759188000000002
 31
0.0
  0
LINE
  5
13D
  8
3
 10
87.969581999999974
 20
62.563690999999999
 30
0.0
 11
87.969581999999974
 21
67.436308999999994
 31
0.0
  0
LINE
  5
13E
  8
3
 10
93.153272999999984
 20
72.620000000000005
 30
0.0
 11
98.025890999999973
 21
72.620000000000005
 31
0.0
  0
LINE
  5
13F
  8
3
 10
100.161582
 20
71.564817000000005
 30
0.0
 11
100.161582
 21
58.435183000000002
 31
0.0
  0
LINE
  5
140
  8
3
 10
96.830393999999998
 20
72.903188
 30
0.0
 11
103.49276999999999
 21
66.240812000000005
 31
0.0
  0
LINE
  5
141
  8
2
 10
99.076701
 20
72.200000000000003
 30
0.0
 11
92.102462999999986
 21
72.200000000000003
 31
0.0
  0
CIRCLE
  5
142
  8
0
 10
95.589581999999993
 20
65.0
 30
0.0
 40
8.0
  0
LINE
  5
143
  8
3
 10
99.513280999999992
 20
71.971699000000001
 30
0.0
 11
94.901964000000007
 21
67.360382000000001
 31
0.0
  0
LINE
  5
144
  8
3
 10
103.44307999999999
 20
66.524000000000001
 30
0.0
 11
97.518738999999997
 21
66.524000000000001
 31
0.0
  0
LINE
  5
145
  8
3
 10
94.065581999999992
 20
72.853498000000002
 30
0.0
 11
94.065581999999992
 21
66.929157000000004
 31
0.0
  0
LINE
  5
146
  8
3
 10
87.776112999999995
 20
66.717468999999994
 30
0.0
 11
97.307050999999987
 21
57.186531000000002
 31
0.0
  0
LINE
  5
147
  8
3
 10
88.617882999999978
 20
68.923698999999999
 30
0.0
 11
93.229199999999992
 21
64.312381999999999
 31
0.0
  0
LINE
  5
148
  8
3
 10
89.932727999999983
 20
70.656853999999996
 30
0.0
 11
93.851159999999993
 21
66.738422
 31
0.0
  0
LINE
  5
149
  8
3
 10
91.665882999999994
 20
71.971699000000001
 30
0.0
 11
96.277199999999993
 21
67.360382000000001
 31
0.0
  0
LINE
  5
14A
  8
3
 10
93.872112999999999
 20
72.813468999999984
 30
0.0
 11
103.403051
 21
63.282530999999999
 31
0.0
  0
LINE
  5
14B
  8
3
 10
102.56128099999999
 20
68.923698999999999
 30
0.0
 11
97.949963999999994
 21
64.312381999999999
 31
0.0
  0
LINE
  5
14C
  8
3
 10
94.348769999999973
 20
72.903188
 30
0.0
 11
87.686393999999993
 21
66.240812000000005
 31
0.0
  0
LINE
  5
14D
  8
3
 10
97.113581999999994
 20
72.853498000000002
 30
0.0
 11
97.113581999999994
 21
66.929157000000004
 31
0.0
  0
LINE
  5
14E
  8
3
 10
91.01758199999999
 20
71.564817000000005
 30
0.0
 11
91.01758199999999
 21
58.435183000000002
 31
0.0
  0
LINE
  5
14F
  8
3
 10
103.44307999999999
 20
63.475999999999992
 30
0.0
 11
97.518738999999997
 21
63.475999999999992
 31
0.0
  0
LINE
  5
150
  8
3
 10
102.154399
 20
69.572000000000003
 30
0.0
 11
89.024764999999974
 21
69.572000000000003
 31
0.0
  0
LINE
  5
151
  8
1
 10
95.589581999999993
 20
75.5
 30
0.0
 11
95.589581999999993
 21
54.5
 31
0.0
  0
LINE
  5
152
  8
1
 10
85.089581999999993
 20
65.0
 30
0.0
 11
106.08958199999999
 21
65.0
 31
0.0
  0
TEXT
  5
291
  8
0
 62
     3
 10
0.0
 20
0.0
 30
0.0
 40
5.0
  1
HS-162
  7
STANDARD1
  0
ENDSEC
  0
EOF
