  0
SECTION
  2
HEADER
  9
$ACADVER
  1
AC1009
  9
$INSBASE
 10
0.0
 20
0.0
 30
0.0
  9
$EXTMIN
 10
0.0
 20
-1.4802182810368341
 30
0.0
  9
$EXTMAX
 10
154.14806400000001
 20
114.447851
 30
0.0
  9
$LIMMIN
 10
0.0
 20
0.0
  9
$LIMMAX
 10
187.5
 20
135.0
  9
$ORTHOMODE
 70
     1
  9
$REGENMODE
 70
     1
  9
$FILLMODE
 70
     1
  9
$QTEXTMODE
 70
     0
  9
$MIRRTEXT
 70
     0
  9
$DRAGMODE
 70
     2
  9
$LTSCALE
 40
5.0
  9
$OSMODE
 70
    55
  9
$ATTMODE
 70
     1
  9
$TEXTSIZE
 40
1.6000000000000001
  9
$TRACEWID
 40
0.05
  9
$TEXTSTYLE
  7
STANDARD
  9
$CLAYER
  8
0
  9
$CELTYPE
  6
BYLAYER
  9
$CECOLOR
 62
   256
  9
$DIMSCALE
 40
0.5
  9
$DIMASZ
 40
3.0
  9
$DIMEXO
 40
2.0
  9
$DIMDLI
 40
10.0
  9
$DIMRND
 40
0.0
  9
$DIMDLE
 40
0.0
  9
$DIMEXE
 40
2.0
  9
$DIMTP
 40
0.0
  9
$DIMTM
 40
0.0
  9
$DIMTXT
 40
3.2000000000000002
  9
$DIMCEN
 40
0.09
  9
$DIMTSZ
 40
0.0
  9
$DIMTOL
 70
     0
  9
$DIMLIM
 70
     0
  9
$DIMTIH
 70
     0
  9
$DIMTOH
 70
     0
  9
$DIMSE1
 70
     0
  9
$DIMSE2
 70
     0
  9
$DIMTAD
 70
     1
  9
$DIMZIN
 70
     0
  9
$DIMBLK
  1

  9
$DIMASO
 70
     0
  9
$DIMSHO
 70
     0
  9
$DIMPOST
  1

  9
$DIMAPOST
  1

  9
$DIMALT
 70
     0
  9
$DIMALTD
 70
     2
  9
$DIMALTF
 40
25.399999999999999
  9
$DIMLFAC
 40
1.0
  9
$DIMTOFL
 70
     1
  9
$DIMTVP
 40
1.6000000000000001
  9
$DIMTIX
 70
     1
  9
$DIMSOXD
 70
     0
  9
$DIMSAH
 70
     0
  9
$DIMBLK1
  1

  9
$DIMBLK2
  1

  9
$DIMSTYLE
  2
STANDARD
  9
$DIMCLRD
 70
     0
  9
$DIMCLRE
 70
     0
  9
$DIMCLRT
 70
     0
  9
$DIMTFAC
 40
1.0
  9
$DIMGAP
 40
0.09
  9
$LUNITS
 70
     2
  9
$LUPREC
 70
     4
  9
$SKETCHINC
 40
0.1
  9
$FILLETRAD
 40
0.0
  9
$AUNITS
 70
     0
  9
$AUPREC
 70
     0
  9
$MENU
  1
E:\r13\win\SUPPORT\ACAD
  9
$ELEVATION
 40
0.0
  9
$PELEVATION
 40
0.0
  9
$THICKNESS
 40
0.0
  9
$LIMCHECK
 70
     0
  9
$BLIPMODE
 70
     0
  9
$CHAMFERA
 40
0.0
  9
$CHAMFERB
 40
0.0
  9
$SKPOLY
 70
     0
  9
$TDCREATE
 40
2449840.5945138889
  9
$TDUPDATE
 40
2456598.6924777888
  9
$TDINDWG
 40
0.0020230787
  9
$TDUSRTIMER
 40
0.0020230787
  9
$USRTIMER
 70
     1
  9
$ANGBASE
 50
0.0
  9
$ANGDIR
 70
     0
  9
$PDMODE
 70
     0
  9
$PDSIZE
 40
0.0
  9
$PLINEWID
 40
0.0
  9
$COORDS
 70
     1
  9
$SPLFRAME
 70
     0
  9
$SPLINETYPE
 70
     6
  9
$SPLINESEGS
 70
     8
  9
$ATTDIA
 70
     0
  9
$ATTREQ
 70
     1
  9
$HANDLING
 70
     1
  9
$HANDSEED
  5
311
  9
$SURFTAB1
 70
     6
  9
$SURFTAB2
 70
     6
  9
$SURFTYPE
 70
     6
  9
$SURFU
 70
     6
  9
$SURFV
 70
     6
  9
$UCSNAME
  2

  9
$UCSORG
 10
0.0
 20
0.0
 30
0.0
  9
$UCSXDIR
 10
1.0
 20
0.0
 30
0.0
  9
$UCSYDIR
 10
0.0
 20
1.0
 30
0.0
  9
$PUCSNAME
  2

  9
$PUCSORG
 10
0.0
 20
0.0
 30
0.0
  9
$PUCSXDIR
 10
1.0
 20
0.0
 30
0.0
  9
$PUCSYDIR
 10
0.0
 20
1.0
 30
0.0
  9
$USERI1
 70
     0
  9
$USERI2
 70
     1
  9
$USERI3
 70
     0
  9
$USERI4
 70
     0
  9
$USERI5
 70
     0
  9
$USERR1
 40
0.0
  9
$USERR2
 40
0.0
  9
$USERR3
 40
0.0
  9
$USERR4
 40
0.0
  9
$USERR5
 40
0.0
  9
$WORLDVIEW
 70
     1
  9
$SHADEDGE
 70
     3
  9
$SHADEDIF
 70
    70
  9
$TILEMODE
 70
     1
  9
$MAXACTVP
 70
    16
  9
$PLIMCHECK
 70
     0
  9
$PEXTMIN
 10
1.0000000000000000E+020
 20
1.0000000000000000E+020
 30
1.0000000000000000E+020
  9
$PEXTMAX
 10
-1.0000000000000000E+020
 20
-1.0000000000000000E+020
 30
-1.0000000000000000E+020
  9
$PLIMMIN
 10
0.0
 20
0.0
  9
$PLIMMAX
 10
12.0
 20
9.0
  9
$UNITMODE
 70
     0
  9
$VISRETAIN
 70
     0
  9
$PLINEGEN
 70
     0
  9
$PSLTSCALE
 70
     0
  0
ENDSEC
  0
SECTION
  2
TABLES
  0
TABLE
  2
VPORT
 70
     1
  0
VPORT
  2
*ACTIVE
 70
     0
 10
0.0
 20
0.0
 11
1.0
 21
1.0
 12
93.74713919532617
 22
87.458386271734256
 13
0.0
 23
0.0
 14
5.0
 24
5.0
 15
5.0
 25
5.0
 16
0.0
 26
0.0
 36
1.0
 17
0.0
 27
0.0
 37
0.0
 40
179.46013949787169
 41
1.7807262569832401
 42
50.0
 43
0.0
 44
0.0
 50
0.0
 51
0.0
 71
     0
 72
   100
 73
     1
 74
     0
 75
     0
 76
     0
 77
     0
 78
     0
  0
ENDTAB
  0
TABLE
  2
LTYPE
 70
     4
  0
LTYPE
  2
CONTINUOUS
 70
     0
  3
Solid Line
 72
    65
 73
     0
 40
0.0
  0
LTYPE
  2
CENTER
 70
     0
  3
____ _ ____ _ ____ _ ____ _ ____ _ ____ _ ____
 72
    65
 73
     4
 40
2.0
 49
1.25
 49
-0.25
 49
0.25
 49
-0.25
  0
LTYPE
  2
HIDDEN
 70
     0
  3
_ _ _ _ _ _ _ _ _ _ _ _ _ _ _ _ _ _ _ _ _ _ _
 72
    65
 73
     2
 40
0.375
 49
0.25
 49
-0.125
  0
LTYPE
  2
PHANTOM2
 70
     0
  3
___ _ _ ___ _ _ ___ _ _ ___ _ _
 72
    65
 73
     6
 40
1.25
 49
0.625
 49
-0.125
 49
0.125
 49
-0.125
 49
0.125
 49
-0.125
  0
ENDTAB
  0
TABLE
  2
LAYER
 70
     4
  0
LAYER
  2
0
 70
     0
 62
     7
  6
CONTINUOUS
  0
LAYER
  2
1
 70
     0
 62
     1
  6
CENTER
  0
LAYER
  2
2
 70
     0
 62
     2
  6
HIDDEN
  0
LAYER
  2
3
 70
     0
 62
     3
  6
CONTINUOUS
  0
ENDTAB
  0
TABLE
  2
STYLE
 70
     2
  0
STYLE
  2
STANDARD
 70
     0
 40
0.0
 41
1.0
 50
0.0
 71
     0
 42
1.6000000000000001
  3
TXT
  4
BIGFONT
  0
STYLE
  2
STANDARD1
 70
     0
 40
0.0
 41
1.0
 50
0.0
 71
     0
 42
3.0
  3
txt
  4

  0
ENDTAB
  0
TABLE
  2
VIEW
 70
     1
  0
VIEW
  2
ALL
 70
     0
 40
135.0
 10
110.49579799999999
 20
67.5
 41
0.0
 11
0.0
 21
0.0
 31
1.0
 12
0.0
 22
0.0
 32
0.0
 42
0.0
 43
0.0
 44
0.0
 50
0.0
 71
     0
  0
ENDTAB
  0
TABLE
  2
UCS
 70
     0
  0
ENDTAB
  0
TABLE
  2
APPID
 70
     3
  0
APPID
  2
ACAD
 70
     0
  0
APPID
  2
ACAD_MLEADERVER
 70
     0
  0
APPID
  2
ACAD_NAV_VCDISPLAY
 70
     0
  0
ENDTAB
  0
TABLE
  2
DIMSTYLE
 70
     1
  0
DIMSTYLE
  2
STANDARD
 70
     0
  3

  4

  5

  6

  7

 40
1.0
 41
0.18
 42
0.0625
 43
0.38
 44
0.18
 45
0.0
 46
0.0
 47
0.0
 48
0.0
140
0.18
141
0.09
142
0.0
143
25.399999999999999
144
1.0
145
0.0
146
1.0
147
0.09
 71
     0
 72
     0
 73
     1
 74
     1
 75
     0
 76
     0
 77
     0
 78
     0
170
     0
171
     2
172
     0
173
     0
174
     0
175
     0
176
     0
177
     0
178
     0
  0
ENDTAB
  0
ENDSEC
  0
SECTION
  2
BLOCKS
  0
BLOCK
  8
0
  2
$MODEL_SPACE
 70
     0
 10
0.0
 20
0.0
 30
0.0
  3
$MODEL_SPACE
  1

  0
ENDBLK
  5
1C3
  8
0
  0
BLOCK
 67
     1
  8
0
  2
$PAPER_SPACE
 70
     0
 10
0.0
 20
0.0
 30
0.0
  3
$PAPER_SPACE
  1

  0
ENDBLK
  5
1C1
 67
     1
  8
0
  0
ENDSEC
  0
SECTION
  2
ENTITIES
  0
LINE
  5
36
  8
1
 10
80.148064000000005
 20
65.0
 30
0.0
 11
110.14806400000001
 21
65.0
 31
0.0
  0
LINE
  5
37
  8
1
 10
95.148064000000005
 20
80.0
 30
0.0
 11
95.148064000000005
 21
50.0
 31
0.0
  0
LINE
  5
38
  8
0
 10
151.64806399999989
 20
76.700000000000003
 30
0.0
 11
151.64806399999989
 21
53.299999999999997
 31
0.0
  0
LINE
  5
39
  8
1
 10
145.64806400000001
 20
80.0
 30
0.0
 11
145.64806400000001
 21
74.200000000000003
 31
0.0
  0
LINE
  5
3A
  8
0
 10
140.8640639999999
 20
77.5
 30
0.0
 11
143.27306399999989
 21
77.5
 31
0.0
  0
LINE
  5
3B
  8
0
 10
151.64806399999989
 20
76.700000000000003
 30
0.0
 11
150.84806399999999
 21
77.5
 31
0.0
  0
LINE
  5
3C
  8
0
 10
139.64806400000001
 20
66.524000000000001
 30
0.0
 11
141.17206399999989
 21
65.0
 31
0.0
  0
LINE
  5
3D
  8
0
 10
141.17206399999989
 20
68.048000000000002
 30
0.0
 11
139.64806400000001
 21
66.524000000000001
 31
0.0
  0
LINE
  5
3E
  8
0
 10
139.64806400000001
 20
69.572000000000003
 30
0.0
 11
141.17206399999989
 21
68.048000000000002
 31
0.0
  0
LINE
  5
3F
  8
0
 10
139.64806400000001
 20
60.427999999999997
 30
0.0
 11
141.17206399999989
 21
61.951999999999991
 31
0.0
  0
LINE
  5
40
  8
0
 10
141.17206399999989
 20
61.951999999999991
 30
0.0
 11
139.64806400000001
 21
63.475999999999999
 31
0.0
  0
LINE
  5
41
  8
0
 10
139.64806400000001
 20
63.475999999999999
 30
0.0
 11
141.17206399999989
 21
65.0
 31
0.0
  0
LINE
  5
42
  8
0
 10
140.8640639999999
 20
52.5
 30
0.0
 11
150.84806399999999
 21
52.5
 31
0.0
  0
LINE
  5
43
  8
0
 10
151.64806399999989
 20
53.299999999999997
 30
0.0
 11
150.84806399999999
 21
52.5
 31
0.0
  0
LINE
  5
44
  8
0
 10
150.84806399999999
 20
77.5
 30
0.0
 11
150.84806399999999
 21
52.5
 31
0.0
  0
LINE
  5
45
  8
0
 10
148.02306400000001
 20
77.5
 30
0.0
 11
148.02306400000001
 21
76.700000000000003
 31
0.0
  0
LINE
  5
46
  8
0
 10
148.02306400000001
 20
76.700000000000003
 30
0.0
 11
143.27306399999989
 21
76.700000000000003
 31
0.0
  0
LINE
  5
47
  8
0
 10
143.27306399999989
 20
76.700000000000003
 30
0.0
 11
143.27306399999989
 21
77.5
 31
0.0
  0
LINE
  5
48
  8
0
 10
148.02306400000001
 20
77.5
 30
0.0
 11
150.84806399999999
 21
77.5
 31
0.0
  0
LINE
  5
49
  8
3
 10
107.270758
 20
68.048000000000002
 30
0.0
 11
83.025371000000007
 21
68.048000000000002
 31
0.0
  0
LINE
  5
4A
  8
3
 10
107.64806400000001
 20
65.0
 30
0.0
 11
97.60656400000002
 21
65.0
 31
0.0
  0
LINE
  5
4B
  8
3
 10
107.270758
 20
61.951999999999991
 30
0.0
 11
83.025371000000007
 21
61.951999999999991
 31
0.0
  0
LINE
  5
4C
  8
3
 10
92.100064000000003
 20
77.122692999999984
 30
0.0
 11
92.100064000000003
 21
52.877307000000002
 31
0.0
  0
LINE
  5
4D
  8
3
 10
95.148064000000005
 20
77.5
 30
0.0
 11
95.148064000000005
 21
67.458500000000001
 31
0.0
  0
LINE
  5
4E
  8
3
 10
98.196064000000007
 20
77.122692999999984
 30
0.0
 11
98.196064000000007
 21
52.877307000000002
 31
0.0
  0
LINE
  5
4F
  8
3
 10
102.330523
 20
75.230458999999996
 30
0.0
 11
94.460445999999976
 21
67.360382000000001
 31
0.0
  0
LINE
  5
50
  8
3
 10
103.98689899999999
 20
73.838835000000003
 30
0.0
 11
96.886486000000005
 21
66.738422
 31
0.0
  0
LINE
  5
51
  8
3
 10
105.378523
 20
72.182458999999994
 30
0.0
 11
97.508446000000006
 21
64.312381999999999
 31
0.0
  0
LINE
  5
52
  8
3
 10
100.396732
 20
76.344667999999999
 30
0.0
 11
83.803395999999992
 21
59.751331999999998
 31
0.0
  0
LINE
  5
53
  8
3
 10
106.492732
 20
70.248668000000009
 30
0.0
 11
89.899395999999996
 21
53.655331999999987
 31
0.0
  0
LINE
  5
54
  8
3
 10
89.899395999999996
 20
76.344667999999999
 30
0.0
 11
106.492732
 21
59.751331999999998
 31
0.0
  0
LINE
  5
55
  8
3
 10
87.965605000000011
 20
75.230458999999996
 30
0.0
 11
95.835682000000006
 21
67.360382000000001
 31
0.0
  0
LINE
  5
56
  8
3
 10
86.309228999999988
 20
73.838835000000003
 30
0.0
 11
93.409642000000005
 21
66.738422
 31
0.0
  0
LINE
  5
57
  8
3
 10
84.917605000000009
 20
72.182458999999994
 30
0.0
 11
92.787682000000004
 21
64.312381999999999
 31
0.0
  0
LINE
  5
58
  8
3
 10
83.803395999999992
 20
70.248668000000009
 30
0.0
 11
100.396732
 21
53.655331999999987
 31
0.0
  0
LINE
  5
59
  8
3
 10
95.148064000000005
 20
62.541499999999999
 30
0.0
 11
95.148064000000005
 21
52.5
 31
0.0
  0
LINE
  5
5A
  8
3
 10
96.886486000000005
 20
63.261578
 30
0.0
 11
103.98689899999999
 21
56.161164999999997
 31
0.0
  0
LINE
  5
5B
  8
3
 10
92.689564000000004
 20
65.0
 30
0.0
 11
82.648064000000005
 21
65.0
 31
0.0
  0
LINE
  5
5C
  8
3
 10
93.409642000000005
 20
63.261578
 30
0.0
 11
86.309228999999988
 21
56.161164999999997
 31
0.0
  0
LINE
  5
5D
  8
2
 10
99.548063999999997
 20
76.700000000000003
 30
0.0
 11
90.748063999999985
 21
76.700000000000003
 31
0.0
  0
LINE
  5
5E
  8
3
 10
92.155554000000009
 20
77.136510000000001
 30
0.0
 11
107.28457400000001
 21
62.007489999999997
 31
0.0
  0
LINE
  5
5F
  8
3
 10
101.24406399999999
 20
75.91278100000001
 30
0.0
 11
101.24406399999999
 21
54.08721899999999
 31
0.0
  0
LINE
  5
60
  8
3
 10
84.235282999999995
 20
71.096000000000004
 30
0.0
 11
106.060845
 21
71.096000000000004
 31
0.0
  0
LINE
  5
61
  8
3
 10
83.011554000000004
 20
62.007489999999997
 30
0.0
 11
98.140574000000015
 21
77.136510000000001
 31
0.0
  0
LINE
  5
62
  8
3
 10
89.052064000000001
 20
54.08721899999999
 30
0.0
 11
89.052064000000001
 21
75.91278100000001
 31
0.0
  0
LINE
  5
63
  8
3
 10
98.140574000000015
 20
52.863490000000013
 30
0.0
 11
83.011554000000004
 21
67.992509999999996
 31
0.0
  0
LINE
  5
64
  8
3
 10
106.060845
 20
58.903999999999989
 30
0.0
 11
84.235282999999995
 21
58.903999999999989
 31
0.0
  0
LINE
  5
65
  8
3
 10
107.28457400000001
 20
67.992509999999996
 30
0.0
 11
92.155554000000009
 21
52.863490000000013
 31
0.0
  0
LINE
  5
66
  8
0
 10
141.17206399999989
 20
55.856000000000002
 30
0.0
 11
139.64806400000001
 21
57.380000000000003
 31
0.0
  0
LINE
  5
67
  8
0
 10
139.64806400000001
 20
57.380000000000003
 30
0.0
 11
141.17206399999989
 21
58.903999999999989
 31
0.0
  0
LINE
  5
68
  8
0
 10
141.17206399999989
 20
58.903999999999989
 30
0.0
 11
139.64806400000001
 21
60.427999999999997
 31
0.0
  0
LINE
  5
69
  8
1
 10
137.14806399999989
 20
65.0
 30
0.0
 11
154.14806400000001
 21
65.0
 31
0.0
  0
CIRCLE
  5
6A
  8
3
 10
95.148064000000005
 20
65.0
 30
0.0
 40
3.0
  0
CIRCLE
  5
6B
  8
0
 10
95.148064000000005
 20
65.0
 30
0.0
 40
2.458499999999999
  0
LINE
  5
6C
  8
3
 10
92.787682000000004
 20
65.687618000000001
 30
0.0
 11
84.917605000000009
 21
57.817540999999999
 31
0.0
  0
LINE
  5
6D
  8
3
 10
94.460445999999976
 20
62.639617999999999
 30
0.0
 11
102.330523
 21
54.769540999999997
 31
0.0
  0
LINE
  5
6E
  8
3
 10
95.835682000000006
 20
62.639617999999999
 30
0.0
 11
87.965605000000011
 21
54.769540999999997
 31
0.0
  0
LINE
  5
6F
  8
3
 10
97.508446000000006
 20
65.687618000000001
 30
0.0
 11
105.378523
 21
57.817540999999999
 31
0.0
  0
LINE
  5
70
  8
2
 10
151.38956400000001
 20
68.0
 30
0.0
 11
141.12406399999989
 21
68.0
 31
0.0
  0
LINE
  5
71
  8
2
 10
150.84806399999999
 20
67.458500000000001
 30
0.0
 11
140.58256399999999
 21
67.458500000000001
 31
0.0
  0
LINE
  5
72
  8
2
 10
150.84806399999999
 20
62.541499999999999
 30
0.0
 11
140.58256399999999
 21
62.541499999999999
 31
0.0
  0
LINE
  5
73
  8
2
 10
151.38956400000001
 20
62.0
 30
0.0
 11
141.12406399999989
 21
62.0
 31
0.0
  0
LINE
  5
74
  8
2
 10
151.64806399999989
 20
68.258499999999984
 30
0.0
 11
150.84806399999999
 21
67.458500000000001
 31
0.0
  0
LINE
  5
75
  8
2
 10
150.84806399999999
 20
62.541499999999999
 30
0.0
 11
151.64806399999989
 21
61.741500000000002
 31
0.0
  0
LINE
  5
76
  8
0
 10
139.64806400000001
 20
72.620000000000005
 30
0.0
 11
141.17206399999989
 21
71.096000000000004
 31
0.0
  0
LINE
  5
77
  8
0
 10
141.17206399999989
 20
71.096000000000004
 30
0.0
 11
139.64806400000001
 21
69.572000000000003
 31
0.0
  0
LINE
  5
78
  8
0
 10
141.17206399999989
 20
74.143999999999991
 30
0.0
 11
139.64806400000001
 21
72.620000000000005
 31
0.0
  0
LINE
  5
79
  8
0
 10
141.17206399999989
 20
77.191999999999993
 30
0.0
 11
139.64806400000001
 21
75.668000000000006
 31
0.0
  0
LINE
  5
7A
  8
0
 10
139.64806400000001
 20
75.668000000000006
 30
0.0
 11
141.17206399999989
 21
74.143999999999991
 31
0.0
  0
LINE
  5
7B
  8
0
 10
140.8640639999999
 20
77.5
 30
0.0
 11
141.17206399999989
 21
77.191999999999993
 31
0.0
  0
LINE
  5
7C
  8
0
 10
140.8640639999999
 20
52.5
 30
0.0
 11
141.17206399999989
 21
52.808
 31
0.0
  0
LINE
  5
7D
  8
0
 10
139.64806400000001
 20
54.332000000000001
 30
0.0
 11
141.17206399999989
 21
55.856000000000002
 31
0.0
  0
LINE
  5
7E
  8
0
 10
141.17206399999989
 20
52.808
 30
0.0
 11
139.64806400000001
 21
54.332000000000001
 31
0.0
  0
CIRCLE
  5
7F
  8
0
 10
95.148064000000005
 20
65.0
 30
0.0
 40
12.5
  0
LINE
  5
80
  8
3
 10
86.004064
 20
56.477249999999998
 30
0.0
 11
86.004064
 21
73.522750000000002
 31
0.0
  0
LINE
  5
81
  8
3
 10
82.956063999999998
 20
62.242258999999997
 30
0.0
 11
82.956063999999998
 21
67.75774100000001
 31
0.0
  0
LINE
  5
82
  8
3
 10
97.905805000000001
 20
52.808
 30
0.0
 11
92.390322999999995
 21
52.808
 31
0.0
  0
LINE
  5
83
  8
3
 10
103.67081399999999
 20
55.856000000000002
 30
0.0
 11
86.625314000000003
 21
55.856000000000002
 31
0.0
  0
LINE
  5
84
  8
3
 10
107.340064
 20
67.75774100000001
 30
0.0
 11
107.340064
 21
62.242258999999997
 31
0.0
  0
LINE
  5
85
  8
3
 10
104.292064
 20
73.522750000000002
 30
0.0
 11
104.292064
 21
56.477249999999998
 31
0.0
  0
LINE
  5
86
  8
3
 10
92.390322999999995
 20
77.191999999999993
 30
0.0
 11
97.905805000000001
 21
77.191999999999993
 31
0.0
  0
LINE
  5
87
  8
3
 10
86.625314000000003
 20
74.143999999999991
 30
0.0
 11
103.67081399999999
 21
74.143999999999991
 31
0.0
  0
LINE
  5
88
  8
3
 10
95.452359999999999
 20
77.496296000000001
 30
0.0
 11
82.651768999999973
 21
64.695704000000006
 31
0.0
  0
LINE
  5
89
  8
3
 10
92.006969999999995
 20
77.098905999999999
 30
0.0
 11
83.049157999999991
 21
68.141093999999995
 31
0.0
  0
LINE
  5
8A
  8
3
 10
83.049157999999991
 20
61.858905999999998
 30
0.0
 11
92.006969999999995
 21
52.901093999999993
 31
0.0
  0
LINE
  5
8B
  8
3
 10
82.651768999999973
 20
65.304295999999994
 30
0.0
 11
95.452359999999999
 21
52.503704000000013
 31
0.0
  0
LINE
  5
8C
  8
3
 10
98.289158
 20
52.901093999999993
 30
0.0
 11
107.24697
 21
61.858905999999998
 31
0.0
  0
LINE
  5
8D
  8
3
 10
94.843768999999995
 20
52.503704000000013
 30
0.0
 11
107.64436000000001
 21
65.304295999999994
 31
0.0
  0
LINE
  5
8E
  8
3
 10
107.24697
 20
68.141093999999995
 30
0.0
 11
98.289158
 21
77.098905999999999
 31
0.0
  0
LINE
  5
8F
  8
3
 10
107.64436000000001
 20
64.695704000000006
 30
0.0
 11
94.843768999999995
 21
77.496296000000001
 31
0.0
  0
LINE
  5
90
  8
0
 10
82.956063999999998
 20
28.655542000000001
 30
0.0
 11
84.480063999999999
 21
30.179542000000001
 31
0.0
  0
LINE
  5
91
  8
0
 10
84.480063999999999
 20
30.179542000000001
 30
0.0
 11
86.004064
 21
28.655542000000001
 31
0.0
  0
LINE
  5
92
  8
0
 10
82.648064000000005
 20
28.963542
 30
0.0
 11
82.956063999999998
 21
28.655542000000001
 31
0.0
  0
LINE
  5
93
  8
0
 10
107.64806400000001
 20
28.963542
 30
0.0
 11
107.340064
 21
28.655542000000001
 31
0.0
  0
LINE
  5
94
  8
0
 10
105.816064
 20
30.179542000000001
 30
0.0
 11
104.292064
 21
28.655542000000001
 31
0.0
  0
LINE
  5
95
  8
0
 10
107.340064
 20
28.655542000000001
 30
0.0
 11
105.816064
 21
30.179542000000001
 31
0.0
  0
LINE
  5
96
  8
0
 10
104.292064
 20
28.655542000000001
 30
0.0
 11
102.768064
 21
30.179542000000001
 31
0.0
  0
LINE
  5
97
  8
0
 10
101.24406399999999
 20
28.655542000000001
 30
0.0
 11
99.720064000000008
 21
30.179542000000001
 31
0.0
  0
LINE
  5
98
  8
0
 10
102.768064
 20
30.179542000000001
 30
0.0
 11
101.24406399999999
 21
28.655542000000001
 31
0.0
  0
LINE
  5
99
  8
2
 10
92.689564000000004
 20
18.979541999999999
 30
0.0
 11
91.889563999999993
 21
18.179542000000001
 31
0.0
  0
LINE
  5
9A
  8
2
 10
98.406564000000003
 20
18.179542000000001
 30
0.0
 11
97.60656400000002
 21
18.979541999999999
 31
0.0
  0
LINE
  5
9B
  8
2
 10
92.148064000000005
 20
18.438041999999999
 30
0.0
 11
92.148064000000005
 21
28.703541999999999
 31
0.0
  0
LINE
  5
9C
  8
2
 10
92.689564000000004
 20
18.979541999999999
 30
0.0
 11
92.689564000000004
 21
29.245042000000002
 31
0.0
  0
LINE
  5
9D
  8
2
 10
97.60656400000002
 20
18.979541999999999
 30
0.0
 11
97.60656400000002
 21
29.245042000000002
 31
0.0
  0
LINE
  5
9E
  8
2
 10
98.148064000000005
 20
18.438041999999999
 30
0.0
 11
98.148064000000005
 21
28.703541999999999
 31
0.0
  0
LINE
  5
9F
  8
1
 10
95.148064000000005
 20
32.679541999999998
 30
0.0
 11
95.148064000000005
 21
15.679542
 31
0.0
  0
LINE
  5
A0
  8
0
 10
89.052064000000001
 20
28.655542000000001
 30
0.0
 11
90.576064000000002
 21
30.179542000000001
 31
0.0
  0
LINE
  5
A1
  8
0
 10
87.528064000000001
 20
30.179542000000001
 30
0.0
 11
89.052064000000001
 21
28.655542000000001
 31
0.0
  0
LINE
  5
A2
  8
0
 10
86.004064
 20
28.655542000000001
 30
0.0
 11
87.528064000000001
 21
30.179542000000001
 31
0.0
  0
LINE
  5
A3
  8
0
 10
107.64806400000001
 20
18.979541999999999
 30
0.0
 11
82.648064000000005
 21
18.979541999999999
 31
0.0
  0
LINE
  5
A4
  8
0
 10
83.448064000000016
 20
18.179542000000001
 30
0.0
 11
82.648064000000005
 21
18.979541999999999
 31
0.0
  0
LINE
  5
A5
  8
0
 10
82.648064000000005
 20
28.963542
 30
0.0
 11
82.648064000000005
 21
18.979541999999999
 31
0.0
  0
LINE
  5
A6
  8
0
 10
93.624064000000004
 20
30.179542000000001
 30
0.0
 11
95.148064000000005
 21
28.655542000000001
 31
0.0
  0
LINE
  5
A7
  8
0
 10
92.100064000000003
 20
28.655542000000001
 30
0.0
 11
93.624064000000004
 21
30.179542000000001
 31
0.0
  0
LINE
  5
A8
  8
0
 10
90.576064000000002
 20
30.179542000000001
 30
0.0
 11
92.100064000000003
 21
28.655542000000001
 31
0.0
  0
LINE
  5
A9
  8
0
 10
99.720064000000008
 20
30.179542000000001
 30
0.0
 11
98.196064000000007
 21
28.655542000000001
 31
0.0
  0
LINE
  5
AA
  8
0
 10
98.196064000000007
 20
28.655542000000001
 30
0.0
 11
96.672064000000006
 21
30.179542000000001
 31
0.0
  0
LINE
  5
AB
  8
0
 10
96.672064000000006
 20
30.179542000000001
 30
0.0
 11
95.148064000000005
 21
28.655542000000001
 31
0.0
  0
LINE
  5
AC
  8
0
 10
106.84806399999999
 20
18.179542000000001
 30
0.0
 11
107.64806400000001
 21
18.979541999999999
 31
0.0
  0
LINE
  5
AD
  8
0
 10
107.64806400000001
 20
28.963542
 30
0.0
 11
107.64806400000001
 21
18.979541999999999
 31
0.0
  0
LINE
  5
AE
  8
0
 10
106.84806399999999
 20
18.179542000000001
 30
0.0
 11
83.448064000000016
 21
18.179542000000001
 31
0.0
  0
LINE
  5
AF
  8
0
 10
106.84806399999999
 20
111.947851
 30
0.0
 11
83.448064000000016
 21
111.947851
 31
0.0
  0
LINE
  5
B0
  8
0
 10
107.64806400000001
 20
101.16385099999999
 30
0.0
 11
107.64806400000001
 21
111.147851
 31
0.0
  0
LINE
  5
B1
  8
0
 10
106.84806399999999
 20
111.947851
 30
0.0
 11
107.64806400000001
 21
111.147851
 31
0.0
  0
LINE
  5
B2
  8
0
 10
96.672064000000006
 20
99.947851000000014
 30
0.0
 11
95.148064000000005
 21
101.471851
 31
0.0
  0
LINE
  5
B3
  8
0
 10
98.196064000000007
 20
101.471851
 30
0.0
 11
96.672064000000006
 21
99.947851000000014
 31
0.0
  0
LINE
  5
B4
  8
0
 10
99.720064000000008
 20
99.947851000000014
 30
0.0
 11
98.196064000000007
 21
101.471851
 31
0.0
  0
LINE
  5
B5
  8
0
 10
90.576064000000002
 20
99.947851000000014
 30
0.0
 11
92.100064000000003
 21
101.471851
 31
0.0
  0
LINE
  5
B6
  8
0
 10
92.100064000000003
 20
101.471851
 30
0.0
 11
93.624064000000004
 21
99.947851000000014
 31
0.0
  0
LINE
  5
B7
  8
0
 10
93.624064000000004
 20
99.947851000000014
 30
0.0
 11
95.148064000000005
 21
101.471851
 31
0.0
  0
LINE
  5
B8
  8
0
 10
82.648064000000005
 20
101.16385099999999
 30
0.0
 11
82.648064000000005
 21
111.147851
 31
0.0
  0
LINE
  5
B9
  8
0
 10
83.448064000000016
 20
111.947851
 30
0.0
 11
82.648064000000005
 21
111.147851
 31
0.0
  0
LINE
  5
BA
  8
0
 10
107.64806400000001
 20
111.147851
 30
0.0
 11
82.648064000000005
 21
111.147851
 31
0.0
  0
LINE
  5
BB
  8
0
 10
86.004064
 20
101.471851
 30
0.0
 11
87.528064000000001
 21
99.947851000000014
 31
0.0
  0
LINE
  5
BC
  8
0
 10
87.528064000000001
 20
99.947851000000014
 30
0.0
 11
89.052064000000001
 21
101.471851
 31
0.0
  0
LINE
  5
BD
  8
0
 10
89.052064000000001
 20
101.471851
 30
0.0
 11
90.576064000000002
 21
99.947851000000014
 31
0.0
  0
LINE
  5
BE
  8
1
 10
95.148064000000005
 20
97.447851000000014
 30
0.0
 11
95.148064000000005
 21
114.447851
 31
0.0
  0
LINE
  5
BF
  8
2
 10
98.148064000000005
 20
111.689351
 30
0.0
 11
98.148064000000005
 21
101.423851
 31
0.0
  0
LINE
  5
C0
  8
2
 10
97.60656400000002
 20
111.147851
 30
0.0
 11
97.60656400000002
 21
100.882351
 31
0.0
  0
LINE
  5
C1
  8
2
 10
92.689564000000004
 20
111.147851
 30
0.0
 11
92.689564000000004
 21
100.882351
 31
0.0
  0
LINE
  5
C2
  8
2
 10
92.148064000000005
 20
111.689351
 30
0.0
 11
92.148064000000005
 21
101.423851
 31
0.0
  0
LINE
  5
C3
  8
2
 10
98.406564000000003
 20
111.947851
 30
0.0
 11
97.60656400000002
 21
111.147851
 31
0.0
  0
LINE
  5
C4
  8
2
 10
92.689564000000004
 20
111.147851
 30
0.0
 11
91.889563999999993
 21
111.947851
 31
0.0
  0
LINE
  5
C5
  8
0
 10
102.768064
 20
99.947851000000014
 30
0.0
 11
101.24406399999999
 21
101.471851
 31
0.0
  0
LINE
  5
C6
  8
0
 10
101.24406399999999
 20
101.471851
 30
0.0
 11
99.720064000000008
 21
99.947851000000014
 31
0.0
  0
LINE
  5
C7
  8
0
 10
104.292064
 20
101.471851
 30
0.0
 11
102.768064
 21
99.947851000000014
 31
0.0
  0
LINE
  5
C8
  8
0
 10
107.340064
 20
101.471851
 30
0.0
 11
105.816064
 21
99.947851000000014
 31
0.0
  0
LINE
  5
C9
  8
0
 10
105.816064
 20
99.947851000000014
 30
0.0
 11
104.292064
 21
101.471851
 31
0.0
  0
LINE
  5
CA
  8
0
 10
107.64806400000001
 20
101.16385099999999
 30
0.0
 11
107.340064
 21
101.471851
 31
0.0
  0
LINE
  5
CB
  8
0
 10
82.648064000000005
 20
101.16385099999999
 30
0.0
 11
82.956063999999998
 21
101.471851
 31
0.0
  0
LINE
  5
CC
  8
0
 10
84.480063999999999
 20
99.947851000000014
 30
0.0
 11
86.004064
 21
101.471851
 31
0.0
  0
LINE
  5
CD
  8
0
 10
82.956063999999998
 20
101.471851
 30
0.0
 11
84.480063999999999
 21
99.947851000000014
 31
0.0
  0
LINE
  5
CE
  8
0
 10
99.548063999999997
 20
103.697851
 30
0.0
 11
99.548063999999997
 21
108.197851
 31
0.0
  0
LINE
  5
CF
  8
0
 10
90.748063999999985
 20
103.697851
 30
0.0
 11
90.748063999999985
 21
108.197851
 31
0.0
  0
LINE
  5
D0
  8
0
 10
90.748063999999985
 20
103.697851
 30
0.0
 11
99.548063999999997
 21
103.697851
 31
0.0
  0
LINE
  5
D1
  8
0
 10
90.748063999999985
 20
108.197851
 30
0.0
 11
99.548063999999997
 21
108.197851
 31
0.0
  0
LINE
  5
10E
  8
0
 10
48.821993458833958
 20
68.048000000000002
 30
0.0
 11
50.345993458833959
 21
66.524000000000001
 31
0.0
  0
LINE
  5
10F
  8
0
 10
38.345993458833959
 20
76.700000000000003
 30
0.0
 11
38.345993458833959
 21
53.299999999999997
 31
0.0
  0
LINE
  5
110
  8
0
 10
39.145993458833942
 20
77.5
 30
0.0
 11
39.145993458833942
 21
52.5
 31
0.0
  0
LINE
  5
111
  8
2
 10
38.345993458833959
 20
68.258499999999984
 30
0.0
 11
39.145993458833942
 21
67.458500000000001
 31
0.0
  0
LINE
  5
112
  8
1
 10
52.845993458833959
 20
65.0
 30
0.0
 11
35.845993458833959
 21
65.0
 31
0.0
  0
LINE
  5
113
  8
0
 10
48.821993458833958
 20
55.856000000000002
 30
0.0
 11
50.345993458833959
 21
57.380000000000003
 31
0.0
  0
LINE
  5
114
  8
0
 10
49.129993458833951
 20
52.5
 30
0.0
 11
39.145993458833942
 21
52.5
 31
0.0
  0
LINE
  5
115
  8
0
 10
48.821993458833958
 20
52.808
 30
0.0
 11
50.345993458833959
 21
54.332000000000001
 31
0.0
  0
LINE
  5
116
  8
0
 10
49.129993458833951
 20
52.5
 30
0.0
 11
48.821993458833958
 21
52.808
 31
0.0
  0
LINE
  5
117
  8
0
 10
50.345993458833959
 20
54.332000000000001
 30
0.0
 11
48.821993458833958
 21
55.856000000000002
 31
0.0
  0
LINE
  5
118
  8
0
 10
38.345993458833959
 20
53.299999999999997
 30
0.0
 11
39.145993458833942
 21
52.5
 31
0.0
  0
LINE
  5
119
  8
2
 10
38.604493458833957
 20
62.0
 30
0.0
 11
48.86999345883396
 21
62.0
 31
0.0
  0
LINE
  5
11A
  8
2
 10
39.145993458833942
 20
62.541499999999999
 30
0.0
 11
49.411493458833952
 21
62.541499999999999
 31
0.0
  0
LINE
  5
11B
  8
2
 10
39.145993458833942
 20
67.458500000000001
 30
0.0
 11
49.411493458833952
 21
67.458500000000001
 31
0.0
  0
LINE
  5
11C
  8
0
 10
48.821993458833958
 20
61.951999999999991
 30
0.0
 11
50.345993458833959
 21
63.475999999999999
 31
0.0
  0
LINE
  5
11D
  8
0
 10
48.821993458833958
 20
58.903999999999989
 30
0.0
 11
50.345993458833959
 21
60.427999999999997
 31
0.0
  0
LINE
  5
11E
  8
0
 10
50.345993458833959
 20
57.380000000000003
 30
0.0
 11
48.821993458833958
 21
58.903999999999989
 31
0.0
  0
LINE
  5
11F
  8
0
 10
50.345993458833959
 20
60.427999999999997
 30
0.0
 11
48.821993458833958
 21
61.951999999999991
 31
0.0
  0
LINE
  5
120
  8
0
 10
50.345993458833959
 20
63.475999999999999
 30
0.0
 11
48.821993458833958
 21
65.0
 31
0.0
  0
LINE
  5
121
  8
0
 10
50.345993458833959
 20
66.524000000000001
 30
0.0
 11
48.821993458833958
 21
65.0
 31
0.0
  0
LINE
  5
122
  8
2
 10
39.145993458833942
 20
62.541499999999999
 30
0.0
 11
38.345993458833959
 21
61.741500000000002
 31
0.0
  0
LINE
  5
123
  8
1
 10
44.345993458833959
 20
80.0
 30
0.0
 11
44.345993458833959
 21
74.200000000000003
 31
0.0
  0
LINE
  5
124
  8
2
 10
38.604493458833957
 20
68.0
 30
0.0
 11
48.86999345883396
 21
68.0
 31
0.0
  0
LINE
  5
125
  8
0
 10
41.970993458833959
 20
76.700000000000003
 30
0.0
 11
46.720993458833952
 21
76.700000000000003
 31
0.0
  0
LINE
  5
126
  8
0
 10
48.821993458833958
 20
74.143999999999991
 30
0.0
 11
50.345993458833959
 21
72.620000000000005
 31
0.0
  0
LINE
  5
127
  8
0
 10
48.821993458833958
 20
71.096000000000004
 30
0.0
 11
50.345993458833959
 21
69.572000000000003
 31
0.0
  0
LINE
  5
128
  8
0
 10
50.345993458833959
 20
69.572000000000003
 30
0.0
 11
48.821993458833958
 21
68.048000000000002
 31
0.0
  0
LINE
  5
129
  8
0
 10
50.345993458833959
 20
72.620000000000005
 30
0.0
 11
48.821993458833958
 21
71.096000000000004
 31
0.0
  0
LINE
  5
12A
  8
0
 10
49.129993458833951
 20
77.5
 30
0.0
 11
46.720993458833952
 21
77.5
 31
0.0
  0
LINE
  5
12B
  8
0
 10
50.345993458833959
 20
75.668000000000006
 30
0.0
 11
48.821993458833958
 21
74.143999999999991
 31
0.0
  0
LINE
  5
12C
  8
0
 10
49.129993458833951
 20
77.5
 30
0.0
 11
48.821993458833958
 21
77.191999999999993
 31
0.0
  0
LINE
  5
12D
  8
0
 10
48.821993458833958
 20
77.191999999999993
 30
0.0
 11
50.345993458833959
 21
75.668000000000006
 31
0.0
  0
LINE
  5
12E
  8
0
 10
46.720993458833952
 20
76.700000000000003
 30
0.0
 11
46.720993458833952
 21
77.5
 31
0.0
  0
LINE
  5
12F
  8
0
 10
41.970993458833959
 20
77.5
 30
0.0
 11
39.145993458833942
 21
77.5
 31
0.0
  0
LINE
  5
130
  8
0
 10
41.970993458833959
 20
77.5
 30
0.0
 11
41.970993458833959
 21
76.700000000000003
 31
0.0
  0
LINE
  5
131
  8
0
 10
38.345993458833959
 20
76.700000000000003
 30
0.0
 11
39.145993458833942
 21
77.5
 31
0.0
  0
TEXT
  5
278
  8
0
 62
     3
 10
0.0
 20
0.0
 30
0.0
 40
5.0
  1
HS-252
  7
STANDARD1
  0
ENDSEC
  0
EOF
