  0
SECTION
  2
HEADER
  9
$ACADVER
  1
AC1009
  9
$INSBASE
 10
0.0
 20
0.0
 30
0.0
  9
$EXTMIN
 10
0.0
 20
-1.4802182810368341
 30
0.0
  9
$EXTMAX
 10
150.44237899999999
 20
112.561424
 30
0.0
  9
$LIMMIN
 10
0.0
 20
0.0
  9
$LIMMAX
 10
187.5
 20
135.0
  9
$ORTHOMODE
 70
     1
  9
$REGENMODE
 70
     1
  9
$FILLMODE
 70
     1
  9
$QTEXTMODE
 70
     0
  9
$MIRRTEXT
 70
     0
  9
$DRAGMODE
 70
     2
  9
$LTSCALE
 40
5.0
  9
$OSMODE
 70
    55
  9
$ATTMODE
 70
     1
  9
$TEXTSIZE
 40
1.6000000000000001
  9
$TRACEWID
 40
0.05
  9
$TEXTSTYLE
  7
STANDARD
  9
$CLAYER
  8
0
  9
$CELTYPE
  6
BYLAYER
  9
$CECOLOR
 62
   256
  9
$DIMSCALE
 40
0.5
  9
$DIMASZ
 40
3.0
  9
$DIMEXO
 40
2.0
  9
$DIMDLI
 40
10.0
  9
$DIMRND
 40
0.0
  9
$DIMDLE
 40
0.0
  9
$DIMEXE
 40
2.0
  9
$DIMTP
 40
0.0
  9
$DIMTM
 40
0.0
  9
$DIMTXT
 40
3.2000000000000002
  9
$DIMCEN
 40
0.09
  9
$DIMTSZ
 40
0.0
  9
$DIMTOL
 70
     0
  9
$DIMLIM
 70
     0
  9
$DIMTIH
 70
     0
  9
$DIMTOH
 70
     0
  9
$DIMSE1
 70
     0
  9
$DIMSE2
 70
     0
  9
$DIMTAD
 70
     1
  9
$DIMZIN
 70
     0
  9
$DIMBLK
  1

  9
$DIMASO
 70
     0
  9
$DIMSHO
 70
     0
  9
$DIMPOST
  1

  9
$DIMAPOST
  1

  9
$DIMALT
 70
     0
  9
$DIMALTD
 70
     2
  9
$DIMALTF
 40
25.399999999999999
  9
$DIMLFAC
 40
1.0
  9
$DIMTOFL
 70
     1
  9
$DIMTVP
 40
1.6000000000000001
  9
$DIMTIX
 70
     1
  9
$DIMSOXD
 70
     0
  9
$DIMSAH
 70
     0
  9
$DIMBLK1
  1

  9
$DIMBLK2
  1

  9
$DIMSTYLE
  2
STANDARD
  9
$DIMCLRD
 70
     0
  9
$DIMCLRE
 70
     0
  9
$DIMCLRT
 70
     0
  9
$DIMTFAC
 40
1.0
  9
$DIMGAP
 40
0.09
  9
$LUNITS
 70
     2
  9
$LUPREC
 70
     4
  9
$SKETCHINC
 40
0.1
  9
$FILLETRAD
 40
0.0
  9
$AUNITS
 70
     0
  9
$AUPREC
 70
     0
  9
$MENU
  1
E:\r13\win\SUPPORT\ACAD
  9
$ELEVATION
 40
0.0
  9
$PELEVATION
 40
0.0
  9
$THICKNESS
 40
0.0
  9
$LIMCHECK
 70
     0
  9
$BLIPMODE
 70
     0
  9
$CHAMFERA
 40
0.0
  9
$CHAMFERB
 40
0.0
  9
$SKPOLY
 70
     0
  9
$TDCREATE
 40
2449840.594606481
  9
$TDUPDATE
 40
2456598.6928342129
  9
$TDINDWG
 40
0.0018506134
  9
$TDUSRTIMER
 40
0.0018506134
  9
$USRTIMER
 70
     1
  9
$ANGBASE
 50
0.0
  9
$ANGDIR
 70
     0
  9
$PDMODE
 70
     0
  9
$PDSIZE
 40
0.0
  9
$PLINEWID
 40
0.0
  9
$COORDS
 70
     1
  9
$SPLFRAME
 70
     0
  9
$SPLINETYPE
 70
     6
  9
$SPLINESEGS
 70
     8
  9
$ATTDIA
 70
     0
  9
$ATTREQ
 70
     1
  9
$HANDLING
 70
     1
  9
$HANDSEED
  5
2FE
  9
$SURFTAB1
 70
     6
  9
$SURFTAB2
 70
     6
  9
$SURFTYPE
 70
     6
  9
$SURFU
 70
     6
  9
$SURFV
 70
     6
  9
$UCSNAME
  2

  9
$UCSORG
 10
0.0
 20
0.0
 30
0.0
  9
$UCSXDIR
 10
1.0
 20
0.0
 30
0.0
  9
$UCSYDIR
 10
0.0
 20
1.0
 30
0.0
  9
$PUCSNAME
  2

  9
$PUCSORG
 10
0.0
 20
0.0
 30
0.0
  9
$PUCSXDIR
 10
1.0
 20
0.0
 30
0.0
  9
$PUCSYDIR
 10
0.0
 20
1.0
 30
0.0
  9
$USERI1
 70
     0
  9
$USERI2
 70
     1
  9
$USERI3
 70
     0
  9
$USERI4
 70
     0
  9
$USERI5
 70
     0
  9
$USERR1
 40
0.0
  9
$USERR2
 40
0.0
  9
$USERR3
 40
0.0
  9
$USERR4
 40
0.0
  9
$USERR5
 40
0.0
  9
$WORLDVIEW
 70
     1
  9
$SHADEDGE
 70
     3
  9
$SHADEDIF
 70
    70
  9
$TILEMODE
 70
     1
  9
$MAXACTVP
 70
    16
  9
$PLIMCHECK
 70
     0
  9
$PEXTMIN
 10
1.0000000000000000E+020
 20
1.0000000000000000E+020
 30
1.0000000000000000E+020
  9
$PEXTMAX
 10
-1.0000000000000000E+020
 20
-1.0000000000000000E+020
 30
-1.0000000000000000E+020
  9
$PLIMMIN
 10
0.0
 20
0.0
  9
$PLIMMAX
 10
12.0
 20
9.0
  9
$UNITMODE
 70
     0
  9
$VISRETAIN
 70
     0
  9
$PLINEGEN
 70
     0
  9
$PSLTSCALE
 70
     0
  0
ENDSEC
  0
SECTION
  2
TABLES
  0
TABLE
  2
VPORT
 70
     1
  0
VPORT
  2
*ACTIVE
 70
     0
 10
0.0
 20
0.0
 11
1.0
 21
1.0
 12
93.74713919532617
 22
87.458386271734256
 13
0.0
 23
0.0
 14
5.0
 24
5.0
 15
5.0
 25
5.0
 16
0.0
 26
0.0
 36
1.0
 17
0.0
 27
0.0
 37
0.0
 40
179.46013949787169
 41
1.7807262569832401
 42
50.0
 43
0.0
 44
0.0
 50
0.0
 51
0.0
 71
     0
 72
   100
 73
     1
 74
     0
 75
     0
 76
     0
 77
     0
 78
     0
  0
ENDTAB
  0
TABLE
  2
LTYPE
 70
     4
  0
LTYPE
  2
CONTINUOUS
 70
     0
  3
Solid Line
 72
    65
 73
     0
 40
0.0
  0
LTYPE
  2
CENTER
 70
     0
  3
____ _ ____ _ ____ _ ____ _ ____ _ ____ _ ____
 72
    65
 73
     4
 40
2.0
 49
1.25
 49
-0.25
 49
0.25
 49
-0.25
  0
LTYPE
  2
HIDDEN
 70
     0
  3
_ _ _ _ _ _ _ _ _ _ _ _ _ _ _ _ _ _ _ _ _ _ _
 72
    65
 73
     2
 40
0.375
 49
0.25
 49
-0.125
  0
LTYPE
  2
PHANTOM2
 70
     0
  3
___ _ _ ___ _ _ ___ _ _ ___ _ _
 72
    65
 73
     6
 40
1.25
 49
0.625
 49
-0.125
 49
0.125
 49
-0.125
 49
0.125
 49
-0.125
  0
ENDTAB
  0
TABLE
  2
LAYER
 70
     4
  0
LAYER
  2
0
 70
     0
 62
     7
  6
CONTINUOUS
  0
LAYER
  2
1
 70
     0
 62
     1
  6
CENTER
  0
LAYER
  2
2
 70
     0
 62
     2
  6
HIDDEN
  0
LAYER
  2
3
 70
     0
 62
     3
  6
CONTINUOUS
  0
ENDTAB
  0
TABLE
  2
STYLE
 70
     2
  0
STYLE
  2
STANDARD
 70
     0
 40
0.0
 41
1.0
 50
0.0
 71
     0
 42
1.6000000000000001
  3
TXT
  4
BIGFONT
  0
STYLE
  2
STANDARD1
 70
     0
 40
0.0
 41
1.0
 50
0.0
 71
     0
 42
3.0
  3
txt
  4

  0
ENDTAB
  0
TABLE
  2
VIEW
 70
     1
  0
VIEW
  2
ALL
 70
     0
 40
135.0
 10
110.49579799999999
 20
67.5
 41
0.0
 11
0.0
 21
0.0
 31
1.0
 12
0.0
 22
0.0
 32
0.0
 42
0.0
 43
0.0
 44
0.0
 50
0.0
 71
     0
  0
ENDTAB
  0
TABLE
  2
UCS
 70
     0
  0
ENDTAB
  0
TABLE
  2
APPID
 70
     3
  0
APPID
  2
ACAD
 70
     0
  0
APPID
  2
ACAD_MLEADERVER
 70
     0
  0
APPID
  2
ACAD_NAV_VCDISPLAY
 70
     0
  0
ENDTAB
  0
TABLE
  2
DIMSTYLE
 70
     1
  0
DIMSTYLE
  2
STANDARD
 70
     0
  3

  4

  5

  6

  7

 40
1.0
 41
0.18
 42
0.0625
 43
0.38
 44
0.18
 45
0.0
 46
0.0
 47
0.0
 48
0.0
140
0.18
141
0.09
142
0.0
143
25.399999999999999
144
1.0
145
0.0
146
1.0
147
0.09
 71
     0
 72
     0
 73
     1
 74
     1
 75
     0
 76
     0
 77
     0
 78
     0
170
     0
171
     2
172
     0
173
     0
174
     0
175
     0
176
     0
177
     0
178
     0
  0
ENDTAB
  0
ENDSEC
  0
SECTION
  2
BLOCKS
  0
BLOCK
  8
0
  2
$MODEL_SPACE
 70
     0
 10
0.0
 20
0.0
 30
0.0
  3
$MODEL_SPACE
  1

  0
ENDBLK
  5
1B0
  8
0
  0
BLOCK
 67
     1
  8
0
  2
$PAPER_SPACE
 70
     0
 10
0.0
 20
0.0
 30
0.0
  3
$PAPER_SPACE
  1

  0
ENDBLK
  5
1AE
 67
     1
  8
0
  0
ENDSEC
  0
SECTION
  2
ENTITIES
  0
LINE
  5
36
  8
1
 10
80.442379000000003
 20
65.886709999999994
 30
0.0
 11
105.442379
 21
65.886709999999994
 31
0.0
  0
LINE
  5
37
  8
1
 10
92.942379000000003
 20
78.386709999999994
 30
0.0
 11
92.942379000000003
 21
53.386710000000001
 31
0.0
  0
LINE
  5
38
  8
0
 10
147.94237899999999
 20
75.086709999999997
 30
0.0
 11
147.94237899999999
 21
56.686709999999991
 31
0.0
  0
LINE
  5
39
  8
0
 10
136.61037899999999
 20
75.886709999999994
 30
0.0
 11
147.14237900000001
 21
75.886709999999994
 31
0.0
  0
LINE
  5
3A
  8
0
 10
147.94237899999999
 20
75.086709999999997
 30
0.0
 11
147.14237900000001
 21
75.886709999999994
 31
0.0
  0
LINE
  5
3B
  8
0
 10
135.94237899999999
 20
67.410709999999995
 30
0.0
 11
137.46637899999999
 21
65.886709999999994
 31
0.0
  0
LINE
  5
3C
  8
0
 10
137.46637899999999
 20
68.934709999999995
 30
0.0
 11
135.94237899999999
 21
67.410709999999995
 31
0.0
  0
LINE
  5
3D
  8
0
 10
135.94237899999999
 20
70.458709999999996
 30
0.0
 11
137.46637899999999
 21
68.934709999999995
 31
0.0
  0
LINE
  5
3E
  8
0
 10
135.94237899999999
 20
61.314709999999998
 30
0.0
 11
137.46637899999999
 21
62.838709999999999
 31
0.0
  0
LINE
  5
3F
  8
0
 10
137.46637899999999
 20
62.838709999999999
 30
0.0
 11
135.94237899999999
 21
64.362709999999993
 31
0.0
  0
LINE
  5
40
  8
0
 10
135.94237899999999
 20
64.362709999999993
 30
0.0
 11
137.46637899999999
 21
65.886709999999994
 31
0.0
  0
LINE
  5
41
  8
0
 10
136.61037899999999
 20
55.886710000000001
 30
0.0
 11
147.14237900000001
 21
55.886710000000001
 31
0.0
  0
LINE
  5
42
  8
0
 10
147.94237899999999
 20
56.686709999999991
 30
0.0
 11
147.14237900000001
 21
55.886710000000001
 31
0.0
  0
LINE
  5
43
  8
0
 10
147.14237900000001
 20
75.886709999999994
 30
0.0
 11
147.14237900000001
 21
55.886710000000001
 31
0.0
  0
LINE
  5
44
  8
3
 10
102.942379
 20
68.934709999999995
 30
0.0
 11
82.942379000000003
 21
68.934709999999995
 31
0.0
  0
LINE
  5
45
  8
3
 10
102.942379
 20
65.886709999999994
 30
0.0
 11
95.009379000000024
 21
65.886709999999994
 31
0.0
  0
LINE
  5
46
  8
3
 10
102.942379
 20
62.838709999999999
 30
0.0
 11
82.942379000000003
 21
62.838709999999999
 31
0.0
  0
LINE
  5
47
  8
3
 10
89.894379000000001
 20
75.886709999999994
 30
0.0
 11
89.894379000000001
 21
55.886710000000001
 31
0.0
  0
LINE
  5
48
  8
3
 10
92.942379000000003
 20
75.886709999999994
 30
0.0
 11
92.942379000000003
 21
67.953710000000001
 31
0.0
  0
LINE
  5
49
  8
3
 10
95.990379000000004
 20
75.886709999999994
 30
0.0
 11
95.990379000000004
 21
55.886710000000001
 31
0.0
  0
LINE
  5
4A
  8
3
 10
102.942379
 20
75.886709999999994
 30
0.0
 11
94.403968999999989
 21
67.348299999999995
 31
0.0
  0
LINE
  5
4B
  8
3
 10
96.846378999999999
 20
75.886709999999994
 30
0.0
 11
82.942379000000003
 21
61.982709999999997
 31
0.0
  0
LINE
  5
4C
  8
3
 10
102.942379
 20
69.790710000000004
 30
0.0
 11
89.038379000000006
 21
55.886710000000001
 31
0.0
  0
LINE
  5
4D
  8
3
 10
89.038379000000006
 20
75.886709999999994
 30
0.0
 11
102.942379
 21
61.982709999999997
 31
0.0
  0
LINE
  5
4E
  8
3
 10
85.990379000000004
 20
75.886709999999994
 30
0.0
 11
102.942379
 21
58.934709999999988
 31
0.0
  0
LINE
  5
4F
  8
3
 10
82.942379000000003
 20
75.886709999999994
 30
0.0
 11
91.480789999999999
 21
67.348299999999995
 31
0.0
  0
LINE
  5
50
  8
3
 10
82.942379000000003
 20
72.838709999999992
 30
0.0
 11
99.894379000000001
 21
55.886710000000001
 31
0.0
  0
LINE
  5
51
  8
3
 10
82.942379000000003
 20
69.790710000000004
 30
0.0
 11
96.846378999999999
 21
55.886710000000001
 31
0.0
  0
LINE
  5
52
  8
3
 10
92.942379000000003
 20
63.42821
 30
0.0
 11
92.942379000000003
 21
55.886710000000001
 31
0.0
  0
LINE
  5
53
  8
3
 10
94.403968999999989
 20
64.42512099999999
 30
0.0
 11
102.942379
 21
55.886710000000001
 31
0.0
  0
LINE
  5
54
  8
3
 10
90.875378999999995
 20
65.886709999999994
 30
0.0
 11
82.942379000000003
 21
65.886709999999994
 31
0.0
  0
LINE
  5
55
  8
3
 10
91.480789999999999
 20
64.42512099999999
 30
0.0
 11
82.942379000000003
 21
55.886710000000001
 31
0.0
  0
LINE
  5
56
  8
3
 10
92.086379000000008
 20
75.886709999999994
 30
0.0
 11
102.942379
 21
65.030709999999999
 31
0.0
  0
LINE
  5
57
  8
3
 10
99.038379000000006
 20
75.886709999999994
 30
0.0
 11
99.038379000000006
 21
55.886710000000001
 31
0.0
  0
LINE
  5
58
  8
3
 10
82.942379000000003
 20
71.982709999999997
 30
0.0
 11
102.942379
 21
71.982709999999997
 31
0.0
  0
LINE
  5
59
  8
3
 10
82.942379000000003
 20
65.030709999999999
 30
0.0
 11
93.798378999999997
 21
75.886709999999994
 31
0.0
  0
LINE
  5
5A
  8
3
 10
86.846378999999999
 20
55.886710000000001
 30
0.0
 11
86.846378999999999
 21
75.886709999999994
 31
0.0
  0
LINE
  5
5B
  8
3
 10
93.798378999999997
 20
55.886710000000001
 30
0.0
 11
82.942379000000003
 21
66.742710000000002
 31
0.0
  0
LINE
  5
5C
  8
3
 10
102.942379
 20
59.790709999999997
 30
0.0
 11
82.942379000000003
 21
59.790709999999997
 31
0.0
  0
LINE
  5
5D
  8
3
 10
102.942379
 20
66.742710000000002
 30
0.0
 11
92.086379000000008
 21
55.886710000000001
 31
0.0
  0
LINE
  5
5E
  8
0
 10
137.46637899999999
 20
56.742710000000002
 30
0.0
 11
135.94237899999999
 21
58.266710000000003
 31
0.0
  0
LINE
  5
5F
  8
0
 10
135.94237899999999
 20
58.266710000000003
 30
0.0
 11
137.46637899999999
 21
59.790709999999997
 31
0.0
  0
LINE
  5
60
  8
0
 10
137.46637899999999
 20
59.790709999999997
 30
0.0
 11
135.94237899999999
 21
61.314709999999998
 31
0.0
  0
LINE
  5
61
  8
1
 10
133.44237899999999
 20
65.886709999999994
 30
0.0
 11
150.44237899999999
 21
65.886709999999994
 31
0.0
  0
LINE
  5
62
  8
3
 10
99.894379000000001
 20
75.886709999999994
 30
0.0
 11
82.942379000000003
 21
58.934709999999988
 31
0.0
  0
LINE
  5
63
  8
3
 10
102.942379
 20
72.838709999999992
 30
0.0
 11
85.990379000000004
 21
55.886710000000001
 31
0.0
  0
LINE
  5
64
  8
0
 10
135.94237899999999
 20
73.506709999999998
 30
0.0
 11
137.46637899999999
 21
71.982709999999997
 31
0.0
  0
LINE
  5
65
  8
0
 10
137.46637899999999
 20
71.982709999999997
 30
0.0
 11
135.94237899999999
 21
70.458709999999996
 31
0.0
  0
LINE
  5
66
  8
0
 10
137.46637899999999
 20
75.030709999999999
 30
0.0
 11
135.94237899999999
 21
73.506709999999998
 31
0.0
  0
LINE
  5
67
  8
0
 10
136.61037899999999
 20
75.886709999999994
 30
0.0
 11
137.46637899999999
 21
75.030709999999999
 31
0.0
  0
LINE
  5
68
  8
0
 10
136.61037899999999
 20
55.886710000000001
 30
0.0
 11
137.46637899999999
 21
56.742710000000002
 31
0.0
  0
LINE
  5
69
  8
3
 10
102.942379
 20
63.694710000000001
 30
0.0
 11
95.13437900000001
 21
55.886710000000001
 31
0.0
  0
LINE
  5
6A
  8
3
 10
102.08637899999999
 20
75.886709999999994
 30
0.0
 11
102.08637899999999
 21
55.886710000000001
 31
0.0
  0
LINE
  5
6B
  8
3
 10
95.13437900000001
 20
75.886709999999994
 30
0.0
 11
102.942379
 21
68.078710000000001
 31
0.0
  0
LINE
  5
6C
  8
3
 10
82.942379000000003
 20
75.030709999999999
 30
0.0
 11
102.942379
 21
75.030709999999999
 31
0.0
  0
LINE
  5
6D
  8
3
 10
82.942379000000003
 20
68.078710000000001
 30
0.0
 11
90.750379000000009
 21
75.886709999999994
 31
0.0
  0
LINE
  5
6E
  8
3
 10
83.798378999999997
 20
55.886710000000001
 30
0.0
 11
83.798378999999997
 21
75.886709999999994
 31
0.0
  0
LINE
  5
6F
  8
3
 10
90.750379000000009
 20
55.886710000000001
 30
0.0
 11
82.942379000000003
 21
63.694710000000001
 31
0.0
  0
LINE
  5
70
  8
3
 10
102.942379
 20
56.742710000000002
 30
0.0
 11
82.942379000000003
 21
56.742710000000002
 31
0.0
  0
LINE
  5
71
  8
0
 10
102.942379
 20
75.886709999999994
 30
0.0
 11
82.942379000000003
 21
75.886709999999994
 31
0.0
  0
LINE
  5
72
  8
0
 10
82.942379000000003
 20
75.886709999999994
 30
0.0
 11
82.942379000000003
 21
55.886710000000001
 31
0.0
  0
LINE
  5
73
  8
0
 10
82.942379000000003
 20
55.886710000000001
 30
0.0
 11
102.942379
 21
55.886710000000001
 31
0.0
  0
LINE
  5
74
  8
0
 10
102.942379
 20
55.886710000000001
 30
0.0
 11
102.942379
 21
75.886709999999994
 31
0.0
  0
LINE
  5
75
  8
3
 10
82.942379000000003
 20
71.126710000000003
 30
0.0
 11
87.702379000000008
 21
75.886709999999994
 31
0.0
  0
LINE
  5
76
  8
3
 10
82.942379000000003
 20
74.174710000000005
 30
0.0
 11
84.654379000000006
 21
75.886709999999994
 31
0.0
  0
LINE
  5
77
  8
3
 10
84.654379000000006
 20
55.886710000000001
 30
0.0
 11
82.942379000000003
 21
57.598709999999997
 31
0.0
  0
LINE
  5
78
  8
3
 10
87.702379000000008
 20
55.886710000000001
 30
0.0
 11
82.942379000000003
 21
60.646709999999999
 31
0.0
  0
LINE
  5
79
  8
3
 10
102.942379
 20
57.598709999999997
 30
0.0
 11
101.230379
 21
55.886710000000001
 31
0.0
  0
LINE
  5
7A
  8
3
 10
102.942379
 20
60.646709999999999
 30
0.0
 11
98.182378999999983
 21
55.886710000000001
 31
0.0
  0
LINE
  5
7B
  8
3
 10
101.230379
 20
75.886709999999994
 30
0.0
 11
102.942379
 21
74.174710000000005
 31
0.0
  0
LINE
  5
7C
  8
3
 10
98.182378999999983
 20
75.886709999999994
 30
0.0
 11
102.942379
 21
71.126710000000003
 31
0.0
  0
CIRCLE
  5
7D
  8
0
 10
92.942379000000003
 20
65.886709999999994
 30
0.0
 40
2.0669999999999988
  0
CIRCLE
  5
7E
  8
3
 10
92.942379000000003
 20
65.886709999999994
 30
0.0
 40
2.5
  0
LINE
  5
7F
  8
2
 10
147.575379
 20
68.386709999999994
 30
0.0
 11
136.91837899999999
 21
68.386709999999994
 31
0.0
  0
LINE
  5
80
  8
2
 10
147.14237900000001
 20
67.953710000000001
 30
0.0
 11
136.48537899999999
 21
67.953710000000001
 31
0.0
  0
LINE
  5
81
  8
2
 10
147.14237900000001
 20
63.819710000000001
 30
0.0
 11
136.48537899999999
 21
63.819710000000001
 31
0.0
  0
LINE
  5
82
  8
2
 10
147.575379
 20
63.386710000000001
 30
0.0
 11
136.91837899999999
 21
63.386710000000001
 31
0.0
  0
LINE
  5
83
  8
2
 10
147.94237899999999
 20
68.753709999999998
 30
0.0
 11
147.14237900000001
 21
67.953710000000001
 31
0.0
  0
LINE
  5
84
  8
2
 10
147.14237900000001
 20
63.819710000000001
 30
0.0
 11
147.94237899999999
 21
63.019709999999989
 31
0.0
  0
LINE
  5
BB
  8
0
 10
102.14237900000001
 20
110.061424
 30
0.0
 11
83.742379
 21
110.061424
 31
0.0
  0
LINE
  5
BC
  8
0
 10
102.942379
 20
98.729423999999995
 30
0.0
 11
102.942379
 21
109.26142400000001
 31
0.0
  0
LINE
  5
BD
  8
0
 10
102.14237900000001
 20
110.061424
 30
0.0
 11
102.942379
 21
109.26142400000001
 31
0.0
  0
LINE
  5
BE
  8
0
 10
94.466379000000003
 20
98.061424000000002
 30
0.0
 11
92.942379000000003
 21
99.585424000000003
 31
0.0
  0
LINE
  5
BF
  8
0
 10
95.990379000000004
 20
99.585424000000003
 30
0.0
 11
94.466379000000003
 21
98.061424000000002
 31
0.0
  0
LINE
  5
C0
  8
0
 10
97.514379000000005
 20
98.061424000000002
 30
0.0
 11
95.990379000000004
 21
99.585424000000003
 31
0.0
  0
LINE
  5
C1
  8
0
 10
88.370379
 20
98.061424000000002
 30
0.0
 11
89.894379000000001
 21
99.585424000000003
 31
0.0
  0
LINE
  5
C2
  8
0
 10
89.894379000000001
 20
99.585424000000003
 30
0.0
 11
91.418379000000002
 21
98.061424000000002
 31
0.0
  0
LINE
  5
C3
  8
0
 10
91.418379000000002
 20
98.061424000000002
 30
0.0
 11
92.942379000000003
 21
99.585424000000003
 31
0.0
  0
LINE
  5
C4
  8
0
 10
82.942379000000003
 20
98.729423999999995
 30
0.0
 11
82.942379000000003
 21
109.26142400000001
 31
0.0
  0
LINE
  5
C5
  8
0
 10
83.742379
 20
110.061424
 30
0.0
 11
82.942379000000003
 21
109.26142400000001
 31
0.0
  0
LINE
  5
C6
  8
0
 10
102.942379
 20
109.26142400000001
 30
0.0
 11
82.942379000000003
 21
109.26142400000001
 31
0.0
  0
LINE
  5
C7
  8
0
 10
83.798378999999997
 20
99.585424000000003
 30
0.0
 11
85.322378999999998
 21
98.061424000000002
 31
0.0
  0
LINE
  5
C8
  8
0
 10
85.322378999999998
 20
98.061424000000002
 30
0.0
 11
86.846378999999999
 21
99.585424000000003
 31
0.0
  0
LINE
  5
C9
  8
0
 10
86.846378999999999
 20
99.585424000000003
 30
0.0
 11
88.370379
 21
98.061424000000002
 31
0.0
  0
LINE
  5
CA
  8
1
 10
92.942379000000003
 20
95.561424000000002
 30
0.0
 11
92.942379000000003
 21
112.561424
 31
0.0
  0
LINE
  5
CB
  8
0
 10
100.56237900000001
 20
98.061424000000002
 30
0.0
 11
99.038379000000006
 21
99.585424000000003
 31
0.0
  0
LINE
  5
CC
  8
0
 10
99.038379000000006
 20
99.585424000000003
 30
0.0
 11
97.514379000000005
 21
98.061424000000002
 31
0.0
  0
LINE
  5
CD
  8
0
 10
102.08637899999999
 20
99.585424000000003
 30
0.0
 11
100.56237900000001
 21
98.061424000000002
 31
0.0
  0
LINE
  5
CE
  8
0
 10
102.942379
 20
98.729423999999995
 30
0.0
 11
102.08637899999999
 21
99.585424000000003
 31
0.0
  0
LINE
  5
CF
  8
0
 10
82.942379000000003
 20
98.729423999999995
 30
0.0
 11
83.798378999999997
 21
99.585424000000003
 31
0.0
  0
LINE
  5
D0
  8
2
 10
95.442379000000003
 20
109.694424
 30
0.0
 11
95.442379000000003
 21
99.037424000000001
 31
0.0
  0
LINE
  5
D1
  8
2
 10
95.009379000000024
 20
109.26142400000001
 30
0.0
 11
95.009379000000024
 21
98.604423999999995
 31
0.0
  0
LINE
  5
D2
  8
2
 10
90.875378999999995
 20
109.26142400000001
 30
0.0
 11
90.875378999999995
 21
98.604423999999995
 31
0.0
  0
LINE
  5
D3
  8
2
 10
90.442379000000003
 20
109.694424
 30
0.0
 11
90.442379000000003
 21
99.037424000000001
 31
0.0
  0
LINE
  5
D4
  8
2
 10
95.809379000000007
 20
110.061424
 30
0.0
 11
95.009379000000024
 21
109.26142400000001
 31
0.0
  0
LINE
  5
D5
  8
2
 10
90.875378999999995
 20
109.26142400000001
 30
0.0
 11
90.075378999999998
 21
110.061424
 31
0.0
  0
LINE
  5
EE
  8
0
 10
48.41837899999998
 20
68.934709999999995
 30
0.0
 11
49.942378999999988
 21
67.410709999999995
 31
0.0
  0
LINE
  5
EF
  8
0
 10
38.742379
 20
75.886709999999994
 30
0.0
 11
38.742379
 21
55.886710000000001
 31
0.0
  0
LINE
  5
F0
  8
0
 10
37.942378999999988
 20
75.086709999999997
 30
0.0
 11
37.942378999999988
 21
56.686709999999991
 31
0.0
  0
LINE
  5
F1
  8
2
 10
38.742379
 20
63.819710000000001
 30
0.0
 11
49.39937900000001
 21
63.819710000000001
 31
0.0
  0
LINE
  5
F2
  8
2
 10
38.309379000000007
 20
63.386710000000001
 30
0.0
 11
48.966378999999989
 21
63.386710000000001
 31
0.0
  0
LINE
  5
F3
  8
0
 10
49.27437900000001
 20
55.886710000000001
 30
0.0
 11
38.742379
 21
55.886710000000001
 31
0.0
  0
LINE
  5
F4
  8
1
 10
52.442378999999988
 20
65.886709999999994
 30
0.0
 11
35.442378999999988
 21
65.886709999999994
 31
0.0
  0
LINE
  5
F5
  8
0
 10
48.41837899999998
 20
56.742710000000002
 30
0.0
 11
49.942378999999988
 21
58.266710000000003
 31
0.0
  0
LINE
  5
F6
  8
0
 10
49.27437900000001
 20
55.886710000000001
 30
0.0
 11
48.41837899999998
 21
56.742710000000002
 31
0.0
  0
LINE
  5
F7
  8
0
 10
49.942378999999988
 20
61.314709999999998
 30
0.0
 11
48.41837899999998
 21
62.838709999999999
 31
0.0
  0
LINE
  5
F8
  8
0
 10
49.942378999999988
 20
58.266710000000003
 30
0.0
 11
48.41837899999998
 21
59.790709999999997
 31
0.0
  0
LINE
  5
F9
  8
0
 10
48.41837899999998
 20
59.790709999999997
 30
0.0
 11
49.942378999999988
 21
61.314709999999998
 31
0.0
  0
LINE
  5
FA
  8
0
 10
49.942378999999988
 20
64.362709999999993
 30
0.0
 11
48.41837899999998
 21
65.886709999999994
 31
0.0
  0
LINE
  5
FB
  8
0
 10
48.41837899999998
 20
62.838709999999999
 30
0.0
 11
49.942378999999988
 21
64.362709999999993
 31
0.0
  0
LINE
  5
FC
  8
0
 10
49.942378999999988
 20
67.410709999999995
 30
0.0
 11
48.41837899999998
 21
65.886709999999994
 31
0.0
  0
LINE
  5
FD
  8
0
 10
37.942378999999988
 20
56.686709999999991
 30
0.0
 11
38.742379
 21
55.886710000000001
 31
0.0
  0
LINE
  5
FE
  8
2
 10
38.742379
 20
63.819710000000001
 30
0.0
 11
37.942378999999988
 21
63.019709999999989
 31
0.0
  0
LINE
  5
FF
  8
0
 10
49.27437900000001
 20
75.886709999999994
 30
0.0
 11
38.742379
 21
75.886709999999994
 31
0.0
  0
LINE
  5
100
  8
2
 10
38.309379000000007
 20
68.386709999999994
 30
0.0
 11
48.966378999999989
 21
68.386709999999994
 31
0.0
  0
LINE
  5
101
  8
2
 10
38.742379
 20
67.953710000000001
 30
0.0
 11
49.39937900000001
 21
67.953710000000001
 31
0.0
  0
LINE
  5
102
  8
0
 10
49.942378999999988
 20
73.506709999999998
 30
0.0
 11
48.41837899999998
 21
71.982709999999997
 31
0.0
  0
LINE
  5
103
  8
0
 10
49.942378999999988
 20
70.458709999999996
 30
0.0
 11
48.41837899999998
 21
68.934709999999995
 31
0.0
  0
LINE
  5
104
  8
0
 10
48.41837899999998
 20
71.982709999999997
 30
0.0
 11
49.942378999999988
 21
70.458709999999996
 31
0.0
  0
LINE
  5
105
  8
0
 10
49.27437900000001
 20
75.886709999999994
 30
0.0
 11
48.41837899999998
 21
75.030709999999999
 31
0.0
  0
LINE
  5
106
  8
0
 10
48.41837899999998
 20
75.030709999999999
 30
0.0
 11
49.942378999999988
 21
73.506709999999998
 31
0.0
  0
LINE
  5
107
  8
2
 10
37.942378999999988
 20
68.753709999999998
 30
0.0
 11
38.742379
 21
67.953710000000001
 31
0.0
  0
LINE
  5
108
  8
0
 10
37.942378999999988
 20
75.086709999999997
 30
0.0
 11
38.742379
 21
75.886709999999994
 31
0.0
  0
LINE
  5
109
  8
0
 10
94.466379000000003
 20
33.711995999999992
 30
0.0
 11
92.942379000000003
 21
32.187995999999991
 31
0.0
  0
LINE
  5
10A
  8
0
 10
102.942379
 20
22.511995999999979
 30
0.0
 11
82.942379000000003
 21
22.511995999999979
 31
0.0
  0
LINE
  5
10B
  8
0
 10
102.14237900000001
 20
21.711995999999989
 30
0.0
 11
83.742379
 21
21.711995999999989
 31
0.0
  0
LINE
  5
10C
  8
1
 10
92.942379000000003
 20
36.211995999999992
 30
0.0
 11
92.942379000000003
 21
19.211995999999981
 31
0.0
  0
LINE
  5
10D
  8
2
 10
90.442379000000003
 20
22.078995999999989
 30
0.0
 11
90.442379000000003
 21
32.735995999999993
 31
0.0
  0
LINE
  5
10E
  8
2
 10
90.875378999999995
 20
22.511995999999979
 30
0.0
 11
90.075378999999998
 21
21.711995999999989
 31
0.0
  0
LINE
  5
10F
  8
0
 10
83.742379
 20
21.711995999999989
 30
0.0
 11
82.942379000000003
 21
22.511995999999979
 31
0.0
  0
LINE
  5
110
  8
0
 10
91.418379000000002
 20
33.711995999999992
 30
0.0
 11
92.942379000000003
 21
32.187995999999991
 31
0.0
  0
LINE
  5
111
  8
0
 10
88.370379
 20
33.711995999999992
 30
0.0
 11
89.894379000000001
 21
32.187995999999991
 31
0.0
  0
LINE
  5
112
  8
0
 10
86.846378999999999
 20
32.187995999999991
 30
0.0
 11
88.370379
 21
33.711995999999992
 31
0.0
  0
LINE
  5
113
  8
0
 10
89.894379000000001
 20
32.187995999999991
 30
0.0
 11
91.418379000000002
 21
33.711995999999992
 31
0.0
  0
LINE
  5
114
  8
2
 10
90.875378999999995
 20
22.511995999999979
 30
0.0
 11
90.875378999999995
 21
33.168995999999993
 31
0.0
  0
LINE
  5
115
  8
0
 10
82.942379000000003
 20
33.043995999999993
 30
0.0
 11
83.798378999999997
 21
32.187995999999991
 31
0.0
  0
LINE
  5
116
  8
0
 10
83.798378999999997
 20
32.187995999999991
 30
0.0
 11
85.322378999999998
 21
33.711995999999992
 31
0.0
  0
LINE
  5
117
  8
0
 10
82.942379000000003
 20
33.043995999999993
 30
0.0
 11
82.942379000000003
 21
22.511995999999979
 31
0.0
  0
LINE
  5
118
  8
0
 10
85.322378999999998
 20
33.711995999999992
 30
0.0
 11
86.846378999999999
 21
32.187995999999991
 31
0.0
  0
LINE
  5
119
  8
2
 10
95.442379000000003
 20
22.078995999999989
 30
0.0
 11
95.442379000000003
 21
32.735995999999993
 31
0.0
  0
LINE
  5
11A
  8
2
 10
95.809379000000007
 20
21.711995999999989
 30
0.0
 11
95.009379000000024
 21
22.511995999999979
 31
0.0
  0
LINE
  5
11B
  8
0
 10
102.14237900000001
 20
21.711995999999989
 30
0.0
 11
102.942379
 21
22.511995999999979
 31
0.0
  0
LINE
  5
11C
  8
0
 10
102.942379
 20
33.043995999999993
 30
0.0
 11
102.08637899999999
 21
32.187995999999991
 31
0.0
  0
LINE
  5
11D
  8
0
 10
102.942379
 20
33.043995999999993
 30
0.0
 11
102.942379
 21
22.511995999999979
 31
0.0
  0
LINE
  5
11E
  8
0
 10
99.038379000000006
 20
32.187995999999991
 30
0.0
 11
97.514379000000005
 21
33.711995999999992
 31
0.0
  0
LINE
  5
11F
  8
0
 10
100.56237900000001
 20
33.711995999999992
 30
0.0
 11
99.038379000000006
 21
32.187995999999991
 31
0.0
  0
LINE
  5
120
  8
0
 10
95.990379000000004
 20
32.187995999999991
 30
0.0
 11
94.466379000000003
 21
33.711995999999992
 31
0.0
  0
LINE
  5
121
  8
0
 10
97.514379000000005
 20
33.711995999999992
 30
0.0
 11
95.990379000000004
 21
32.187995999999991
 31
0.0
  0
LINE
  5
122
  8
2
 10
95.009379000000024
 20
22.511995999999979
 30
0.0
 11
95.009379000000024
 21
33.168995999999993
 31
0.0
  0
LINE
  5
123
  8
0
 10
102.08637899999999
 20
32.187995999999991
 30
0.0
 11
100.56237900000001
 21
33.711995999999992
 31
0.0
  0
TEXT
  5
265
  8
0
 62
     3
 10
0.0
 20
0.0
 30
0.0
 40
5.0
  1
HS-9202
  7
STANDARD1
  0
ENDSEC
  0
EOF
