  0
SECTION
  2
HEADER
  9
$ACADVER
  1
AC1009
  9
$INSBASE
 10
0.0
 20
0.0
 30
0.0
  9
$EXTMIN
 10
-0.0005
 20
-1.4802182810368341
 30
0.0
  9
$EXTMAX
 10
145.04975698031029
 20
114.68238756577421
 30
0.0
  9
$LIMMIN
 10
0.0
 20
0.0
  9
$LIMMAX
 10
187.5
 20
135.0
  9
$ORTHOMODE
 70
     1
  9
$REGENMODE
 70
     1
  9
$FILLMODE
 70
     1
  9
$QTEXTMODE
 70
     0
  9
$MIRRTEXT
 70
     0
  9
$DRAGMODE
 70
     2
  9
$LTSCALE
 40
5.0
  9
$OSMODE
 70
    55
  9
$ATTMODE
 70
     1
  9
$TEXTSIZE
 40
2.5
  9
$TRACEWID
 40
0.05
  9
$TEXTSTYLE
  7
STANDARD
  9
$CLAYER
  8
0
  9
$CELTYPE
  6
BYLAYER
  9
$CECOLOR
 62
   256
  9
$DIMSCALE
 40
0.5
  9
$DIMASZ
 40
3.0
  9
$DIMEXO
 40
2.0
  9
$DIMDLI
 40
10.0
  9
$DIMRND
 40
0.0
  9
$DIMDLE
 40
0.0
  9
$DIMEXE
 40
2.0
  9
$DIMTP
 40
0.0
  9
$DIMTM
 40
0.0
  9
$DIMTXT
 40
3.0
  9
$DIMCEN
 40
0.09
  9
$DIMTSZ
 40
0.0
  9
$DIMTOL
 70
     0
  9
$DIMLIM
 70
     0
  9
$DIMTIH
 70
     0
  9
$DIMTOH
 70
     0
  9
$DIMSE1
 70
     0
  9
$DIMSE2
 70
     0
  9
$DIMTAD
 70
     1
  9
$DIMZIN
 70
     0
  9
$DIMBLK
  1

  9
$DIMASO
 70
     0
  9
$DIMSHO
 70
     0
  9
$DIMPOST
  1

  9
$DIMAPOST
  1

  9
$DIMALT
 70
     0
  9
$DIMALTD
 70
     2
  9
$DIMALTF
 40
25.399999999999999
  9
$DIMLFAC
 40
1.0
  9
$DIMTOFL
 70
     1
  9
$DIMTVP
 40
1.6000000000000001
  9
$DIMTIX
 70
     1
  9
$DIMSOXD
 70
     0
  9
$DIMSAH
 70
     0
  9
$DIMBLK1
  1
ARROW1
  9
$DIMBLK2
  1
ARROW1
  9
$DIMSTYLE
  2
STANDARD
  9
$DIMCLRD
 70
     0
  9
$DIMCLRE
 70
     0
  9
$DIMCLRT
 70
     0
  9
$DIMTFAC
 40
1.0
  9
$DIMGAP
 40
0.09
  9
$LUNITS
 70
     2
  9
$LUPREC
 70
     4
  9
$SKETCHINC
 40
0.1
  9
$FILLETRAD
 40
0.0
  9
$AUNITS
 70
     0
  9
$AUPREC
 70
     0
  9
$MENU
  1
E:\r13\win\SUPPORT\ACAD
  9
$ELEVATION
 40
0.0
  9
$PELEVATION
 40
0.0
  9
$THICKNESS
 40
0.0
  9
$LIMCHECK
 70
     0
  9
$BLIPMODE
 70
     0
  9
$CHAMFERA
 40
2.2999999999999989
  9
$CHAMFERB
 40
2.2999999999999989
  9
$SKPOLY
 70
     0
  9
$TDCREATE
 40
2449840.5944097228
  9
$TDUPDATE
 40
2456598.6932054278
  9
$TDINDWG
 40
0.3177174421
  9
$TDUSRTIMER
 40
0.3177174421
  9
$USRTIMER
 70
     1
  9
$ANGBASE
 50
0.0
  9
$ANGDIR
 70
     0
  9
$PDMODE
 70
     0
  9
$PDSIZE
 40
0.0
  9
$PLINEWID
 40
0.0
  9
$COORDS
 70
     1
  9
$SPLFRAME
 70
     0
  9
$SPLINETYPE
 70
     6
  9
$SPLINESEGS
 70
     8
  9
$ATTDIA
 70
     0
  9
$ATTREQ
 70
     1
  9
$HANDLING
 70
     1
  9
$HANDSEED
  5
3139
  9
$SURFTAB1
 70
     6
  9
$SURFTAB2
 70
     6
  9
$SURFTYPE
 70
     6
  9
$SURFU
 70
     6
  9
$SURFV
 70
     6
  9
$UCSNAME
  2

  9
$UCSORG
 10
0.0
 20
0.0
 30
0.0
  9
$UCSXDIR
 10
1.0
 20
0.0
 30
0.0
  9
$UCSYDIR
 10
0.0
 20
1.0
 30
0.0
  9
$PUCSNAME
  2

  9
$PUCSORG
 10
0.0
 20
0.0
 30
0.0
  9
$PUCSXDIR
 10
1.0
 20
0.0
 30
0.0
  9
$PUCSYDIR
 10
0.0
 20
1.0
 30
0.0
  9
$USERI1
 70
     0
  9
$USERI2
 70
     1
  9
$USERI3
 70
     1
  9
$USERI4
 70
     0
  9
$USERI5
 70
     0
  9
$USERR1
 40
0.0
  9
$USERR2
 40
0.0
  9
$USERR3
 40
0.0
  9
$USERR4
 40
0.0
  9
$USERR5
 40
0.0
  9
$WORLDVIEW
 70
     1
  9
$SHADEDGE
 70
     3
  9
$SHADEDIF
 70
    70
  9
$TILEMODE
 70
     1
  9
$MAXACTVP
 70
    16
  9
$PLIMCHECK
 70
     0
  9
$PEXTMIN
 10
1.0000000000000000E+020
 20
1.0000000000000000E+020
 30
1.0000000000000000E+020
  9
$PEXTMAX
 10
-1.0000000000000000E+020
 20
-1.0000000000000000E+020
 30
-1.0000000000000000E+020
  9
$PLIMMIN
 10
0.0
 20
0.0
  9
$PLIMMAX
 10
12.0
 20
9.0
  9
$UNITMODE
 70
     0
  9
$VISRETAIN
 70
     0
  9
$PLINEGEN
 70
     0
  9
$PSLTSCALE
 70
     0
  0
ENDSEC
  0
SECTION
  2
TABLES
  0
TABLE
  2
VPORT
 70
     1
  0
VPORT
  2
*ACTIVE
 70
     0
 10
0.0
 20
0.0
 11
1.0
 21
1.0
 12
93.746889187697377
 22
87.458210191683364
 13
0.0
 23
0.0
 14
5.0
 24
5.0
 15
5.0
 25
5.0
 16
0.0
 26
0.0
 36
1.0
 17
0.0
 27
0.0
 37
0.0
 40
179.46080416505501
 41
1.7807262569832401
 42
50.0
 43
0.0
 44
0.0
 50
0.0
 51
0.0
 71
     0
 72
   100
 73
     1
 74
     0
 75
     0
 76
     0
 77
     0
 78
     0
  0
ENDTAB
  0
TABLE
  2
LTYPE
 70
     4
  0
LTYPE
  2
CONTINUOUS
 70
     0
  3
Solid Line
 72
    65
 73
     0
 40
0.0
  0
LTYPE
  2
CENTER
 70
     0
  3
____ _ ____ _ ____ _ ____ _ ____ _ ____ _ ____
 72
    65
 73
     4
 40
2.0
 49
1.25
 49
-0.25
 49
0.25
 49
-0.25
  0
LTYPE
  2
HIDDEN
 70
     0
  3
_ _ _ _ _ _ _ _ _ _ _ _ _ _ _ _ _ _ _ _ _ _ _
 72
    65
 73
     2
 40
0.375
 49
0.25
 49
-0.125
  0
LTYPE
  2
PHANTOM2
 70
     0
  3
___ _ _ ___ _ _ ___ _ _ ___ _ _
 72
    65
 73
     6
 40
1.25
 49
0.625
 49
-0.125
 49
0.125
 49
-0.125
 49
0.125
 49
-0.125
  0
ENDTAB
  0
TABLE
  2
LAYER
 70
     6
  0
LAYER
  2
0
 70
     0
 62
     7
  6
CONTINUOUS
  0
LAYER
  2
1
 70
     0
 62
     1
  6
CENTER
  0
LAYER
  2
2
 70
     0
 62
     2
  6
HIDDEN
  0
LAYER
  2
3
 70
     0
 62
     3
  6
CONTINUOUS
  0
LAYER
  2
WAKU
 70
     0
 62
     5
  6
CONTINUOUS
  0
LAYER
  2
ITTEN
 70
     0
 62
     1
  6
CENTER
  0
ENDTAB
  0
TABLE
  2
STYLE
 70
     2
  0
STYLE
  2
STANDARD
 70
     0
 40
0.0
 41
1.0
 50
0.0
 71
     0
 42
2.5
  3
TXT
  4
BIGFONT
  0
STYLE
  2
STANDARD1
 70
     0
 40
0.0
 41
1.0
 50
0.0
 71
     0
 42
3.0
  3
txt
  4

  0
ENDTAB
  0
TABLE
  2
VIEW
 70
     1
  0
VIEW
  2
ALL
 70
     0
 40
135.0
 10
110.49579799999999
 20
67.5
 41
0.0
 11
0.0
 21
0.0
 31
1.0
 12
0.0
 22
0.0
 32
0.0
 42
0.0
 43
0.0
 44
0.0
 50
0.0
 71
     0
  0
ENDTAB
  0
TABLE
  2
UCS
 70
     0
  0
ENDTAB
  0
TABLE
  2
APPID
 70
     4
  0
APPID
  2
ACAD
 70
     0
  0
APPID
  2
DCO15
 70
     0
  0
APPID
  2
ACAD_MLEADERVER
 70
     0
  0
APPID
  2
ACAD_NAV_VCDISPLAY
 70
     0
  0
ENDTAB
  0
TABLE
  2
DIMSTYLE
 70
     1
  0
DIMSTYLE
  2
STANDARD
 70
     0
  3

  4

  5

  6

  7

 40
1.0
 41
0.18
 42
0.0625
 43
0.38
 44
0.18
 45
0.0
 46
0.0
 47
0.0
 48
0.0
140
0.18
141
0.09
142
0.0
143
25.399999999999999
144
1.0
145
0.0
146
1.0
147
0.09
 71
     0
 72
     0
 73
     1
 74
     1
 75
     0
 76
     0
 77
     0
 78
     0
170
     0
171
     2
172
     0
173
     0
174
     0
175
     0
176
     0
177
     0
178
     0
  0
ENDTAB
  0
ENDSEC
  0
SECTION
  2
BLOCKS
  0
BLOCK
  8
0
  2
$MODEL_SPACE
 70
     0
 10
0.0
 20
0.0
 30
0.0
  3
$MODEL_SPACE
  1

  0
ENDBLK
  5
15D
  8
0
  0
BLOCK
 67
     1
  8
0
  2
$PAPER_SPACE
 70
     0
 10
0.0
 20
0.0
 30
0.0
  3
$PAPER_SPACE
  1

  0
ENDBLK
  5
15B
 67
     1
  8
0
  0
BLOCK
  8
0
  2
STDGX5
 70
     0
 10
0.0
 20
0.0
 30
0.0
  3
STDGX5
  1

  0
ENDBLK
  5
41
  8
0
  0
BLOCK
  8
0
  2
ARROW1
 70
     0
 10
0.0
 20
0.0
 30
0.0
  3
ARROW1
  1

  0
SOLID
  5
2442
  8
WAKU
  6
CONTINUOUS
 62
     4
 10
-1.0
 20
0.1666666666666714
 30
0.0
 11
-1.0
 21
-0.1666666666666714
 31
0.0
 12
0.0
 22
0.0
 32
0.0
 13
0.0
 23
0.0
 33
0.0
  0
ENDBLK
  5
2444
  8
0
  0
BLOCK
  8
0
  2
BATU
 70
     0
 10
0.0
 20
0.0
 30
0.0
  3
BATU
  1

  0
LINE
  5
2FEB
  8
ITTEN
 10
0.5
 20
0.0
 30
0.0
 11
-0.5
 21
0.0
 31
0.0
  0
LINE
  5
2FEC
  8
ITTEN
 10
0.0
 20
0.5
 30
0.0
 11
0.0
 21
-0.5
 31
0.0
  0
ENDBLK
  5
2FEE
  8
0
  0
ENDSEC
  0
SECTION
  2
ENTITIES
  0
INSERT
  5
CA
  8
0
  2
STDGX5
 10
0.0
 20
0.0
 30
0.0
  0
INSERT
  5
69A
  8
0
  2
STDGX5
 10
194.3272563481562
 20
13.52129245667936
 30
0.0
  0
CIRCLE
  5
CB7
  8
2
 10
97.734641695479013
 20
106.1823875136201
 30
0.0
 40
2.631000000000014
  0
CIRCLE
  5
CB9
  8
0
 10
97.734641695479013
 20
106.1823875136201
 30
0.0
 40
2.25
  0
CIRCLE
  5
CBB
  8
0
 10
97.734641695479013
 20
106.1823875136201
 30
0.0
 40
3.9999999999999849
  0
CIRCLE
  5
CBC
  8
0
 10
97.734641695479013
 20
106.1823875136201
 30
0.0
 40
4.3810000000000002
  0
LINE
  5
CBE
  8
0
 10
94.034641643324946
 20
112.18238756577421
 30
0.0
 11
101.43464174763299
 21
112.18238756577421
 31
0.0
  0
LINE
  5
CBF
  8
0
 10
101.3294315742264
 20
111.928387494338
 30
0.0
 11
94.139851816731536
 21
111.928387494338
 31
0.0
  0
LINE
  5
CC0
  8
1
 10
89.234641643324949
 20
106.1823875136201
 30
0.0
 11
106.23464174763311
 21
106.1823875136201
 31
0.0
  0
LINE
  5
CCF
  8
0
 10
103.73464174763301
 20
109.8823875657742
 30
0.0
 11
103.73464174763301
 21
101.35638755331679
 31
0.0
  0
LINE
  5
CD0
  8
0
 10
103.4806416761969
 20
101.3548876583104
 30
0.0
 11
103.4806416761969
 21
109.77717739236751
 31
0.0
  0
LINE
  5
CD1
  8
1
 10
97.734641695479013
 20
114.68238756577421
 30
0.0
 11
97.734641695479013
 21
97.682387461466064
 31
0.0
  0
LINE
  5
D25
  8
0
 10
96.210639197991185
 20
100.18238746146611
 30
0.0
 11
97.734641695479013
 21
101.70638742442181
 31
0.0
  0
LINE
  5
D26
  8
0
 10
97.734641695479013
 20
101.70638742442181
 30
0.0
 11
99.258644192966855
 21
100.18238746146611
 31
0.0
  0
LINE
  5
D27
  8
0
 10
99.385639666527155
 20
100.18238746146611
 30
0.0
 11
100.90964165710849
 21
101.70638742442181
 31
0.0
  0
LINE
  5
D28
  8
0
 10
100.90964165710849
 20
101.70638742442181
 30
0.0
 11
102.43364364768991
 21
100.18238746146611
 31
0.0
  0
LINE
  5
D2E
  8
0
 10
102.43364185289479
 20
100.18238746146611
 30
0.0
 11
102.56064165578231
 21
100.18238746146611
 31
0.0
  0
LINE
  5
D30
  8
0
 10
103.73464174763301
 20
101.35638755331679
 30
0.0
 11
102.56064165578231
 21
100.18238746146611
 31
0.0
  0
LINE
  5
D33
  8
0
 10
99.258641658434726
 20
100.18238746146611
 30
0.0
 11
99.38564169415281
 21
100.18238746146611
 31
0.0
  0
LINE
  5
D35
  8
0
 10
96.083641696805216
 20
100.18238746146611
 30
0.0
 11
96.2106417325233
 21
100.18238746146611
 31
0.0
  0
LINE
  5
D41
  8
0
 10
91.734641643324949
 20
101.35638755331679
 30
0.0
 11
91.734641643324949
 21
109.8823875657742
 31
0.0
  0
LINE
  5
D42
  8
0
 10
91.988641714761116
 20
109.77717739236761
 30
0.0
 11
91.988641714761116
 21
101.3548876583104
 31
0.0
  0
LINE
  5
D9A
  8
0
 10
93.035639743268092
 20
100.18238746146611
 30
0.0
 11
94.559641733849503
 21
101.70638742442181
 31
0.0
  0
LINE
  5
D9B
  8
0
 10
94.559641733849503
 20
101.70638742442181
 30
0.0
 11
96.083643724430942
 21
100.18238746146611
 31
0.0
  0
LINE
  5
D9C
  8
0
 10
92.908641735175706
 20
100.18238746146611
 30
0.0
 11
91.734641643324949
 21
101.35638755331691
 31
0.0
  0
LINE
  5
DA0
  8
0
 10
92.908641735175706
 20
100.18238746146611
 30
0.0
 11
93.035641538063146
 21
100.18238746146611
 31
0.0
  0
CIRCLE
  5
10ED
  8
0
 10
97.734641695479013
 20
33.80064598154636
 30
0.0
 40
2.25
  0
CIRCLE
  5
10EE
  8
2
 10
97.734641695479013
 20
33.800645981546381
 30
0.0
 40
3.9999999999999849
  0
CIRCLE
  5
10EF
  8
0
 10
97.734641695479013
 20
33.80064598154636
 30
0.0
 40
2.631000000000014
  0
LINE
  5
10F0
  8
1
 10
97.734641695479013
 20
25.300645929392289
 30
0.0
 11
97.734641695478985
 21
42.30064603370041
 31
0.0
  0
LINE
  5
10F2
  8
0
 10
103.2266416047607
 20
38.628145836856142
 30
0.0
 11
103.2266416047607
 21
30.311066478257459
 31
0.0
  0
LINE
  5
10F3
  8
0
 10
103.73464174763301
 20
38.626645941849652
 30
0.0
 11
103.73464174763301
 21
30.100645929392289
 31
0.0
  0
LINE
  5
10F5
  8
0
 10
91.734641643324949
 20
30.100645929392272
 30
0.0
 11
91.734641643324949
 21
38.626645941849659
 31
0.0
  0
LINE
  5
10F6
  8
0
 10
92.242641786197282
 20
30.311066478257501
 30
0.0
 11
92.242641786197296
 21
38.628145836856092
 31
0.0
  0
CIRCLE
  5
10F7
  8
2
 10
97.734641695479013
 20
33.800645981546381
 30
0.0
 40
4.3810000000000002
  0
LINE
  5
10F8
  8
1
 10
106.23464174763311
 20
33.80064598154636
 30
0.0
 11
89.234641643324906
 21
33.80064598154636
 31
0.0
  0
LINE
  5
10F9
  8
0
 10
99.38564169415281
 20
39.800646033700417
 30
0.0
 11
100.9096413940738
 21
38.276646070744711
 31
0.0
  0
LINE
  5
10FB
  8
0
 10
97.734641695479013
 20
38.276646070744711
 30
0.0
 11
100.90964165710849
 21
38.276646070744711
 31
0.0
  0
LINE
  5
10FE
  8
0
 10
102.56064165578231
 20
39.800646033700417
 30
0.0
 11
103.73464174763301
 21
38.626645941849659
 31
0.0
  0
LINE
  5
10FF
  8
0
 10
102.56064165578231
 20
39.800646033700417
 30
0.0
 11
102.43364185289479
 21
39.800646033700417
 31
0.0
  0
LINE
  5
1103
  8
0
 10
100.90964188993919
 20
38.276646070744711
 30
0.0
 11
102.43364185289479
 21
39.800646033700417
 31
0.0
  0
LINE
  5
1104
  8
0
 10
100.90964165710849
 20
38.276646070744711
 30
0.0
 11
103.73464174763301
 21
38.27664607074469
 31
0.0
  0
LINE
  5
1106
  8
0
 10
94.734641669401981
 20
38.451645773466538
 30
0.0
 11
96.083641696805216
 21
39.800646033700417
 31
0.0
  0
LINE
  5
1107
  8
0
 10
94.559641733849503
 20
38.276646070744711
 30
0.0
 11
97.734641695479013
 21
38.276646070744711
 31
0.0
  0
LINE
  5
1109
  8
0
 10
96.2106417325233
 20
39.800646033700417
 30
0.0
 11
96.083641696805216
 21
39.800646033700417
 31
0.0
  0
LINE
  5
110A
  8
0
 10
97.909641689239152
 20
38.451645773466538
 30
0.0
 11
99.258641658434726
 21
39.800646033700417
 31
0.0
  0
LINE
  5
110B
  8
0
 10
99.38564169415281
 20
39.800646033700417
 30
0.0
 11
99.258641658434726
 21
39.800646033700417
 31
0.0
  0
LINE
  5
110C
  8
0
 10
97.734641695479013
 20
38.276646070744711
 30
0.0
 11
97.559641701718874
 21
38.451645773466538
 31
0.0
  0
LINE
  5
110D
  8
0
 10
97.909641689239152
 20
38.451645773466538
 30
0.0
 11
97.734641695479013
 21
38.276646070744711
 31
0.0
  0
LINE
  5
110E
  8
0
 10
96.2106417325233
 20
39.800646033700417
 30
0.0
 11
97.559641701718874
 21
38.451645773466538
 31
0.0
  0
LINE
  5
110F
  8
0
 10
91.734641643324949
 20
38.626645941849659
 30
0.0
 11
92.908641735175706
 21
39.800646033700417
 31
0.0
  0
LINE
  5
1110
  8
0
 10
93.035641538063146
 20
39.800646033700417
 30
0.0
 11
92.908641735175706
 21
39.800646033700417
 31
0.0
  0
LINE
  5
1114
  8
0
 10
94.559641733849503
 20
38.276646070744711
 30
0.0
 11
94.384641798297025
 21
38.451645773466538
 31
0.0
  0
LINE
  5
1115
  8
0
 10
94.734641669401981
 20
38.451645773466538
 30
0.0
 11
94.559641733849503
 21
38.276646070744711
 31
0.0
  0
LINE
  5
1116
  8
0
 10
93.035641538063146
 20
39.800646033700417
 30
0.0
 11
94.384641798297025
 21
38.451645773466538
 31
0.0
  0
LINE
  5
1117
  8
0
 10
91.734641643324949
 20
38.276646070744711
 30
0.0
 11
94.559641733849503
 21
38.276646070744711
 31
0.0
  0
LINE
  5
1119
  8
0
 10
101.22422119876779
 20
28.308646072264619
 30
0.0
 11
94.245062192190204
 21
28.308646072264619
 31
0.0
  0
LINE
  5
111B
  8
0
 10
101.43464174763299
 20
27.800645929392289
 30
0.0
 11
94.034641643324946
 21
27.800645929392289
 31
0.0
  0
LINE
  5
112B
  8
0
 10
91.734641643324949
 20
109.8823875657742
 30
0.0
 11
94.034641643324946
 21
112.18238756577421
 31
0.0
  0
LINE
  5
112C
  8
0
 10
101.43464174763299
 20
112.18238756577421
 30
0.0
 11
103.73464174763301
 21
109.8823875657742
 31
0.0
  0
LINE
  5
112D
  8
0
 10
91.988641714761116
 20
109.77717739236761
 30
0.0
 11
94.13985181673155
 21
111.928387494338
 31
0.0
  0
LINE
  5
112E
  8
0
 10
101.3294315742264
 20
111.928387494338
 30
0.0
 11
103.4806416761969
 21
109.77717739236761
 31
0.0
  0
LINE
  5
112F
  8
0
 10
103.4806416761969
 20
109.77717739236751
 30
0.0
 11
103.73464174763301
 21
109.8823875657742
 31
0.0
  0
LINE
  5
1131
  8
0
 10
101.43464174763299
 20
112.18238756577421
 30
0.0
 11
101.3294315742264
 21
111.928387494338
 31
0.0
  0
LINE
  5
1132
  8
0
 10
94.13985181673155
 20
111.928387494338
 30
0.0
 11
94.034641643324946
 21
112.18238756577421
 31
0.0
  0
LINE
  5
1133
  8
0
 10
91.734641643324949
 20
109.8823875657742
 30
0.0
 11
91.988641714761116
 21
109.77717739236761
 31
0.0
  0
LINE
  5
1134
  8
0
 10
101.43464174763299
 20
27.800645929392289
 30
0.0
 11
103.73464174763301
 21
30.100645929392289
 31
0.0
  0
LINE
  5
1135
  8
0
 10
91.734641643324949
 20
30.100645929392272
 30
0.0
 11
94.034641643324946
 21
27.800645929392289
 31
0.0
  0
LINE
  5
1137
  8
0
 10
101.22422119876791
 20
28.308646072264619
 30
0.0
 11
103.2266416047607
 21
30.311066478257491
 31
0.0
  0
LINE
  5
1138
  8
0
 10
92.242641786197282
 20
30.311066478257491
 30
0.0
 11
94.245062192190204
 21
28.308646072264619
 31
0.0
  0
LINE
  5
1240
  8
0
 10
92.242641786197282
 20
30.311066478257501
 30
0.0
 11
91.734641643324949
 21
30.100645929392272
 31
0.0
  0
LINE
  5
1242
  8
0
 10
94.245062192190204
 20
28.308646072264619
 30
0.0
 11
94.034641643324946
 21
27.800645929392289
 31
0.0
  0
LINE
  5
1243
  8
0
 10
101.22422119876779
 20
28.308646072264619
 30
0.0
 11
101.43464174763299
 21
27.800645929392289
 31
0.0
  0
LINE
  5
1244
  8
0
 10
103.2266416047607
 20
30.311066478257459
 30
0.0
 11
103.73464174763301
 21
30.100645929392289
 31
0.0
  0
LINE
  5
2993
  8
3
 10
96.083641463974573
 20
71.542587436832775
 30
0.0
 11
93.03864179373727
 21
74.587587572731366
 31
0.0
  0
LINE
  5
2995
  8
3
 10
96.083641463974573
 20
74.717587631292929
 30
0.0
 11
94.911141732791521
 21
75.890087828137268
 31
0.0
  0
LINE
  5
2996
  8
3
 10
93.038641706425793
 20
68.237587503953193
 30
0.0
 11
96.083641463974573
 21
65.192587513573756
 31
0.0
  0
LINE
  5
2999
  8
3
 10
93.038641764633439
 20
71.412587611101856
 30
0.0
 11
96.083641463974573
 21
68.367587504307096
 31
0.0
  0
LINE
  5
299B
  8
3
 10
96.083641463974573
 20
65.062587455012192
 30
0.0
 11
94.911141499960877
 21
63.890087258167853
 31
0.0
  0
LINE
  5
29AE
  8
3
 10
100.90964165710849
 20
75.890087828137268
 30
0.0
 11
100.90964165710849
 21
63.890087258167853
 31
0.0
  0
LINE
  5
29B1
  8
3
 10
97.734641695479013
 20
75.890087828137268
 30
0.0
 11
97.734641695479013
 21
63.890087258167853
 31
0.0
  0
LINE
  5
29B2
  8
1
 10
97.734641695479013
 20
78.390087828137268
 30
0.0
 11
97.734641695479013
 21
61.390087258167853
 31
0.0
  0
LINE
  5
29B5
  8
3
 10
102.4306416845322
 20
68.237587503953193
 30
0.0
 11
99.385641926983453
 21
65.192587513573756
 31
0.0
  0
LINE
  5
29B6
  8
3
 10
99.385641926983453
 20
65.062587455012192
 30
0.0
 11
100.55814189099711
 21
63.890087258167853
 31
0.0
  0
LINE
  5
29B7
  8
3
 10
102.56064165578231
 20
65.062587455012192
 30
0.0
 11
103.4798919615243
 21
64.143337614931454
 31
0.0
  0
LINE
  5
29B8
  8
0
 10
103.2266416047607
 20
63.890087258167853
 30
0.0
 11
103.73464174763301
 21
64.398087401040186
 31
0.0
  0
LINE
  5
29B9
  8
3
 10
101.2611416560505
 20
63.890087258167853
 30
0.0
 11
102.43364185289479
 21
65.062587455012192
 31
0.0
  0
LINE
  5
29BE
  8
3
 10
103.73464174763301
 20
66.715087465107729
 30
0.0
 11
91.734641643324949
 21
66.715087465107729
 31
0.0
  0
LINE
  5
29BF
  8
3
 10
102.43364185289479
 20
65.192587513573756
 30
0.0
 11
99.388641629684784
 21
68.237587503953193
 31
0.0
  0
LINE
  5
29C0
  8
0
 10
103.73464174763301
 20
64.398087401040186
 30
0.0
 11
103.73464174763301
 21
75.636087756701116
 31
0.0
  0
LINE
  5
29C1
  8
3
 10
103.73464174763301
 20
66.366587489009191
 30
0.0
 11
102.56064165578231
 21
65.192587513573756
 31
0.0
  0
LINE
  5
29C2
  8
3
 10
102.43364185289479
 20
65.192587513573756
 30
0.0
 11
102.43364185289479
 21
65.062587455012192
 31
0.0
  0
LINE
  5
29C3
  8
3
 10
102.43364185289479
 20
65.062587455012192
 30
0.0
 11
102.56064165578231
 21
65.062587455012192
 31
0.0
  0
LINE
  5
29C4
  8
3
 10
102.56064165578231
 20
65.062587455012192
 30
0.0
 11
102.56064165578231
 21
65.192587513573756
 31
0.0
  0
LINE
  5
29C5
  8
3
 10
102.56064165578231
 20
65.192587513573756
 30
0.0
 11
102.43364185289479
 21
65.192587513573756
 31
0.0
  0
LINE
  5
29C7
  8
3
 10
98.0861416653172
 20
63.890087258167853
 30
0.0
 11
99.25864189126537
 21
65.062587455012192
 31
0.0
  0
LINE
  5
29C8
  8
3
 10
97.383141725640826
 20
63.890087258167853
 30
0.0
 11
96.210641499692656
 21
65.062587455012192
 31
0.0
  0
LINE
  5
29CB
  8
3
 10
99.25864189126537
 20
65.192587513573756
 30
0.0
 11
96.213641412714637
 21
68.237587503953193
 31
0.0
  0
LINE
  5
29CC
  8
3
 10
99.25864189126537
 20
65.192587513573756
 30
0.0
 11
99.25864189126537
 21
65.062587455012192
 31
0.0
  0
LINE
  5
29CD
  8
3
 10
99.25864189126537
 20
65.062587455012192
 30
0.0
 11
99.385641926983453
 21
65.062587455012192
 31
0.0
  0
LINE
  5
29CE
  8
3
 10
99.385641926983453
 20
65.062587455012192
 30
0.0
 11
99.385641926983453
 21
65.192587513573756
 31
0.0
  0
LINE
  5
29CF
  8
3
 10
99.385641926983453
 20
65.192587513573756
 30
0.0
 11
99.25864189126537
 21
65.192587513573756
 31
0.0
  0
LINE
  5
29D0
  8
3
 10
96.210641499692656
 20
65.192587513573756
 30
0.0
 11
99.255641978243389
 21
68.237587503953193
 31
0.0
  0
LINE
  5
29D1
  8
3
 10
96.083641463974573
 20
65.062587455012192
 30
0.0
 11
96.083641463974573
 21
65.192587513573756
 31
0.0
  0
LINE
  5
29D2
  8
3
 10
96.083641463974573
 20
65.062587455012192
 30
0.0
 11
96.210641499692656
 21
65.062587455012192
 31
0.0
  0
LINE
  5
29D3
  8
3
 10
96.210641499692656
 20
65.192587513573756
 30
0.0
 11
96.083641463974573
 21
65.192587513573756
 31
0.0
  0
LINE
  5
29D4
  8
3
 10
96.210641499692656
 20
65.192587513573756
 30
0.0
 11
96.210641499692656
 21
65.062587455012192
 31
0.0
  0
LINE
  5
29D7
  8
3
 10
102.56064165578231
 20
71.542587436832775
 30
0.0
 11
103.73464174763301
 21
72.716587528683533
 31
0.0
  0
LINE
  5
29D8
  8
3
 10
99.38864171699629
 20
74.587587572731366
 30
0.0
 11
102.43364185289479
 21
71.542587436832775
 31
0.0
  0
LINE
  5
29D9
  8
3
 10
96.213641500026142
 20
74.587587572731366
 30
0.0
 11
99.25864189126537
 21
71.542587436832775
 31
0.0
  0
LINE
  5
29DA
  8
3
 10
99.385641926983453
 20
71.542587436832775
 30
0.0
 11
102.4306415972207
 21
74.587587572731366
 31
0.0
  0
LINE
  5
29DB
  8
3
 10
99.255641890931884
 20
74.587587572731366
 30
0.0
 11
96.210641499692656
 21
71.542587436832775
 31
0.0
  0
LINE
  5
29DE
  8
3
 10
102.4306416263246
 20
71.412587611101856
 30
0.0
 11
99.385641926983453
 21
68.367587504307096
 31
0.0
  0
LINE
  5
29E0
  8
3
 10
102.43364185289479
 20
68.367587504307096
 30
0.0
 11
99.388641687892445
 21
71.412587611101856
 31
0.0
  0
LINE
  5
29E2
  8
3
 10
103.73464174763301
 20
69.541587450638701
 30
0.0
 11
102.56064165578231
 21
68.367587504307096
 31
0.0
  0
LINE
  5
29E3
  8
3
 10
102.56064165578231
 20
68.237587503953193
 30
0.0
 11
103.73464174763301
 21
67.063587557621588
 31
0.0
  0
LINE
  5
29E4
  8
3
 10
102.43364185289479
 20
68.237587503953193
 30
0.0
 11
102.56064165578231
 21
68.237587503953193
 31
0.0
  0
LINE
  5
29E5
  8
3
 10
102.56064165578231
 20
68.237587503953193
 30
0.0
 11
102.56064165578231
 21
68.367587504307096
 31
0.0
  0
LINE
  5
29E6
  8
3
 10
102.56064165578231
 20
68.367587504307096
 30
0.0
 11
102.43364185289479
 21
68.367587504307096
 31
0.0
  0
LINE
  5
29E7
  8
3
 10
102.43364185289479
 20
68.367587504307096
 30
0.0
 11
102.43364185289479
 21
68.237587503953193
 31
0.0
  0
LINE
  5
29E8
  8
3
 10
103.73464174763301
 20
69.890087543152561
 30
0.0
 11
91.734641643324949
 21
69.890087543152561
 31
0.0
  0
LINE
  5
29EA
  8
3
 10
102.56064165578231
 20
71.412587611101856
 30
0.0
 11
103.73464174763301
 21
70.238587519251098
 31
0.0
  0
LINE
  5
29EC
  8
3
 10
102.43364185289479
 20
71.542587436832775
 30
0.0
 11
102.43364185289479
 21
71.412587611101856
 31
0.0
  0
LINE
  5
29ED
  8
3
 10
102.43364185289479
 20
71.412587611101856
 30
0.0
 11
102.56064165578231
 21
71.412587611101856
 31
0.0
  0
LINE
  5
29EE
  8
3
 10
102.56064165578231
 20
71.412587611101856
 30
0.0
 11
102.56064165578231
 21
71.542587436832775
 31
0.0
  0
LINE
  5
29EF
  8
3
 10
102.43364185289479
 20
71.542587436832775
 30
0.0
 11
102.56064165578231
 21
71.542587436832775
 31
0.0
  0
LINE
  5
29F0
  8
3
 10
99.25864189126537
 20
68.367587504307096
 30
0.0
 11
96.213641470922312
 21
71.412587611101856
 31
0.0
  0
LINE
  5
29F1
  8
3
 10
96.210641499692656
 20
68.367587504307096
 30
0.0
 11
99.255641920035714
 21
71.412587611101856
 31
0.0
  0
LINE
  5
29F2
  8
3
 10
99.25864189126537
 20
68.237587503953193
 30
0.0
 11
99.385641926983453
 21
68.237587503953193
 31
0.0
  0
LINE
  5
29F3
  8
3
 10
99.385641926983453
 20
68.367587504307096
 30
0.0
 11
99.25864189126537
 21
68.367587504307096
 31
0.0
  0
LINE
  5
29F4
  8
3
 10
99.385641926983453
 20
68.237587503953193
 30
0.0
 11
99.385641926983453
 21
68.367587504307096
 31
0.0
  0
LINE
  5
29F5
  8
3
 10
99.25864189126537
 20
68.367587504307096
 30
0.0
 11
99.25864189126537
 21
68.237587503953193
 31
0.0
  0
LINE
  5
29F6
  8
3
 10
96.083641463974573
 20
68.237587503953193
 30
0.0
 11
96.210641499692656
 21
68.237587503953193
 31
0.0
  0
LINE
  5
29F7
  8
3
 10
96.083641463974573
 20
68.237587503953193
 30
0.0
 11
96.083641463974573
 21
68.367587504307096
 31
0.0
  0
LINE
  5
29F8
  8
3
 10
96.210641499692656
 20
68.367587504307096
 30
0.0
 11
96.083641463974573
 21
68.367587504307096
 31
0.0
  0
LINE
  5
29F9
  8
3
 10
96.210641499692656
 20
68.367587504307096
 30
0.0
 11
96.210641499692656
 21
68.237587503953193
 31
0.0
  0
LINE
  5
29FB
  8
3
 10
99.25864189126537
 20
71.542587436832775
 30
0.0
 11
99.25864189126537
 21
71.412587611101856
 31
0.0
  0
LINE
  5
29FC
  8
3
 10
99.25864189126537
 20
71.412587611101856
 30
0.0
 11
99.385641926983453
 21
71.412587611101856
 31
0.0
  0
LINE
  5
29FD
  8
3
 10
99.385641926983453
 20
71.412587611101856
 30
0.0
 11
99.385641926983453
 21
71.542587436832775
 31
0.0
  0
LINE
  5
29FE
  8
3
 10
99.25864189126537
 20
71.542587436832775
 30
0.0
 11
99.385641926983453
 21
71.542587436832775
 31
0.0
  0
LINE
  5
2A00
  8
3
 10
96.083641463974573
 20
71.412587611101856
 30
0.0
 11
96.083641463974573
 21
71.542587436832775
 31
0.0
  0
LINE
  5
2A01
  8
3
 10
96.083641463974573
 20
71.412587611101856
 30
0.0
 11
96.210641499692656
 21
71.412587611101856
 31
0.0
  0
LINE
  5
2A02
  8
3
 10
96.083641463974573
 20
71.542587436832775
 30
0.0
 11
96.210641499692656
 21
71.542587436832775
 31
0.0
  0
LINE
  5
2A03
  8
3
 10
96.210641499692656
 20
71.542587436832775
 30
0.0
 11
96.210641499692656
 21
71.412587611101856
 31
0.0
  0
LINE
  5
2A05
  8
3
 10
99.385641926983453
 20
74.717587631292929
 30
0.0
 11
100.55814165816651
 21
75.890087828137268
 31
0.0
  0
LINE
  5
2A09
  8
3
 10
102.56064165578231
 20
74.717587631292929
 30
0.0
 11
103.6068917644118
 21
75.763837739922394
 31
0.0
  0
LINE
  5
2A0A
  8
3
 10
101.2611418888812
 20
75.890087828137268
 30
0.0
 11
102.43364185289479
 21
74.717587631292929
 31
0.0
  0
LINE
  5
2A0B
  8
3
 10
103.73464174763301
 20
73.06508750478207
 30
0.0
 11
91.734641643324949
 21
73.06508750478207
 31
0.0
  0
LINE
  5
2A0D
  8
3
 10
103.73464174763301
 20
73.413587480880608
 30
0.0
 11
102.56064165578231
 21
74.587587572731366
 31
0.0
  0
LINE
  5
2A10
  8
3
 10
102.56064165578231
 20
74.587587572731366
 30
0.0
 11
102.43364185289479
 21
74.587587572731366
 31
0.0
  0
LINE
  5
2A11
  8
3
 10
102.56064165578231
 20
74.587587572731366
 30
0.0
 11
102.56064165578231
 21
74.717587631292929
 31
0.0
  0
LINE
  5
2A12
  8
3
 10
102.43364185289479
 20
74.717587631292929
 30
0.0
 11
102.56064165578231
 21
74.717587631292929
 31
0.0
  0
LINE
  5
2A13
  8
3
 10
102.43364185289479
 20
74.717587631292929
 30
0.0
 11
102.43364185289479
 21
74.587587572731366
 31
0.0
  0
LINE
  5
2A15
  8
0
 10
103.73464174763301
 20
75.636087756701102
 30
0.0
 11
103.4806416761969
 21
75.890087828137268
 31
0.0
  0
LINE
  5
2A19
  8
3
 10
98.086141810836352
 20
75.890087828137268
 30
0.0
 11
99.25864189126537
 21
74.717587631292929
 31
0.0
  0
LINE
  5
2A1A
  8
3
 10
97.383141580121674
 20
75.890087828137268
 30
0.0
 11
96.210641499692656
 21
74.717587631292929
 31
0.0
  0
LINE
  5
2A1C
  8
3
 10
99.385641926983453
 20
74.587587572731366
 30
0.0
 11
99.25864189126537
 21
74.587587572731366
 31
0.0
  0
LINE
  5
2A1D
  8
3
 10
99.385641926983453
 20
74.587587572731366
 30
0.0
 11
99.385641926983453
 21
74.717587631292929
 31
0.0
  0
LINE
  5
2A1E
  8
3
 10
99.25864189126537
 20
74.717587631292929
 30
0.0
 11
99.385641926983453
 21
74.717587631292929
 31
0.0
  0
LINE
  5
2A1F
  8
3
 10
99.25864189126537
 20
74.717587631292929
 30
0.0
 11
99.25864189126537
 21
74.587587572731366
 31
0.0
  0
LINE
  5
2A21
  8
3
 10
96.210641499692656
 20
74.587587572731366
 30
0.0
 11
96.083641463974573
 21
74.587587572731366
 31
0.0
  0
LINE
  5
2A22
  8
3
 10
96.083641463974573
 20
74.717587631292929
 30
0.0
 11
96.210641499692656
 21
74.717587631292929
 31
0.0
  0
LINE
  5
2A23
  8
3
 10
96.083641463974573
 20
74.587587572731366
 30
0.0
 11
96.083641463974573
 21
74.717587631292929
 31
0.0
  0
LINE
  5
2A24
  8
3
 10
96.210641499692656
 20
74.717587631292929
 30
0.0
 11
96.210641499692656
 21
74.587587572731366
 31
0.0
  0
LINE
  5
2A84
  8
2
 10
58.669526365944208
 20
64.271087219797437
 30
0.0
 11
58.669526365944208
 21
71.830087258167922
 31
0.0
  0
LINE
  5
2A85
  8
2
 10
54.169526559659303
 20
71.830087258167922
 30
0.0
 11
54.169526559659303
 21
64.271087219797437
 31
0.0
  0
LINE
  5
2A87
  8
0
 10
61.245526423105062
 20
67.063587557621645
 30
0.0
 11
60.897026447006517
 21
66.715087465107786
 31
0.0
  0
LINE
  5
2A88
  8
0
 10
52.719526410647688
 20
75.636087291039871
 30
0.0
 11
52.719526410647688
 21
64.398087401040243
 31
0.0
  0
LINE
  5
2A89
  8
0
 10
50.419526410647691
 20
64.398087401040243
 30
0.0
 11
50.419526410647691
 21
75.636087291039871
 31
0.0
  0
LINE
  5
2A8A
  8
1
 10
56.419526462801748
 20
78.390087828137339
 30
0.0
 11
56.419526462801748
 21
61.39008725816791
 31
0.0
  0
LINE
  5
2A8D
  8
3
 10
94.559641733849503
 20
75.890087828137268
 30
0.0
 11
94.559641733849503
 21
63.890087258167853
 31
0.0
  0
LINE
  5
2A8E
  8
0
 10
91.734641643324949
 20
64.398087401040186
 30
0.0
 11
92.242641786197282
 21
63.890087258167853
 31
0.0
  0
LINE
  5
2A8F
  8
3
 10
91.734641643324949
 20
66.366587489009191
 30
0.0
 11
92.908641735175706
 21
65.192587513573756
 31
0.0
  0
LINE
  5
2A91
  8
3
 10
92.908641735175706
 20
65.062587455012192
 30
0.0
 11
91.989391429433681
 21
64.143337614931454
 31
0.0
  0
LINE
  5
2A92
  8
3
 10
94.208141734907485
 20
63.890087258167853
 30
0.0
 11
93.035641538063146
 21
65.062587455012192
 31
0.0
  0
LINE
  5
2A93
  8
0
 10
92.242641786197282
 20
63.890087258167853
 30
0.0
 11
103.2266416047607
 21
63.890087258167853
 31
0.0
  0
LINE
  5
2A97
  8
3
 10
93.035641538063146
 20
65.192587513573756
 30
0.0
 11
96.080641761273242
 21
68.237587503953193
 31
0.0
  0
LINE
  5
2A98
  8
3
 10
92.908641735175706
 20
65.062587455012192
 30
0.0
 11
92.908641735175706
 21
65.192587513573756
 31
0.0
  0
LINE
  5
2A99
  8
3
 10
92.908641735175706
 20
65.062587455012192
 30
0.0
 11
93.035641538063146
 21
65.062587455012192
 31
0.0
  0
LINE
  5
2A9A
  8
3
 10
93.035641538063146
 20
65.192587513573756
 30
0.0
 11
93.035641538063146
 21
65.062587455012192
 31
0.0
  0
LINE
  5
2A9B
  8
3
 10
93.035641538063146
 20
65.192587513573756
 30
0.0
 11
92.908641735175706
 21
65.192587513573756
 31
0.0
  0
LINE
  5
2A9C
  8
0
 10
91.734641643324949
 20
64.398087401040186
 30
0.0
 11
91.734641643324949
 21
75.636087756701116
 31
0.0
  0
LINE
  5
2A9E
  8
0
 10
52.775376479499997
 20
64.398087401040243
 30
0.0
 11
61.245526423105062
 21
64.398087401040243
 31
0.0
  0
LINE
  5
2A9F
  8
0
 10
61.24702631811148
 20
63.89008725816791
 30
0.0
 11
52.985796940871538
 21
63.89008725816791
 31
0.0
  0
LINE
  5
2AA0
  8
0
 10
61.245526423105062
 20
66.366587489009234
 30
0.0
 11
62.41952651495582
 21
65.192587513573812
 31
0.0
  0
LINE
  5
2AA1
  8
0
 10
61.245526423105062
 20
64.398087401040243
 30
0.0
 11
61.500276674875082
 21
64.143337614931511
 31
0.0
  0
LINE
  5
2AA2
  8
0
 10
61.500276674875082
 20
64.143337614931511
 30
0.0
 11
61.24702631811148
 21
63.89008725816791
 31
0.0
  0
LINE
  5
2AA3
  8
0
 10
62.41952651495582
 20
65.062587455012249
 30
0.0
 11
61.500276674875082
 21
64.143337614931511
 31
0.0
  0
LINE
  5
2AA4
  8
0
 10
62.41952651495582
 20
65.062587455012249
 30
0.0
 11
62.41952651495582
 21
65.192587513573812
 31
0.0
  0
LINE
  5
2AA5
  8
0
 10
61.245526423105062
 20
64.398087401040243
 30
0.0
 11
61.245526423105062
 21
66.366587489009234
 31
0.0
  0
LINE
  5
2AA6
  8
0
 10
60.897026447006517
 20
66.715087465107786
 30
0.0
 11
61.245526423105062
 21
66.366587489009234
 31
0.0
  0
LINE
  5
2AA7
  8
0
 10
52.985796940871538
 20
63.89008725816791
 30
0.0
 11
50.927526553520018
 21
63.89008725816791
 31
0.0
  0
LINE
  5
2AA8
  8
0
 10
52.719526410647688
 20
64.398087401040243
 30
0.0
 11
52.929946872019229
 21
63.89008725816791
 31
0.0
  0
LINE
  5
2AA9
  8
0
 10
50.419526410647691
 20
64.398087401040243
 30
0.0
 11
50.927526553520018
 21
63.89008725816791
 31
0.0
  0
LINE
  5
2AAA
  8
0
 10
50.419526410647691
 20
64.398087401040243
 30
0.0
 11
52.775376479499997
 21
64.398087401040243
 31
0.0
  0
LINE
  5
2AAB
  8
3
 10
96.080641673961722
 20
74.587587572731366
 30
0.0
 11
93.035641538063146
 21
71.542587436832775
 31
0.0
  0
LINE
  5
2AAC
  8
3
 10
92.908641735175706
 20
71.542587436832775
 30
0.0
 11
91.734641643324949
 21
72.716587528683533
 31
0.0
  0
LINE
  5
2AAF
  8
3
 10
92.908641735175706
 20
68.237587503953193
 30
0.0
 11
91.734641643324949
 21
67.063587557621588
 31
0.0
  0
LINE
  5
2AB0
  8
3
 10
91.734641643324949
 20
69.541587450638701
 30
0.0
 11
92.908641735175706
 21
68.367587504307096
 31
0.0
  0
LINE
  5
2AB1
  8
3
 10
92.908641735175706
 20
71.412587611101856
 30
0.0
 11
91.734641643324949
 21
70.238587519251098
 31
0.0
  0
LINE
  5
2AB2
  8
3
 10
93.035641538063146
 20
68.367587504307096
 30
0.0
 11
96.080641703065567
 21
71.412587611101856
 31
0.0
  0
LINE
  5
2AB3
  8
3
 10
92.908641735175706
 20
68.237587503953193
 30
0.0
 11
92.908641735175706
 21
68.367587504307096
 31
0.0
  0
LINE
  5
2AB4
  8
3
 10
92.908641735175706
 20
68.237587503953193
 30
0.0
 11
93.035641538063146
 21
68.237587503953193
 31
0.0
  0
LINE
  5
2AB5
  8
3
 10
93.035641538063146
 20
68.367587504307096
 30
0.0
 11
92.908641735175706
 21
68.367587504307096
 31
0.0
  0
LINE
  5
2AB6
  8
3
 10
93.035641538063146
 20
68.367587504307096
 30
0.0
 11
93.035641538063146
 21
68.237587503953193
 31
0.0
  0
LINE
  5
2AB8
  8
3
 10
92.908641735175706
 20
71.412587611101856
 30
0.0
 11
92.908641735175706
 21
71.542587436832775
 31
0.0
  0
LINE
  5
2AB9
  8
3
 10
92.908641735175706
 20
71.412587611101856
 30
0.0
 11
93.035641538063146
 21
71.412587611101856
 31
0.0
  0
LINE
  5
2ABA
  8
3
 10
93.035641538063146
 20
71.542587436832775
 30
0.0
 11
93.035641538063146
 21
71.412587611101856
 31
0.0
  0
LINE
  5
2ABB
  8
3
 10
92.908641735175706
 20
71.542587436832775
 30
0.0
 11
93.035641538063146
 21
71.542587436832775
 31
0.0
  0
LINE
  5
2AC1
  8
3
 10
91.734641643324949
 20
73.413587480880608
 30
0.0
 11
92.908641735175706
 21
74.587587572731366
 31
0.0
  0
LINE
  5
2AC2
  8
3
 10
94.208141502076842
 20
75.890087828137268
 30
0.0
 11
93.035641538063146
 21
74.717587631292929
 31
0.0
  0
LINE
  5
2AC3
  8
3
 10
92.908641735175706
 20
74.717587631292929
 30
0.0
 11
91.862391626546241
 21
75.763837739922394
 31
0.0
  0
LINE
  5
2AC5
  8
3
 10
93.035641538063146
 20
74.587587572731366
 30
0.0
 11
92.908641735175706
 21
74.587587572731366
 31
0.0
  0
LINE
  5
2AC6
  8
3
 10
93.035641538063146
 20
74.717587631292929
 30
0.0
 11
93.035641538063146
 21
74.587587572731366
 31
0.0
  0
LINE
  5
2AC7
  8
3
 10
92.908641735175706
 20
74.717587631292929
 30
0.0
 11
93.035641538063146
 21
74.717587631292929
 31
0.0
  0
LINE
  5
2AC8
  8
3
 10
92.908641735175706
 20
74.587587572731366
 30
0.0
 11
92.908641735175706
 21
74.717587631292929
 31
0.0
  0
LINE
  5
2AC9
  8
0
 10
103.4806416761969
 20
75.890087828137268
 30
0.0
 11
91.988641714761116
 21
75.890087828137268
 31
0.0
  0
LINE
  5
2ACC
  8
0
 10
91.988641714761116
 20
75.890087828137268
 30
0.0
 11
91.734641643324949
 21
75.636087756701102
 31
0.0
  0
LINE
  5
2AD0
  8
2
 10
52.419526462801763
 20
71.830087258167922
 30
0.0
 11
60.419526462801763
 21
71.830087258167922
 31
0.0
  0
LINE
  5
2AD1
  8
0
 10
52.880586593770438
 20
75.890087828137325
 30
0.0
 11
61.24702631811148
 21
75.890087828137325
 31
0.0
  0
LINE
  5
2AD2
  8
0
 10
61.245526423105062
 20
75.636087291039871
 30
0.0
 11
52.775376479499997
 21
75.636087291039871
 31
0.0
  0
LINE
  5
2AD3
  8
2
 10
60.419526462988749
 20
71.830087258167922
 30
0.0
 11
60.419526634980031
 21
75.50908790979102
 31
0.0
  0
LINE
  5
2AD4
  8
0
 10
62.41952651495582
 20
71.542587436832832
 30
0.0
 11
61.245526423105062
 21
72.71658752868359
 31
0.0
  0
LINE
  5
2AD5
  8
0
 10
61.245526423105062
 20
70.238587519251155
 30
0.0
 11
61.245526423105062
 21
72.71658752868359
 31
0.0
  0
LINE
  5
2AD6
  8
0
 10
62.41952651495582
 20
71.412587611101912
 30
0.0
 11
61.245526423105062
 21
70.238587519251155
 31
0.0
  0
LINE
  5
2AD7
  8
0
 10
61.245526423105062
 20
69.541587450638744
 30
0.0
 11
62.41952651495582
 21
68.367587504307153
 31
0.0
  0
LINE
  5
2AD8
  8
0
 10
62.41952651495582
 20
68.23758750395325
 30
0.0
 11
61.245526423105062
 21
67.063587557621645
 31
0.0
  0
LINE
  5
2AD9
  8
0
 10
62.41952651495582
 20
68.23758750395325
 30
0.0
 11
62.41952651495582
 21
68.367587504307153
 31
0.0
  0
LINE
  5
2ADA
  8
0
 10
62.41952651495582
 20
71.412587611101912
 30
0.0
 11
62.41952651495582
 21
71.542587436832832
 31
0.0
  0
LINE
  5
2ADB
  8
0
 10
60.897026447006517
 20
69.890087543152603
 30
0.0
 11
61.245526423105062
 21
69.541587450638744
 31
0.0
  0
LINE
  5
2ADC
  8
0
 10
61.245526423105062
 20
67.063587557621645
 30
0.0
 11
61.245526423105062
 21
69.541587450638744
 31
0.0
  0
LINE
  5
2ADD
  8
0
 10
61.245526423105062
 20
70.238587519251155
 30
0.0
 11
60.897026447006517
 21
69.890087543152603
 31
0.0
  0
LINE
  5
2ADE
  8
0
 10
61.245526423105062
 20
73.413587480880665
 30
0.0
 11
62.41952651495582
 21
74.587587572731422
 31
0.0
  0
LINE
  5
2ADF
  8
0
 10
61.24702631811148
 20
75.890087828137325
 30
0.0
 11
61.373276406326347
 21
75.763837739922451
 31
0.0
  0
LINE
  5
2AE0
  8
0
 10
61.373276406326347
 20
75.763837739922451
 30
0.0
 11
61.245526423105062
 21
75.636087291039871
 31
0.0
  0
LINE
  5
2AE1
  8
0
 10
62.41952651495582
 20
74.717587631292986
 30
0.0
 11
61.373276406326347
 21
75.763837739922451
 31
0.0
  0
LINE
  5
2AE2
  8
0
 10
62.41952651495582
 20
74.587587572731422
 30
0.0
 11
62.41952651495582
 21
74.717587631292986
 31
0.0
  0
LINE
  5
2AE3
  8
0
 10
61.245526423105062
 20
73.413587480880665
 30
0.0
 11
61.245526423105062
 21
75.636087291039871
 31
0.0
  0
LINE
  5
2AE4
  8
0
 10
61.245526423105062
 20
72.71658752868359
 30
0.0
 11
60.897026447006517
 21
73.065087504782113
 31
0.0
  0
LINE
  5
2AE5
  8
0
 10
60.897026447006517
 20
73.065087504782113
 30
0.0
 11
61.245526423105062
 21
73.413587480880665
 31
0.0
  0
LINE
  5
2AE6
  8
2
 10
52.419526290623502
 20
75.509087737612731
 30
0.0
 11
52.419526462614769
 21
71.830087258167922
 31
0.0
  0
LINE
  5
2AE7
  8
0
 10
50.673526482083858
 20
75.890087828137325
 30
0.0
 11
52.880586593770438
 21
75.890087828137325
 31
0.0
  0
LINE
  5
2AE8
  8
0
 10
52.775376479499997
 20
75.636087291039871
 30
0.0
 11
50.419526410647691
 21
75.636087291039871
 31
0.0
  0
LINE
  5
2AE9
  8
0
 10
52.82473652491813
 20
75.890087828137325
 30
0.0
 11
52.719526410647688
 21
75.636087291039871
 31
0.0
  0
LINE
  5
2AEA
  8
0
 10
50.673526482083858
 20
75.890087828137325
 30
0.0
 11
50.419526410647691
 21
75.636087291039871
 31
0.0
  0
LINE
  5
2E2A
  8
2
 10
58.669526462801748
 20
64.271087219797437
 30
0.0
 11
54.169526462801763
 21
64.271087219797437
 31
0.0
  0
LINE
  5
2E2B
  8
2
 10
54.169526462801763
 20
64.271087219797437
 30
0.0
 11
53.788526452505053
 21
63.89008725816791
 31
0.0
  0
LINE
  5
2E2C
  8
2
 10
59.050526473098458
 20
63.89008725816791
 30
0.0
 11
58.669526462801748
 21
64.271087219797437
 31
0.0
  0
LINE
  5
2E2D
  8
2
 10
52.419526462801741
 20
75.509087737612731
 30
0.0
 11
60.419526462801763
 21
75.509087737612731
 31
0.0
  0
LINE
  5
2E2E
  8
2
 10
52.038526398488322
 20
75.890087828137325
 30
0.0
 11
52.419526462801741
 21
75.509087737612731
 31
0.0
  0
LINE
  5
2E2F
  8
2
 10
60.419526462801763
 20
75.509087737612731
 30
0.0
 11
60.800526527115167
 21
75.890087828137325
 31
0.0
  0
LINE
  5
2EF8
  8
2
 10
141.29975683129871
 20
71.830087258167922
 30
0.0
 11
141.29975683129871
 21
64.271087219797437
 31
0.0
  0
LINE
  5
2EF9
  8
2
 10
136.7997570250138
 20
64.271087219797437
 30
0.0
 11
136.7997570250138
 21
71.830087258167922
 31
0.0
  0
LINE
  5
2EFA
  8
0
 10
142.74975698031031
 20
75.636087291039871
 30
0.0
 11
142.74975698031031
 21
64.398087401040243
 31
0.0
  0
LINE
  5
2EFB
  8
0
 10
134.22375696785301
 20
70.238587519251155
 30
0.0
 11
134.22375696785301
 21
72.71658752868359
 31
0.0
  0
LINE
  5
2EFC
  8
0
 10
133.04975687600219
 20
71.412587611101912
 30
0.0
 11
134.22375696785301
 21
70.238587519251155
 31
0.0
  0
LINE
  5
2EFD
  8
1
 10
139.04975692815631
 20
78.390087828137339
 30
0.0
 11
139.04975692815631
 21
61.39008725816791
 31
0.0
  0
LINE
  5
2EFE
  8
0
 10
145.04975698031029
 20
64.398087401040243
 30
0.0
 11
145.04975698031029
 21
75.636087291039871
 31
0.0
  0
LINE
  5
2EFF
  8
2
 10
136.79975692815631
 20
64.271087219797437
 30
0.0
 11
141.29975692815631
 21
64.271087219797437
 31
0.0
  0
LINE
  5
2F00
  8
0
 10
142.69390691145799
 20
64.398087401040243
 30
0.0
 11
134.22375696785301
 21
64.398087401040243
 31
0.0
  0
LINE
  5
2F01
  8
0
 10
134.2222570728465
 20
63.89008725816791
 30
0.0
 11
142.4834864500865
 21
63.89008725816791
 31
0.0
  0
LINE
  5
2F02
  8
0
 10
142.4834864500865
 20
63.89008725816791
 30
0.0
 11
144.54175683743799
 21
63.89008725816791
 31
0.0
  0
LINE
  5
2F03
  8
0
 10
145.04975698031029
 20
64.398087401040243
 30
0.0
 11
142.69390691145799
 21
64.398087401040243
 31
0.0
  0
LINE
  5
2F04
  8
0
 10
145.04975698031029
 20
64.398087401040243
 30
0.0
 11
144.54175683743799
 21
63.89008725816791
 31
0.0
  0
LINE
  5
2F05
  8
0
 10
142.74975698031031
 20
64.398087401040243
 30
0.0
 11
142.5393365189388
 21
63.89008725816791
 31
0.0
  0
LINE
  5
2F06
  8
2
 10
141.29975692815631
 20
64.271087219797437
 30
0.0
 11
141.68075693845299
 21
63.89008725816791
 31
0.0
  0
LINE
  5
2F07
  8
0
 10
133.04975687600219
 20
65.062587455012249
 30
0.0
 11
133.9690067160829
 21
64.143337614931511
 31
0.0
  0
LINE
  5
2F08
  8
0
 10
134.22375696785301
 20
64.398087401040243
 30
0.0
 11
134.22375696785301
 21
66.366587489009234
 31
0.0
  0
LINE
  5
2F09
  8
2
 10
136.41875691785961
 20
63.89008725816791
 30
0.0
 11
136.79975692815631
 21
64.271087219797437
 31
0.0
  0
LINE
  5
2F0A
  8
0
 10
134.22375696785301
 20
64.398087401040243
 30
0.0
 11
133.9690067160829
 21
64.143337614931511
 31
0.0
  0
LINE
  5
2F0B
  8
0
 10
133.9690067160829
 20
64.143337614931511
 30
0.0
 11
134.2222570728465
 21
63.89008725816791
 31
0.0
  0
LINE
  5
2F0C
  8
0
 10
133.04975687600219
 20
68.23758750395325
 30
0.0
 11
134.22375696785301
 21
67.063587557621645
 31
0.0
  0
LINE
  5
2F0D
  8
0
 10
134.22375696785301
 20
67.063587557621645
 30
0.0
 11
134.22375696785301
 21
69.541587450638744
 31
0.0
  0
LINE
  5
2F0E
  8
0
 10
133.04975687600219
 20
65.062587455012249
 30
0.0
 11
133.04975687600219
 21
65.192587513573812
 31
0.0
  0
LINE
  5
2F0F
  8
0
 10
134.22375696785301
 20
67.063587557621645
 30
0.0
 11
134.57225694395149
 21
66.715087465107786
 31
0.0
  0
LINE
  5
2F10
  8
0
 10
134.57225694395149
 20
66.715087465107786
 30
0.0
 11
134.22375696785301
 21
66.366587489009234
 31
0.0
  0
LINE
  5
2F11
  8
0
 10
134.22375696785301
 20
66.366587489009234
 30
0.0
 11
133.04975687600219
 21
65.192587513573812
 31
0.0
  0
LINE
  5
2F12
  8
0
 10
133.04975687600219
 20
68.23758750395325
 30
0.0
 11
133.04975687600219
 21
68.367587504307153
 31
0.0
  0
LINE
  5
2F13
  8
0
 10
134.57225694395149
 20
69.890087543152603
 30
0.0
 11
134.22375696785301
 21
69.541587450638744
 31
0.0
  0
LINE
  5
2F14
  8
0
 10
134.22375696785301
 20
70.238587519251155
 30
0.0
 11
134.57225694395149
 21
69.890087543152603
 31
0.0
  0
LINE
  5
2F15
  8
0
 10
134.22375696785301
 20
69.541587450638744
 30
0.0
 11
133.04975687600219
 21
68.367587504307153
 31
0.0
  0
LINE
  5
2F16
  8
2
 10
143.0497569281562
 20
71.830087258167922
 30
0.0
 11
135.0497569281562
 21
71.830087258167922
 31
0.0
  0
LINE
  5
2F17
  8
0
 10
142.58869679718759
 20
75.890087828137325
 30
0.0
 11
134.2222570728465
 21
75.890087828137325
 31
0.0
  0
LINE
  5
2F18
  8
0
 10
134.22375696785301
 20
75.636087291039871
 30
0.0
 11
142.69390691145799
 21
75.636087291039871
 31
0.0
  0
LINE
  5
2F19
  8
2
 10
143.04975692815631
 20
75.509087737612731
 30
0.0
 11
135.04975692815631
 21
75.509087737612731
 31
0.0
  0
LINE
  5
2F1A
  8
0
 10
142.64454686603989
 20
75.890087828137325
 30
0.0
 11
142.74975698031031
 21
75.636087291039871
 31
0.0
  0
LINE
  5
2F1B
  8
0
 10
144.79575690887421
 20
75.890087828137325
 30
0.0
 11
145.04975698031029
 21
75.636087291039871
 31
0.0
  0
LINE
  5
2F1C
  8
2
 10
143.4307569924697
 20
75.890087828137325
 30
0.0
 11
143.04975692815631
 21
75.509087737612731
 31
0.0
  0
LINE
  5
2F1D
  8
2
 10
143.04975710033449
 20
75.509087737612731
 30
0.0
 11
143.04975692834319
 21
71.830087258167922
 31
0.0
  0
LINE
  5
2F1E
  8
0
 10
142.69390691145799
 20
75.636087291039871
 30
0.0
 11
145.04975698031029
 21
75.636087291039871
 31
0.0
  0
LINE
  5
2F1F
  8
0
 10
144.79575690887421
 20
75.890087828137325
 30
0.0
 11
142.58869679718759
 21
75.890087828137325
 31
0.0
  0
LINE
  5
2F20
  8
0
 10
134.2222570728465
 20
75.890087828137325
 30
0.0
 11
134.09600698463171
 21
75.763837739922451
 31
0.0
  0
LINE
  5
2F21
  8
2
 10
135.04975692815631
 20
75.509087737612731
 30
0.0
 11
134.66875686384279
 21
75.890087828137325
 31
0.0
  0
LINE
  5
2F22
  8
2
 10
135.04975692796921
 20
71.830087258167922
 30
0.0
 11
135.049756755978
 21
75.50908790979102
 31
0.0
  0
LINE
  5
2F23
  8
0
 10
134.57225694395149
 20
73.065087504782113
 30
0.0
 11
134.22375696785301
 21
73.413587480880665
 31
0.0
  0
LINE
  5
2F24
  8
0
 10
133.04975687600219
 20
71.412587611101912
 30
0.0
 11
133.04975687600219
 21
71.542587436832832
 31
0.0
  0
LINE
  5
2F25
  8
0
 10
134.22375696785301
 20
72.71658752868359
 30
0.0
 11
134.57225694395149
 21
73.065087504782113
 31
0.0
  0
LINE
  5
2F26
  8
0
 10
133.04975687600219
 20
71.542587436832832
 30
0.0
 11
134.22375696785301
 21
72.71658752868359
 31
0.0
  0
LINE
  5
2F27
  8
0
 10
133.04975687600219
 20
74.587587572731422
 30
0.0
 11
133.04975687600219
 21
74.717587631292986
 31
0.0
  0
LINE
  5
2F28
  8
0
 10
133.04975687600219
 20
74.717587631292986
 30
0.0
 11
134.09600698463171
 21
75.763837739922451
 31
0.0
  0
LINE
  5
2F29
  8
0
 10
134.22375696785301
 20
73.413587480880665
 30
0.0
 11
134.22375696785301
 21
75.636087291039871
 31
0.0
  0
LINE
  5
2F2A
  8
0
 10
134.09600698463171
 20
75.763837739922451
 30
0.0
 11
134.22375696785301
 21
75.636087291039871
 31
0.0
  0
LINE
  5
2F2B
  8
0
 10
134.22375696785301
 20
73.413587480880665
 30
0.0
 11
133.04975687600219
 21
74.587587572731422
 31
0.0
  0
LINE
  5
2F9F
  8
0
 10
91.98864171476113
 20
101.3548876583104
 30
0.0
 11
94.208141500080686
 21
101.3548876583104
 31
0.0
  0
LINE
  5
2FA2
  8
0
 10
91.988641714761116
 20
101.3548876583104
 30
0.0
 11
91.862391626546284
 21
101.2286375700955
 31
0.0
  0
LINE
  5
2FA3
  8
0
 10
103.4806416761969
 20
101.3548876583104
 30
0.0
 11
103.6068917644117
 21
101.2286375700955
 31
0.0
  0
LINE
  5
2FA4
  8
0
 10
94.911141967618306
 20
101.3548876583104
 30
0.0
 11
97.383141344795803
 21
101.3548876583104
 31
0.0
  0
LINE
  5
2FA5
  8
0
 10
98.086142046162223
 20
101.3548876583104
 30
0.0
 11
100.55814142333961
 21
101.3548876583104
 31
0.0
  0
LINE
  5
2FA6
  8
0
 10
101.2611418908773
 20
101.3548876583104
 30
0.0
 11
103.4806416761969
 21
101.3548876583104
 31
0.0
  0
LINE
  5
2FDD
  8
0
 10
91.989391895094982
 20
38.881396193619679
 30
0.0
 11
92.242641786197296
 21
38.628145836856092
 31
0.0
  0
LINE
  5
2FDE
  8
0
 10
103.479891495863
 20
38.881396193619679
 30
0.0
 11
103.2266416047606
 21
38.628145836856092
 31
0.0
  0
INSERT
  5
2FEF
  8
0
  2
BATU
 10
0.0
 20
0.0
 30
0.0
 41
0.001
 42
0.001
 43
0.001
  0
TEXT
  5
309C
  8
0
 62
     3
 10
0.0
 20
0.0
 30
0.0
 40
5.0
  1
HSE-9122
  7
STANDARD1
  0
ENDSEC
  0
EOF
