  0
SECTION
  2
HEADER
  9
$ACADVER
  1
AC1009
  9
$INSBASE
 10
0.0
 20
0.0
 30
0.0
  9
$EXTMIN
 10
0.0
 20
-1.4802182810368341
 30
0.0
  9
$EXTMAX
 10
140.37738086014559
 20
114.2755397317469
 30
0.0
  9
$LIMMIN
 10
0.0
 20
0.0
  9
$LIMMAX
 10
187.5
 20
135.0
  9
$ORTHOMODE
 70
     1
  9
$REGENMODE
 70
     1
  9
$FILLMODE
 70
     1
  9
$QTEXTMODE
 70
     0
  9
$MIRRTEXT
 70
     0
  9
$DRAGMODE
 70
     2
  9
$LTSCALE
 40
5.0
  9
$OSMODE
 70
    55
  9
$ATTMODE
 70
     1
  9
$TEXTSIZE
 40
2.5
  9
$TRACEWID
 40
0.05
  9
$TEXTSTYLE
  7
STANDARD
  9
$CLAYER
  8
0
  9
$CELTYPE
  6
BYLAYER
  9
$CECOLOR
 62
   256
  9
$DIMSCALE
 40
0.5
  9
$DIMASZ
 40
3.0
  9
$DIMEXO
 40
2.0
  9
$DIMDLI
 40
10.0
  9
$DIMRND
 40
0.0
  9
$DIMDLE
 40
0.0
  9
$DIMEXE
 40
2.0
  9
$DIMTP
 40
0.0
  9
$DIMTM
 40
0.0
  9
$DIMTXT
 40
3.0
  9
$DIMCEN
 40
0.09
  9
$DIMTSZ
 40
0.0
  9
$DIMTOL
 70
     0
  9
$DIMLIM
 70
     0
  9
$DIMTIH
 70
     0
  9
$DIMTOH
 70
     0
  9
$DIMSE1
 70
     0
  9
$DIMSE2
 70
     0
  9
$DIMTAD
 70
     1
  9
$DIMZIN
 70
     0
  9
$DIMBLK
  1

  9
$DIMASO
 70
     0
  9
$DIMSHO
 70
     0
  9
$DIMPOST
  1

  9
$DIMAPOST
  1

  9
$DIMALT
 70
     0
  9
$DIMALTD
 70
     2
  9
$DIMALTF
 40
25.399999999999999
  9
$DIMLFAC
 40
1.0
  9
$DIMTOFL
 70
     1
  9
$DIMTVP
 40
1.6000000000000001
  9
$DIMTIX
 70
     1
  9
$DIMSOXD
 70
     0
  9
$DIMSAH
 70
     0
  9
$DIMBLK1
  1

  9
$DIMBLK2
  1

  9
$DIMSTYLE
  2
STANDARD
  9
$DIMCLRD
 70
     0
  9
$DIMCLRE
 70
     0
  9
$DIMCLRT
 70
     0
  9
$DIMTFAC
 40
1.0
  9
$DIMGAP
 40
0.09
  9
$LUNITS
 70
     2
  9
$LUPREC
 70
     4
  9
$SKETCHINC
 40
0.1
  9
$FILLETRAD
 40
0.0
  9
$AUNITS
 70
     0
  9
$AUPREC
 70
     0
  9
$MENU
  1
E:\r13\win\SUPPORT\ACAD
  9
$ELEVATION
 40
0.0
  9
$PELEVATION
 40
0.0
  9
$THICKNESS
 40
0.0
  9
$LIMCHECK
 70
     0
  9
$BLIPMODE
 70
     0
  9
$CHAMFERA
 40
2.2999999999999989
  9
$CHAMFERB
 40
2.2999999999999989
  9
$SKPOLY
 70
     0
  9
$TDCREATE
 40
2449840.5944097228
  9
$TDUPDATE
 40
2456598.6932655559
  9
$TDINDWG
 40
0.0831082639
  9
$TDUSRTIMER
 40
0.0831082639
  9
$USRTIMER
 70
     1
  9
$ANGBASE
 50
0.0
  9
$ANGDIR
 70
     0
  9
$PDMODE
 70
     0
  9
$PDSIZE
 40
0.0
  9
$PLINEWID
 40
0.0
  9
$COORDS
 70
     1
  9
$SPLFRAME
 70
     0
  9
$SPLINETYPE
 70
     6
  9
$SPLINESEGS
 70
     8
  9
$ATTDIA
 70
     0
  9
$ATTREQ
 70
     1
  9
$HANDLING
 70
     1
  9
$HANDSEED
  5
146B
  9
$SURFTAB1
 70
     6
  9
$SURFTAB2
 70
     6
  9
$SURFTYPE
 70
     6
  9
$SURFU
 70
     6
  9
$SURFV
 70
     6
  9
$UCSNAME
  2

  9
$UCSORG
 10
0.0
 20
0.0
 30
0.0
  9
$UCSXDIR
 10
1.0
 20
0.0
 30
0.0
  9
$UCSYDIR
 10
0.0
 20
1.0
 30
0.0
  9
$PUCSNAME
  2

  9
$PUCSORG
 10
0.0
 20
0.0
 30
0.0
  9
$PUCSXDIR
 10
1.0
 20
0.0
 30
0.0
  9
$PUCSYDIR
 10
0.0
 20
1.0
 30
0.0
  9
$USERI1
 70
     0
  9
$USERI2
 70
     1
  9
$USERI3
 70
     1
  9
$USERI4
 70
     0
  9
$USERI5
 70
     0
  9
$USERR1
 40
0.0
  9
$USERR2
 40
0.0
  9
$USERR3
 40
0.0
  9
$USERR4
 40
0.0
  9
$USERR5
 40
0.0
  9
$WORLDVIEW
 70
     1
  9
$SHADEDGE
 70
     3
  9
$SHADEDIF
 70
    70
  9
$TILEMODE
 70
     1
  9
$MAXACTVP
 70
    16
  9
$PLIMCHECK
 70
     0
  9
$PEXTMIN
 10
1.0000000000000000E+020
 20
1.0000000000000000E+020
 30
1.0000000000000000E+020
  9
$PEXTMAX
 10
-1.0000000000000000E+020
 20
-1.0000000000000000E+020
 30
-1.0000000000000000E+020
  9
$PLIMMIN
 10
0.0
 20
0.0
  9
$PLIMMAX
 10
12.0
 20
9.0
  9
$UNITMODE
 70
     0
  9
$VISRETAIN
 70
     0
  9
$PLINEGEN
 70
     0
  9
$PSLTSCALE
 70
     0
  0
ENDSEC
  0
SECTION
  2
TABLES
  0
TABLE
  2
VPORT
 70
     1
  0
VPORT
  2
*ACTIVE
 70
     0
 10
0.0
 20
0.0
 11
1.0
 21
1.0
 12
93.74713919532617
 22
87.458386271734256
 13
0.0
 23
0.0
 14
5.0
 24
5.0
 15
5.0
 25
5.0
 16
0.0
 26
0.0
 36
1.0
 17
0.0
 27
0.0
 37
0.0
 40
179.46013949787169
 41
1.7807262569832401
 42
50.0
 43
0.0
 44
0.0
 50
0.0
 51
0.0
 71
     0
 72
   100
 73
     1
 74
     0
 75
     0
 76
     0
 77
     0
 78
     0
  0
ENDTAB
  0
TABLE
  2
LTYPE
 70
     4
  0
LTYPE
  2
CONTINUOUS
 70
     0
  3
Solid Line
 72
    65
 73
     0
 40
0.0
  0
LTYPE
  2
CENTER
 70
     0
  3
____ _ ____ _ ____ _ ____ _ ____ _ ____ _ ____
 72
    65
 73
     4
 40
2.0
 49
1.25
 49
-0.25
 49
0.25
 49
-0.25
  0
LTYPE
  2
HIDDEN
 70
     0
  3
_ _ _ _ _ _ _ _ _ _ _ _ _ _ _ _ _ _ _ _ _ _ _
 72
    65
 73
     2
 40
0.375
 49
0.25
 49
-0.125
  0
LTYPE
  2
PHANTOM2
 70
     0
  3
___ _ _ ___ _ _ ___ _ _ ___ _ _
 72
    65
 73
     6
 40
1.25
 49
0.625
 49
-0.125
 49
0.125
 49
-0.125
 49
0.125
 49
-0.125
  0
ENDTAB
  0
TABLE
  2
LAYER
 70
     4
  0
LAYER
  2
0
 70
     0
 62
     7
  6
CONTINUOUS
  0
LAYER
  2
1
 70
     0
 62
     1
  6
CENTER
  0
LAYER
  2
2
 70
     0
 62
     2
  6
HIDDEN
  0
LAYER
  2
3
 70
     0
 62
     3
  6
CONTINUOUS
  0
ENDTAB
  0
TABLE
  2
STYLE
 70
     2
  0
STYLE
  2
STANDARD
 70
     0
 40
0.0
 41
1.0
 50
0.0
 71
     0
 42
2.5
  3
TXT
  4
BIGFONT
  0
STYLE
  2
STANDARD1
 70
     0
 40
0.0
 41
1.0
 50
0.0
 71
     0
 42
3.0
  3
txt
  4

  0
ENDTAB
  0
TABLE
  2
VIEW
 70
     1
  0
VIEW
  2
ALL
 70
     0
 40
135.0
 10
110.49579799999999
 20
67.5
 41
0.0
 11
0.0
 21
0.0
 31
1.0
 12
0.0
 22
0.0
 32
0.0
 42
0.0
 43
0.0
 44
0.0
 50
0.0
 71
     0
  0
ENDTAB
  0
TABLE
  2
UCS
 70
     0
  0
ENDTAB
  0
TABLE
  2
APPID
 70
     4
  0
APPID
  2
ACAD
 70
     0
  0
APPID
  2
DCO15
 70
     0
  0
APPID
  2
ACAD_MLEADERVER
 70
     0
  0
APPID
  2
ACAD_NAV_VCDISPLAY
 70
     0
  0
ENDTAB
  0
TABLE
  2
DIMSTYLE
 70
     1
  0
DIMSTYLE
  2
STANDARD
 70
     0
  3

  4

  5

  6

  7

 40
1.0
 41
0.18
 42
0.0625
 43
0.38
 44
0.18
 45
0.0
 46
0.0
 47
0.0
 48
0.0
140
0.18
141
0.09
142
0.0
143
25.399999999999999
144
1.0
145
0.0
146
1.0
147
0.09
 71
     0
 72
     0
 73
     1
 74
     1
 75
     0
 76
     0
 77
     0
 78
     0
170
     0
171
     2
172
     0
173
     0
174
     0
175
     0
176
     0
177
     0
178
     0
  0
ENDTAB
  0
ENDSEC
  0
SECTION
  2
BLOCKS
  0
BLOCK
  8
0
  2
$MODEL_SPACE
 70
     0
 10
0.0
 20
0.0
 30
0.0
  3
$MODEL_SPACE
  1

  0
ENDBLK
  5
15D
  8
0
  0
BLOCK
 67
     1
  8
0
  2
$PAPER_SPACE
 70
     0
 10
0.0
 20
0.0
 30
0.0
  3
$PAPER_SPACE
  1

  0
ENDBLK
  5
15B
 67
     1
  8
0
  0
BLOCK
  8
0
  2
STDGX5
 70
     0
 10
0.0
 20
0.0
 30
0.0
  3
STDGX5
  1

  0
ENDBLK
  5
41
  8
0
  0
ENDSEC
  0
SECTION
  2
ENTITIES
  0
INSERT
  5
CA
  8
0
  2
STDGX5
 10
0.0
 20
0.0
 30
0.0
  0
INSERT
  5
69A
  8
0
  2
STDGX5
 10
194.3272563481562
 20
13.52129245667936
 30
0.0
  0
CIRCLE
  5
CB7
  8
2
 10
97.570829755561377
 20
105.7755396795928
 30
0.0
 40
2.631000000000014
  0
CIRCLE
  5
CB9
  8
0
 10
97.570829755561377
 20
105.7755396795928
 30
0.0
 40
2.25
  0
CIRCLE
  5
CBB
  8
0
 10
97.570829755561377
 20
105.7755396795928
 30
0.0
 40
3.9999999999999849
  0
CIRCLE
  5
CBC
  8
0
 10
97.570829755561377
 20
105.7755396795928
 30
0.0
 40
4.3810000000000002
  0
LINE
  5
CBD
  8
0
 10
97.395829761801224
 20
101.1245398876726
 30
0.0
 11
94.570829729484316
 21
101.1245398876726
 31
0.0
  0
LINE
  5
CBE
  8
0
 10
93.87082970340731
 20
111.7755397317469
 30
0.0
 11
101.2708298077154
 21
111.7755397317469
 31
0.0
  0
LINE
  5
CBF
  8
0
 10
101.1656196343087
 20
111.52153966031069
 30
0.0
 11
93.976039876813871
 21
111.52153966031069
 31
0.0
  0
LINE
  5
CC0
  8
1
 10
89.070829703407284
 20
105.7755396795928
 30
0.0
 11
106.0708298077154
 21
105.7755396795928
 31
0.0
  0
LINE
  5
CC7
  8
3
 10
93.035641770893818
 20
70.959239888661884
 30
0.0
 11
96.083641696805216
 21
74.007239930988646
 31
0.0
  0
LINE
  5
CC9
  8
3
 10
96.083641696805216
 20
70.832239852943815
 30
0.0
 11
94.734641669401981
 21
69.483239941955901
 31
0.0
  0
LINE
  5
CCD
  8
3
 10
96.083641696805216
 20
74.134239850291394
 30
0.0
 11
94.734641669401981
 21
75.483239994109965
 31
0.0
  0
LINE
  5
CCF
  8
0
 10
103.5708298077154
 20
109.47553973174691
 30
0.0
 11
103.5708298077154
 21
100.9495397192895
 31
0.0
  0
LINE
  5
CD0
  8
0
 10
103.3168297362792
 20
101.1245398876726
 30
0.0
 11
103.3168297362792
 21
109.3703295583402
 31
0.0
  0
LINE
  5
CD1
  8
1
 10
97.570829755561377
 20
114.2755397317469
 30
0.0
 11
97.570829755561377
 21
97.275539627438775
 31
0.0
  0
LINE
  5
CD8
  8
3
 10
102.56064165578231
 20
74.007239930988646
 30
0.0
 11
103.73464174763301
 21
72.833239897345535
 31
0.0
  0
LINE
  5
CD9
  8
3
 10
99.385641461322166
 20
70.959239888661884
 30
0.0
 11
102.43364185289479
 21
74.007239930988646
 31
0.0
  0
LINE
  5
CDA
  8
3
 10
96.2106417325233
 20
74.007239930988646
 30
0.0
 11
99.258641658434712
 21
70.959239888661884
 31
0.0
  0
LINE
  5
CDB
  8
3
 10
96.210641732523285
 20
70.959239888661884
 30
0.0
 11
99.258641658434726
 21
74.007239930988646
 31
0.0
  0
LINE
  5
CDC
  8
3
 10
99.38564169415281
 20
74.007239930988646
 30
0.0
 11
102.43364162006419
 21
70.959239888661884
 31
0.0
  0
LINE
  5
CDD
  8
1
 10
97.734641695479013
 20
77.983239994109965
 30
0.0
 11
97.734641695479013
 21
66.983239941955901
 31
0.0
  0
LINE
  5
CE0
  8
3
 10
100.734641721556
 20
69.483239941955901
 30
0.0
 11
99.38564169415281
 21
70.832239852943815
 31
0.0
  0
LINE
  5
CE3
  8
0
 10
103.73464174763301
 20
69.991239851997591
 30
0.0
 11
103.73464174763301
 21
75.229239922673784
 31
0.0
  0
LINE
  5
CE4
  8
3
 10
100.90964165710849
 20
75.483239994109965
 30
0.0
 11
100.90964165710849
 21
69.483239941955901
 31
0.0
  0
LINE
  5
CE5
  8
3
 10
103.5681417603884
 20
69.824739864752985
 30
0.0
 11
102.56064165578231
 21
70.832239852943815
 31
0.0
  0
LINE
  5
CE6
  8
3
 10
102.43364185289479
 20
70.832239852943815
 30
0.0
 11
101.084641592661
 21
69.483239941955901
 31
0.0
  0
LINE
  5
CEA
  8
0
 10
103.2266416047607
 20
69.483239941955901
 30
0.0
 11
103.73464186115081
 21
69.991239851997577
 31
0.0
  0
LINE
  5
CEF
  8
3
 10
103.73464174763301
 20
72.483239909825272
 30
0.0
 11
91.734641643324949
 21
72.483239909825272
 31
0.0
  0
LINE
  5
CF0
  8
3
 10
102.56064165578231
 20
70.959239888661884
 30
0.0
 11
103.73464174763301
 21
72.133239922304995
 31
0.0
  0
LINE
  5
CF1
  8
3
 10
102.56064165578231
 20
70.832239852943815
 30
0.0
 11
102.56064165578231
 21
70.959239888661884
 31
0.0
  0
LINE
  5
CF2
  8
3
 10
102.56064165578231
 20
70.959239888661884
 30
0.0
 11
102.43364185289479
 21
70.959239888661884
 31
0.0
  0
LINE
  5
CF3
  8
3
 10
102.43364185289479
 20
70.959239888661884
 30
0.0
 11
102.43364185289479
 21
70.832239852943815
 31
0.0
  0
LINE
  5
CF4
  8
3
 10
102.43364185289479
 20
70.832239852943815
 30
0.0
 11
102.56064165578231
 21
70.832239852943815
 31
0.0
  0
LINE
  5
CF8
  8
3
 10
97.559641701718874
 20
69.483239941955901
 30
0.0
 11
96.2106417325233
 21
70.832239852943815
 31
0.0
  0
LINE
  5
CF9
  8
3
 10
97.734641695479013
 20
75.483239994109965
 30
0.0
 11
97.734641695479013
 21
69.483239941955901
 31
0.0
  0
LINE
  5
CFA
  8
3
 10
99.258641658434726
 20
70.832239852943815
 30
0.0
 11
97.909641689239152
 21
69.483239941955901
 31
0.0
  0
LINE
  5
CFF
  8
3
 10
99.258641658434726
 20
70.832239852943815
 30
0.0
 11
99.38564169415281
 21
70.832239852943815
 31
0.0
  0
LINE
  5
D00
  8
3
 10
99.38564169415281
 20
70.832239852943815
 30
0.0
 11
99.38564169415281
 21
70.959239888661884
 31
0.0
  0
LINE
  5
D01
  8
3
 10
99.38564169415281
 20
70.959239888661884
 30
0.0
 11
99.258641658434726
 21
70.959239888661884
 31
0.0
  0
LINE
  5
D02
  8
3
 10
99.258641658434726
 20
70.959239888661884
 30
0.0
 11
99.258641658434726
 21
70.832239852943815
 31
0.0
  0
LINE
  5
D04
  8
3
 10
96.083641696805216
 20
70.832239852943815
 30
0.0
 11
96.2106417325233
 21
70.832239852943815
 31
0.0
  0
LINE
  5
D05
  8
3
 10
96.2106417325233
 20
70.832239852943815
 30
0.0
 11
96.2106417325233
 21
70.959239888661884
 31
0.0
  0
LINE
  5
D06
  8
3
 10
96.2106417325233
 20
70.959239888661884
 30
0.0
 11
96.083641696805216
 21
70.959239888661884
 31
0.0
  0
LINE
  5
D07
  8
3
 10
96.083641696805216
 20
70.959239888661884
 30
0.0
 11
96.083641696805216
 21
70.832239852943815
 31
0.0
  0
LINE
  5
D09
  8
3
 10
100.734641721556
 20
75.483239994109965
 30
0.0
 11
99.38564169415281
 21
74.134239850291394
 31
0.0
  0
LINE
  5
D0D
  8
3
 10
102.43364185289479
 20
74.134239850291394
 30
0.0
 11
101.084641592661
 21
75.483239994109965
 31
0.0
  0
LINE
  5
D0E
  8
3
 10
103.6951415632759
 20
75.268739874200321
 30
0.0
 11
102.56064165578231
 21
74.134239850291394
 31
0.0
  0
LINE
  5
D0F
  8
3
 10
102.56064165578231
 20
74.007239930988646
 30
0.0
 11
102.43364185289479
 21
74.007239930988646
 31
0.0
  0
LINE
  5
D10
  8
3
 10
102.56064165578231
 20
74.007239930988646
 30
0.0
 11
102.56064165578231
 21
74.134239850291394
 31
0.0
  0
LINE
  5
D11
  8
3
 10
102.43364185289479
 20
74.134239850291394
 30
0.0
 11
102.56064165578231
 21
74.134239850291394
 31
0.0
  0
LINE
  5
D12
  8
3
 10
102.43364185289479
 20
74.134239850291394
 30
0.0
 11
102.43364185289479
 21
74.007239930988646
 31
0.0
  0
LINE
  5
D14
  8
0
 10
103.73464174763301
 20
75.229239646967358
 30
0.0
 11
103.4806416761969
 21
75.483239994109965
 31
0.0
  0
LINE
  5
D19
  8
3
 10
99.258641658434726
 20
74.134239850291394
 30
0.0
 11
97.909641689239152
 21
75.483239994109965
 31
0.0
  0
LINE
  5
D1A
  8
3
 10
99.258641658434726
 20
74.134239850291394
 30
0.0
 11
99.38564169415281
 21
74.134239850291394
 31
0.0
  0
LINE
  5
D1B
  8
3
 10
99.258641658434726
 20
74.134239850291394
 30
0.0
 11
99.258641658434726
 21
74.007239930988646
 31
0.0
  0
LINE
  5
D1C
  8
3
 10
99.38564169415281
 20
74.007239930988646
 30
0.0
 11
99.258641658434726
 21
74.007239930988646
 31
0.0
  0
LINE
  5
D1D
  8
3
 10
99.38564169415281
 20
74.007239930988646
 30
0.0
 11
99.38564169415281
 21
74.134239850291394
 31
0.0
  0
LINE
  5
D1E
  8
3
 10
97.559641701718874
 20
75.483239994109965
 30
0.0
 11
96.2106417325233
 21
74.134239850291394
 31
0.0
  0
LINE
  5
D1F
  8
3
 10
96.2106417325233
 20
74.007239930988646
 30
0.0
 11
96.083641696805216
 21
74.007239930988646
 31
0.0
  0
LINE
  5
D20
  8
3
 10
96.2106417325233
 20
74.007239930988646
 30
0.0
 11
96.2106417325233
 21
74.134239850291394
 31
0.0
  0
LINE
  5
D21
  8
3
 10
96.083641696805216
 20
74.134239850291394
 30
0.0
 11
96.2106417325233
 21
74.134239850291394
 31
0.0
  0
LINE
  5
D22
  8
3
 10
96.083641696805216
 20
74.134239850291394
 30
0.0
 11
96.083641696805216
 21
74.007239930988646
 31
0.0
  0
LINE
  5
D25
  8
0
 10
96.046827258073534
 20
99.775539627438775
 30
0.0
 11
97.570829755561377
 21
101.2995395903945
 31
0.0
  0
LINE
  5
D26
  8
0
 10
97.570829755561377
 20
101.2995395903945
 30
0.0
 11
99.094832253049219
 21
99.775539627438775
 31
0.0
  0
LINE
  5
D27
  8
0
 10
99.22182772660949
 20
99.775539627438775
 30
0.0
 11
100.7458297171909
 21
101.2995395903945
 31
0.0
  0
LINE
  5
D28
  8
0
 10
100.7458297171909
 20
101.2995395903945
 30
0.0
 11
102.2698317077723
 21
99.775539627438775
 31
0.0
  0
LINE
  5
D2A
  8
0
 10
100.57082978163839
 20
101.1245398876726
 30
0.0
 11
97.745829749321516
 21
101.1245398876726
 31
0.0
  0
LINE
  5
D2C
  8
0
 10
103.3168297362792
 20
101.1245398876726
 30
0.0
 11
100.92082965274329
 21
101.1245398876726
 31
0.0
  0
LINE
  5
D2E
  8
0
 10
102.2698299129772
 20
99.775539627438775
 30
0.0
 11
102.3968297158647
 21
99.775539627438775
 31
0.0
  0
LINE
  5
D30
  8
0
 10
103.5708298077154
 20
100.9495397192895
 30
0.0
 11
102.3968297158647
 21
99.775539627438775
 31
0.0
  0
LINE
  5
D31
  8
0
 10
103.5313296233582
 20
100.9100395349323
 30
0.0
 11
103.3168297362792
 21
101.1245398876726
 31
0.0
  0
LINE
  5
D33
  8
0
 10
99.09482971851709
 20
99.775539627438775
 30
0.0
 11
99.221829754235173
 21
99.775539627438775
 31
0.0
  0
LINE
  5
D35
  8
0
 10
95.919829756887566
 20
99.775539627438775
 30
0.0
 11
96.046829792605664
 21
99.775539627438775
 31
0.0
  0
LINE
  5
D41
  8
0
 10
91.570829703407284
 20
100.9495397192895
 30
0.0
 11
91.570829703407284
 21
109.47553973174691
 31
0.0
  0
LINE
  5
D42
  8
0
 10
91.824829774843465
 20
109.3703295583403
 30
0.0
 11
91.824829774843465
 21
101.1245398876726
 31
0.0
  0
LINE
  5
D48
  8
0
 10
91.734641643324949
 20
75.229239922673784
 30
0.0
 11
91.734641643324949
 21
69.991239851997591
 31
0.0
  0
LINE
  5
D49
  8
3
 10
91.734641643324949
 20
72.833239897345535
 30
0.0
 11
92.908641735175706
 21
74.007239930988646
 31
0.0
  0
LINE
  5
D4A
  8
3
 10
93.035641538063146
 20
74.007239930988646
 30
0.0
 11
96.083641929635846
 21
70.959239888661884
 31
0.0
  0
LINE
  5
D4C
  8
0
 10
103.73464174763301
 20
69.991239851997591
 30
0.0
 11
91.734641643324949
 21
69.991239851997591
 31
0.0
  0
LINE
  5
D4F
  8
3
 10
91.734641643324949
 20
72.133239922304995
 30
0.0
 11
92.908641735175706
 21
70.959239888661884
 31
0.0
  0
LINE
  5
D51
  8
3
 10
92.908641735175706
 20
70.832239852943815
 30
0.0
 11
91.901141630569555
 21
69.824739864752985
 31
0.0
  0
LINE
  5
D52
  8
3
 10
94.559641733849503
 20
75.483239994109965
 30
0.0
 11
94.559641733849503
 21
69.483239941955901
 31
0.0
  0
LINE
  5
D53
  8
3
 10
94.384641798297025
 20
69.483239941955901
 30
0.0
 11
93.035641538063146
 21
70.832239852943815
 31
0.0
  0
LINE
  5
D54
  8
0
 10
92.242641786197282
 20
69.483239941955901
 30
0.0
 11
103.2266416047607
 21
69.483239941955901
 31
0.0
  0
LINE
  5
D59
  8
0
 10
91.734641529807249
 20
69.991239851997591
 30
0.0
 11
92.242641786197282
 21
69.483239941955901
 31
0.0
  0
LINE
  5
D5B
  8
3
 10
92.908641735175706
 20
70.832239852943815
 30
0.0
 11
93.035641538063146
 21
70.832239852943815
 31
0.0
  0
LINE
  5
D5C
  8
3
 10
93.035641538063146
 20
70.832239852943815
 30
0.0
 11
93.035641538063146
 21
70.959239888661884
 31
0.0
  0
LINE
  5
D5D
  8
3
 10
93.035641538063146
 20
70.959239888661884
 30
0.0
 11
92.908641735175706
 21
70.959239888661884
 31
0.0
  0
LINE
  5
D5E
  8
3
 10
92.908641735175706
 20
70.959239888661884
 30
0.0
 11
92.908641735175706
 21
70.832239852943815
 31
0.0
  0
LINE
  5
D62
  8
0
 10
91.734641643324949
 20
75.229239922673784
 30
0.0
 11
103.73464174763301
 21
75.229239922673784
 31
0.0
  0
LINE
  5
D63
  8
0
 10
91.988641714761116
 20
75.483239994109965
 30
0.0
 11
91.734641919031077
 21
75.229239922673784
 31
0.0
  0
LINE
  5
D64
  8
3
 10
92.908641735175706
 20
74.134239850291394
 30
0.0
 11
91.774141827682115
 21
75.268739874200321
 31
0.0
  0
LINE
  5
D65
  8
0
 10
103.4806416761969
 20
75.483239994109965
 30
0.0
 11
91.988641714761116
 21
75.483239994109965
 31
0.0
  0
LINE
  5
D66
  8
3
 10
94.384641798297025
 20
75.483239994109965
 30
0.0
 11
93.035641538063146
 21
74.134239850291394
 31
0.0
  0
LINE
  5
D6A
  8
3
 10
93.035641538063146
 20
74.007239930988646
 30
0.0
 11
92.908641735175706
 21
74.007239930988646
 31
0.0
  0
LINE
  5
D6B
  8
3
 10
93.035641538063146
 20
74.007239930988646
 30
0.0
 11
93.035641538063146
 21
74.134239850291394
 31
0.0
  0
LINE
  5
D6C
  8
3
 10
92.908641735175706
 20
74.134239850291394
 30
0.0
 11
93.035641538063146
 21
74.134239850291394
 31
0.0
  0
LINE
  5
D6D
  8
3
 10
92.908641735175706
 20
74.134239850291394
 30
0.0
 11
92.908641735175706
 21
74.007239930988646
 31
0.0
  0
LINE
  5
D9A
  8
0
 10
92.871827803350442
 20
99.775539627438775
 30
0.0
 11
94.395829793931838
 21
101.2995395903945
 31
0.0
  0
LINE
  5
D9B
  8
0
 10
94.395829793931838
 20
101.2995395903945
 30
0.0
 11
95.919831784513292
 21
99.775539627438775
 31
0.0
  0
LINE
  5
D9C
  8
0
 10
92.744829795258056
 20
99.775539627438775
 30
0.0
 11
91.570829703407284
 21
100.9495397192895
 31
0.0
  0
LINE
  5
D9D
  8
0
 10
91.824829774843465
 20
101.1245398876726
 30
0.0
 11
91.610329887764465
 21
100.9100395349323
 31
0.0
  0
LINE
  5
D9F
  8
0
 10
94.220829858379375
 20
101.1245398876726
 30
0.0
 11
91.824829774843465
 21
101.1245398876726
 31
0.0
  0
LINE
  5
DA0
  8
0
 10
92.744829795258056
 20
99.775539627438775
 30
0.0
 11
92.871829598145496
 21
99.775539627438775
 31
0.0
  0
CIRCLE
  5
10ED
  8
0
 10
97.734641695479013
 20
39.754795772991741
 30
0.0
 40
2.25
  0
CIRCLE
  5
10EE
  8
2
 10
97.734641695479013
 20
39.75479577299177
 30
0.0
 40
3.9999999999999849
  0
CIRCLE
  5
10EF
  8
0
 10
97.734641695479013
 20
39.754795772991741
 30
0.0
 40
2.631000000000014
  0
LINE
  5
10F0
  8
1
 10
97.734641695479013
 20
31.254795720837681
 30
0.0
 11
97.734641695478985
 21
48.254795825145813
 31
0.0
  0
LINE
  5
10F2
  8
0
 10
103.2266416047607
 20
44.405795564911912
 30
0.0
 11
103.2266416047607
 21
36.265216269702847
 31
0.0
  0
LINE
  5
10F3
  8
0
 10
103.73464174763301
 20
44.580795733295027
 30
0.0
 11
103.73464174763301
 21
36.054795720837681
 31
0.0
  0
LINE
  5
10F5
  8
0
 10
91.734641643324949
 20
36.05479572083766
 30
0.0
 11
91.734641643324949
 21
44.580795733295048
 31
0.0
  0
LINE
  5
10F6
  8
0
 10
92.242641786197282
 20
36.26521626970289
 30
0.0
 11
92.242641786197282
 21
44.405795564911926
 31
0.0
  0
CIRCLE
  5
10F7
  8
2
 10
97.734641695479013
 20
39.75479577299177
 30
0.0
 40
4.3810000000000002
  0
LINE
  5
10F8
  8
1
 10
106.23464174763311
 20
39.754795772991741
 30
0.0
 11
89.234641643324906
 21
39.754795772991741
 31
0.0
  0
LINE
  5
10F9
  8
0
 10
99.38564169415281
 20
45.754795825145813
 30
0.0
 11
100.9096413940738
 21
44.230795862190092
 31
0.0
  0
LINE
  5
10FB
  8
0
 10
97.734641695479013
 20
44.230795862190092
 30
0.0
 11
100.90964165710849
 21
44.230795862190092
 31
0.0
  0
LINE
  5
10FE
  8
0
 10
102.56064165578231
 20
45.754795825145813
 30
0.0
 11
103.73464174763301
 21
44.580795733295048
 31
0.0
  0
LINE
  5
10FF
  8
0
 10
102.56064165578231
 20
45.754795825145813
 30
0.0
 11
102.43364185289479
 21
45.754795825145813
 31
0.0
  0
LINE
  5
1102
  8
0
 10
103.5681417603884
 20
44.74729572053964
 30
0.0
 11
103.2266416047607
 21
44.405795564911912
 31
0.0
  0
LINE
  5
1103
  8
0
 10
100.90964188993919
 20
44.230795862190092
 30
0.0
 11
102.43364185289479
 21
45.754795825145813
 31
0.0
  0
LINE
  5
1104
  8
0
 10
100.90964165710849
 20
44.230795862190092
 30
0.0
 11
103.73464174763301
 21
44.230795862190071
 31
0.0
  0
LINE
  5
1106
  8
0
 10
94.734641669401981
 20
44.405795564911926
 30
0.0
 11
96.083641696805216
 21
45.754795825145813
 31
0.0
  0
LINE
  5
1107
  8
0
 10
94.559641733849503
 20
44.230795862190092
 30
0.0
 11
97.734641695479013
 21
44.230795862190092
 31
0.0
  0
LINE
  5
1109
  8
0
 10
96.2106417325233
 20
45.754795825145813
 30
0.0
 11
96.083641696805216
 21
45.754795825145813
 31
0.0
  0
LINE
  5
110A
  8
0
 10
97.909641689239152
 20
44.405795564911926
 30
0.0
 11
99.258641658434726
 21
45.754795825145813
 31
0.0
  0
LINE
  5
110B
  8
0
 10
99.38564169415281
 20
45.754795825145813
 30
0.0
 11
99.258641658434726
 21
45.754795825145813
 31
0.0
  0
LINE
  5
110C
  8
0
 10
97.734641695479013
 20
44.230795862190092
 30
0.0
 11
97.559641701718874
 21
44.405795564911926
 31
0.0
  0
LINE
  5
110D
  8
0
 10
97.909641689239152
 20
44.405795564911926
 30
0.0
 11
97.734641695479013
 21
44.230795862190092
 31
0.0
  0
LINE
  5
110E
  8
0
 10
96.2106417325233
 20
45.754795825145813
 30
0.0
 11
97.559641701718874
 21
44.405795564911926
 31
0.0
  0
LINE
  5
110F
  8
0
 10
91.734641643324949
 20
44.580795733295048
 30
0.0
 11
92.908641735175706
 21
45.754795825145813
 31
0.0
  0
LINE
  5
1110
  8
0
 10
93.035641538063146
 20
45.754795825145813
 30
0.0
 11
92.908641735175706
 21
45.754795825145813
 31
0.0
  0
LINE
  5
1113
  8
0
 10
92.242641786197282
 20
44.405795564911926
 30
0.0
 11
91.901141630569555
 21
44.747295720539647
 31
0.0
  0
LINE
  5
1114
  8
0
 10
94.559641733849503
 20
44.230795862190092
 30
0.0
 11
94.384641798297025
 21
44.405795564911926
 31
0.0
  0
LINE
  5
1115
  8
0
 10
94.734641669401981
 20
44.405795564911926
 30
0.0
 11
94.559641733849503
 21
44.230795862190092
 31
0.0
  0
LINE
  5
1116
  8
0
 10
93.035641538063146
 20
45.754795825145813
 30
0.0
 11
94.384641798297025
 21
44.405795564911926
 31
0.0
  0
LINE
  5
1117
  8
0
 10
91.734641643324949
 20
44.230795862190092
 30
0.0
 11
94.559641733849503
 21
44.230795862190092
 31
0.0
  0
LINE
  5
1119
  8
0
 10
101.22422119876779
 20
34.262795863710011
 30
0.0
 11
94.245062192190204
 21
34.262795863710011
 31
0.0
  0
LINE
  5
111B
  8
0
 10
101.43464174763299
 20
33.754795720837677
 30
0.0
 11
94.034641643324946
 21
33.754795720837677
 31
0.0
  0
LINE
  5
112B
  8
0
 10
91.570829703407284
 20
109.47553973174691
 30
0.0
 11
93.87082970340731
 21
111.7755397317469
 31
0.0
  0
LINE
  5
112C
  8
0
 10
101.2708298077154
 20
111.7755397317469
 30
0.0
 11
103.5708298077154
 21
109.47553973174691
 31
0.0
  0
LINE
  5
112D
  8
0
 10
91.824829774843465
 20
109.3703295583403
 30
0.0
 11
93.976039876813914
 21
111.52153966031069
 31
0.0
  0
LINE
  5
112E
  8
0
 10
101.1656196343088
 20
111.52153966031069
 30
0.0
 11
103.3168297362792
 21
109.3703295583403
 31
0.0
  0
LINE
  5
112F
  8
0
 10
103.3168297362792
 20
109.3703295583402
 30
0.0
 11
103.5708298077154
 21
109.47553973174691
 31
0.0
  0
LINE
  5
1131
  8
0
 10
101.2708298077154
 20
111.7755397317469
 30
0.0
 11
101.1656196343087
 21
111.52153966031069
 31
0.0
  0
LINE
  5
1132
  8
0
 10
93.976039876813914
 20
111.52153966031069
 30
0.0
 11
93.87082970340731
 21
111.7755397317469
 31
0.0
  0
LINE
  5
1133
  8
0
 10
91.570829703407284
 20
109.47553973174691
 30
0.0
 11
91.824829774843465
 21
109.3703295583403
 31
0.0
  0
LINE
  5
1134
  8
0
 10
101.43464174763299
 20
33.754795720837677
 30
0.0
 11
103.73464174763301
 21
36.054795720837681
 31
0.0
  0
LINE
  5
1135
  8
0
 10
91.734641643324949
 20
36.05479572083766
 30
0.0
 11
94.034641643324946
 21
33.754795720837677
 31
0.0
  0
LINE
  5
1137
  8
0
 10
101.22422119876791
 20
34.262795863710011
 30
0.0
 11
103.2266416047607
 21
36.265216269702883
 31
0.0
  0
LINE
  5
1138
  8
0
 10
92.242641786197282
 20
36.265216269702883
 30
0.0
 11
94.245062192190204
 21
34.262795863710011
 31
0.0
  0
LINE
  5
1240
  8
0
 10
92.242641786197282
 20
36.26521626970289
 30
0.0
 11
91.734641643324949
 21
36.05479572083766
 31
0.0
  0
LINE
  5
1242
  8
0
 10
94.245062192190204
 20
34.262795863710011
 30
0.0
 11
94.034641643324946
 21
33.754795720837677
 31
0.0
  0
LINE
  5
1243
  8
0
 10
101.22422119876779
 20
34.262795863710011
 30
0.0
 11
101.43464174763299
 21
33.754795720837677
 31
0.0
  0
LINE
  5
1244
  8
0
 10
103.2266416047607
 20
36.265216269702847
 30
0.0
 11
103.73464174763301
 21
36.054795720837681
 31
0.0
  0
LINE
  5
128C
  8
1
 10
61.091902582966441
 20
77.983239994109965
 30
0.0
 11
61.091902582966441
 21
66.983239941955901
 31
0.0
  0
LINE
  5
128D
  8
2
 10
65.091902582966441
 20
71.423239941955899
 30
0.0
 11
65.091902582966441
 21
75.102239903585371
 31
0.0
  0
LINE
  5
128E
  8
2
 10
57.091902582966441
 20
75.102239903585371
 30
0.0
 11
57.091902582966441
 21
71.423239941955899
 31
0.0
  0
LINE
  5
128F
  8
0
 10
65.917902543269747
 20
75.229239922673784
 30
0.0
 11
65.917902543269747
 21
72.833239897345535
 31
0.0
  0
LINE
  5
1290
  8
0
 10
65.742902374886626
 20
75.483239994109965
 30
0.0
 11
67.091902635120505
 21
74.134241198156161
 31
0.0
  0
LINE
  5
1291
  8
0
 10
57.391902530812366
 20
75.229239922673784
 30
0.0
 11
57.391902530812366
 21
69.991239851997591
 31
0.0
  0
LINE
  5
1292
  8
0
 10
55.091902530812369
 20
69.991239851997591
 30
0.0
 11
55.091902530812369
 21
75.229239922673784
 31
0.0
  0
LINE
  5
1293
  8
2
 10
57.091902582966441
 20
71.423239941955899
 30
0.0
 11
65.091902582966441
 21
71.423239941955899
 31
0.0
  0
LINE
  5
1294
  8
2
 10
63.341902582966441
 20
69.864239903585428
 30
0.0
 11
58.841902582966441
 21
69.864239903585428
 31
0.0
  0
LINE
  5
1295
  8
0
 10
55.091902530812369
 20
69.991239851997591
 30
0.0
 11
65.917902543269747
 21
69.991239851997591
 31
0.0
  0
LINE
  5
1296
  8
0
 10
65.742902374886626
 20
69.483239941955901
 30
0.0
 11
55.599902673684738
 21
69.483239941955901
 31
0.0
  0
LINE
  5
1297
  8
0
 10
65.917902543269747
 20
72.133239922304995
 30
0.0
 11
65.917902543269747
 21
69.991239851997591
 31
0.0
  0
LINE
  5
1298
  8
0
 10
65.567902672164792
 20
72.483239909825272
 30
0.0
 11
67.091902635120505
 21
70.959239439963824
 31
0.0
  0
LINE
  5
1299
  8
0
 10
67.091902635120505
 20
70.832239282457849
 30
0.0
 11
65.742902374886626
 21
69.483239941955901
 31
0.0
  0
LINE
  5
129A
  8
0
 10
67.091902635120505
 20
70.959239888661884
 30
0.0
 11
67.091902635120505
 21
70.832239852943815
 31
0.0
  0
LINE
  5
129B
  8
2
 10
63.341902582966441
 20
69.864239903585428
 30
0.0
 11
63.341902485859748
 21
71.423239941955899
 31
0.0
  0
LINE
  5
129C
  8
0
 10
65.917902543269747
 20
69.991239851997591
 30
0.0
 11
66.084402530514353
 21
69.824739864752985
 31
0.0
  0
LINE
  5
129D
  8
2
 10
63.722902593263143
 20
69.483239941955901
 30
0.0
 11
63.341902582966441
 21
69.864239903585428
 31
0.0
  0
LINE
  5
129E
  8
0
 10
65.567902672164792
 20
72.483239909825272
 30
0.0
 11
67.091902635120505
 21
74.007240379686735
 31
0.0
  0
LINE
  5
129F
  8
0
 10
67.091902635120505
 20
74.134239850291394
 30
0.0
 11
67.091902635120505
 21
74.007239930988646
 31
0.0
  0
LINE
  5
12A0
  8
2
 10
58.841902582966441
 20
69.864239903585428
 30
0.0
 11
58.460902572669738
 21
69.483239941955901
 31
0.0
  0
LINE
  5
12A1
  8
2
 10
58.841902680073133
 20
71.423239941955899
 30
0.0
 11
58.841902582966441
 21
69.864239903585428
 31
0.0
  0
LINE
  5
12A2
  8
0
 10
57.391902530812366
 20
69.991239851997591
 30
0.0
 11
57.602322992183908
 21
69.483239941955901
 31
0.0
  0
LINE
  5
12A3
  8
0
 10
55.091902530812369
 20
69.991239851997591
 30
0.0
 11
55.59990267368471
 21
69.483239941955901
 31
0.0
  0
LINE
  5
12A4
  8
2
 10
57.091902582966441
 20
75.102239903585371
 30
0.0
 11
65.091902582966441
 21
75.102239903585371
 31
0.0
  0
LINE
  5
12A5
  8
0
 10
55.345902602248543
 20
75.483239994109965
 30
0.0
 11
65.742902374886626
 21
75.483239994109965
 31
0.0
  0
LINE
  5
12A6
  8
0
 10
65.917902543269747
 20
75.229239922673784
 30
0.0
 11
55.091902530812369
 21
75.229239922673784
 31
0.0
  0
LINE
  5
12A7
  8
0
 10
65.957402727626913
 20
75.268739874200321
 30
0.0
 11
65.917902543269747
 21
75.229239922673784
 31
0.0
  0
LINE
  5
12A8
  8
2
 10
65.091902582966441
 20
75.102239903585371
 30
0.0
 11
65.472902647279852
 21
75.483239994109965
 31
0.0
  0
LINE
  5
12A9
  8
0
 10
57.497112645082822
 20
75.483239994109965
 30
0.0
 11
57.391902530812366
 21
75.229239922673784
 31
0.0
  0
LINE
  5
12AA
  8
0
 10
55.345902602248543
 20
75.483239994109965
 30
0.0
 11
55.091902530812369
 21
75.229239922673784
 31
0.0
  0
LINE
  5
12AB
  8
2
 10
56.710902518653029
 20
75.483239994109965
 30
0.0
 11
57.091902582966441
 21
75.102239903585371
 31
0.0
  0
LINE
  5
12DB
  8
0
 10
129.55138084768831
 20
75.229239922673784
 30
0.0
 11
140.37738086014559
 21
75.229239922673784
 31
0.0
  0
LINE
  5
12DC
  8
0
 10
140.12338078870951
 20
75.483239994109965
 30
0.0
 11
129.7263810160714
 21
75.483239994109965
 31
0.0
  0
LINE
  5
12DD
  8
2
 10
138.37738080799161
 20
75.102239903585371
 30
0.0
 11
130.37738080799161
 21
75.102239903585371
 31
0.0
  0
LINE
  5
12DE
  8
0
 10
129.7263810160714
 20
69.483239941955901
 30
0.0
 11
139.86938071727329
 21
69.483239941955901
 31
0.0
  0
LINE
  5
12DF
  8
0
 10
140.37738086014559
 20
69.991239851997591
 30
0.0
 11
129.55138084768831
 21
69.991239851997591
 31
0.0
  0
LINE
  5
12E0
  8
2
 10
138.37738080799161
 20
71.423239941955899
 30
0.0
 11
130.37738080799161
 21
71.423239941955899
 31
0.0
  0
LINE
  5
12E1
  8
0
 10
137.97217074587519
 20
75.483239994109965
 30
0.0
 11
138.07738086014561
 21
75.229239922673784
 31
0.0
  0
LINE
  5
12E2
  8
2
 10
138.758380872305
 20
75.483239994109965
 30
0.0
 11
138.37738080799161
 21
75.102239903585371
 31
0.0
  0
LINE
  5
12E3
  8
0
 10
140.12338078870951
 20
75.483239994109965
 30
0.0
 11
140.37738086014559
 21
75.229239922673784
 31
0.0
  0
LINE
  5
12E4
  8
1
 10
134.37738080799161
 20
77.983239994109965
 30
0.0
 11
134.37738080799161
 21
66.983239941955901
 31
0.0
  0
LINE
  5
12E5
  8
0
 10
140.37738086014559
 20
69.991239851997591
 30
0.0
 11
139.86938071727329
 21
69.483239941955901
 31
0.0
  0
LINE
  5
12E6
  8
0
 10
140.37738086014559
 20
69.991239851997591
 30
0.0
 11
140.37738086014559
 21
75.229239922673784
 31
0.0
  0
LINE
  5
12E7
  8
2
 10
138.37738080799161
 20
75.102239903585371
 30
0.0
 11
138.37738080799161
 21
71.423239941955899
 31
0.0
  0
LINE
  5
12E8
  8
0
 10
138.07738086014561
 20
69.991239851997591
 30
0.0
 11
137.8669603987741
 21
69.483239941955901
 31
0.0
  0
LINE
  5
12E9
  8
2
 10
136.62738071088489
 20
71.423239941955899
 30
0.0
 11
136.62738080799161
 21
69.864239903585428
 31
0.0
  0
LINE
  5
12EA
  8
2
 10
132.12738080799161
 20
69.864239903585428
 30
0.0
 11
132.12738090509831
 21
71.423239941955899
 31
0.0
  0
LINE
  5
12EB
  8
2
 10
132.12738080799161
 20
69.864239903585428
 30
0.0
 11
136.62738080799161
 21
69.864239903585428
 31
0.0
  0
LINE
  5
12EC
  8
2
 10
136.62738080799161
 20
69.864239903585428
 30
0.0
 11
137.00838081828829
 21
69.483239941955901
 31
0.0
  0
LINE
  5
12ED
  8
2
 10
131.74638079769491
 20
69.483239941955901
 30
0.0
 11
132.12738080799161
 21
69.864239903585428
 31
0.0
  0
LINE
  5
12EE
  8
0
 10
138.07738086014561
 20
75.229239922673784
 30
0.0
 11
138.07738086014561
 21
69.991239851997591
 31
0.0
  0
LINE
  5
12EF
  8
2
 10
130.37738080799161
 20
75.102239903585371
 30
0.0
 11
129.9963807436782
 21
75.483239994109965
 31
0.0
  0
LINE
  5
12F0
  8
0
 10
129.7263810160714
 20
75.483239994109965
 30
0.0
 11
128.37738075583749
 21
74.134241198156161
 31
0.0
  0
LINE
  5
12F1
  8
0
 10
129.55138084768831
 20
69.991239851997591
 30
0.0
 11
129.3848808604437
 21
69.824739864752985
 31
0.0
  0
LINE
  5
12F2
  8
0
 10
128.37738075583749
 20
70.832239282457849
 30
0.0
 11
129.7263810160714
 21
69.483239941955901
 31
0.0
  0
LINE
  5
12F3
  8
0
 10
129.90138071879321
 20
72.483239909825272
 30
0.0
 11
128.37738075583749
 21
74.007240379686735
 31
0.0
  0
LINE
  5
12F4
  8
2
 10
130.37738080799161
 20
71.423239941955899
 30
0.0
 11
130.37738080799161
 21
75.102239903585371
 31
0.0
  0
LINE
  5
12F5
  8
0
 10
129.90138071879321
 20
72.483239909825272
 30
0.0
 11
128.37738075583749
 21
70.959239439963824
 31
0.0
  0
LINE
  5
12F6
  8
0
 10
129.55138084768831
 20
72.133239922304995
 30
0.0
 11
129.55138084768831
 21
69.991239851997591
 31
0.0
  0
LINE
  5
12F7
  8
0
 10
128.37738075583749
 20
70.959239888661884
 30
0.0
 11
128.37738075583749
 21
70.832239852943815
 31
0.0
  0
LINE
  5
12F8
  8
0
 10
129.51188066333111
 20
75.268739874200321
 30
0.0
 11
129.55138084768831
 21
75.229239922673784
 31
0.0
  0
LINE
  5
12F9
  8
0
 10
129.55138084768831
 20
75.229239922673784
 30
0.0
 11
129.55138084768831
 21
72.833239897345535
 31
0.0
  0
LINE
  5
12FA
  8
0
 10
128.37738075583749
 20
74.134239850291394
 30
0.0
 11
128.37738075583749
 21
74.007239930988646
 31
0.0
  0
TEXT
  5
13D2
  8
0
 62
     3
 10
0.0
 20
0.0
 30
0.0
 40
5.0
  1
HSE-9126
  7
STANDARD1
  0
ENDSEC
  0
EOF
