  0
SECTION
  2
HEADER
  9
$ACADVER
  1
AC1009
  9
$INSBASE
 10
0.0
 20
0.0
 30
0.0
  9
$EXTMIN
 10
0.0
 20
-1.4802182810368341
 30
0.0
  9
$EXTMAX
 10
146.6619773907025
 20
118.2078755147991
 30
0.0
  9
$LIMMIN
 10
0.0
 20
0.0
  9
$LIMMAX
 10
187.5
 20
135.0
  9
$ORTHOMODE
 70
     1
  9
$REGENMODE
 70
     1
  9
$FILLMODE
 70
     1
  9
$QTEXTMODE
 70
     0
  9
$MIRRTEXT
 70
     0
  9
$DRAGMODE
 70
     2
  9
$LTSCALE
 40
5.0
  9
$OSMODE
 70
    55
  9
$ATTMODE
 70
     1
  9
$TEXTSIZE
 40
2.5
  9
$TRACEWID
 40
0.05
  9
$TEXTSTYLE
  7
STANDARD
  9
$CLAYER
  8
0
  9
$CELTYPE
  6
BYLAYER
  9
$CECOLOR
 62
   256
  9
$DIMSCALE
 40
0.5
  9
$DIMASZ
 40
3.0
  9
$DIMEXO
 40
2.0
  9
$DIMDLI
 40
10.0
  9
$DIMRND
 40
0.0
  9
$DIMDLE
 40
0.0
  9
$DIMEXE
 40
2.0
  9
$DIMTP
 40
0.0
  9
$DIMTM
 40
0.0
  9
$DIMTXT
 40
3.0
  9
$DIMCEN
 40
0.09
  9
$DIMTSZ
 40
0.0
  9
$DIMTOL
 70
     0
  9
$DIMLIM
 70
     0
  9
$DIMTIH
 70
     0
  9
$DIMTOH
 70
     0
  9
$DIMSE1
 70
     0
  9
$DIMSE2
 70
     0
  9
$DIMTAD
 70
     1
  9
$DIMZIN
 70
     0
  9
$DIMBLK
  1

  9
$DIMASO
 70
     0
  9
$DIMSHO
 70
     0
  9
$DIMPOST
  1

  9
$DIMAPOST
  1

  9
$DIMALT
 70
     0
  9
$DIMALTD
 70
     2
  9
$DIMALTF
 40
25.399999999999999
  9
$DIMLFAC
 40
1.0
  9
$DIMTOFL
 70
     1
  9
$DIMTVP
 40
1.6000000000000001
  9
$DIMTIX
 70
     1
  9
$DIMSOXD
 70
     0
  9
$DIMSAH
 70
     0
  9
$DIMBLK1
  1
ARROW1
  9
$DIMBLK2
  1
ARROW1
  9
$DIMSTYLE
  2
STANDARD
  9
$DIMCLRD
 70
     0
  9
$DIMCLRE
 70
     0
  9
$DIMCLRT
 70
     0
  9
$DIMTFAC
 40
1.0
  9
$DIMGAP
 40
0.09
  9
$LUNITS
 70
     2
  9
$LUPREC
 70
     4
  9
$SKETCHINC
 40
0.1
  9
$FILLETRAD
 40
0.0
  9
$AUNITS
 70
     0
  9
$AUPREC
 70
     0
  9
$MENU
  1
E:\r13\win\SUPPORT\ACAD
  9
$ELEVATION
 40
0.0
  9
$PELEVATION
 40
0.0
  9
$THICKNESS
 40
0.0
  9
$LIMCHECK
 70
     0
  9
$BLIPMODE
 70
     0
  9
$CHAMFERA
 40
3.2000000000000002
  9
$CHAMFERB
 40
3.2000000000000002
  9
$SKPOLY
 70
     0
  9
$TDCREATE
 40
2449840.5944097228
  9
$TDUPDATE
 40
2456598.6933236928
  9
$TDINDWG
 40
0.3901478009
  9
$TDUSRTIMER
 40
0.3901478009
  9
$USRTIMER
 70
     1
  9
$ANGBASE
 50
0.0
  9
$ANGDIR
 70
     0
  9
$PDMODE
 70
     0
  9
$PDSIZE
 40
0.0
  9
$PLINEWID
 40
0.0
  9
$COORDS
 70
     1
  9
$SPLFRAME
 70
     0
  9
$SPLINETYPE
 70
     6
  9
$SPLINESEGS
 70
     8
  9
$ATTDIA
 70
     0
  9
$ATTREQ
 70
     1
  9
$HANDLING
 70
     1
  9
$HANDSEED
  5
50A3
  9
$SURFTAB1
 70
     6
  9
$SURFTAB2
 70
     6
  9
$SURFTYPE
 70
     6
  9
$SURFU
 70
     6
  9
$SURFV
 70
     6
  9
$UCSNAME
  2

  9
$UCSORG
 10
0.0
 20
0.0
 30
0.0
  9
$UCSXDIR
 10
1.0
 20
0.0
 30
0.0
  9
$UCSYDIR
 10
0.0
 20
1.0
 30
0.0
  9
$PUCSNAME
  2

  9
$PUCSORG
 10
0.0
 20
0.0
 30
0.0
  9
$PUCSXDIR
 10
1.0
 20
0.0
 30
0.0
  9
$PUCSYDIR
 10
0.0
 20
1.0
 30
0.0
  9
$USERI1
 70
     0
  9
$USERI2
 70
     1
  9
$USERI3
 70
     1
  9
$USERI4
 70
     0
  9
$USERI5
 70
     0
  9
$USERR1
 40
0.0
  9
$USERR2
 40
0.0
  9
$USERR3
 40
0.0
  9
$USERR4
 40
0.0
  9
$USERR5
 40
0.0
  9
$WORLDVIEW
 70
     1
  9
$SHADEDGE
 70
     3
  9
$SHADEDIF
 70
    70
  9
$TILEMODE
 70
     1
  9
$MAXACTVP
 70
    16
  9
$PLIMCHECK
 70
     0
  9
$PEXTMIN
 10
1.0000000000000000E+020
 20
1.0000000000000000E+020
 30
1.0000000000000000E+020
  9
$PEXTMAX
 10
-1.0000000000000000E+020
 20
-1.0000000000000000E+020
 30
-1.0000000000000000E+020
  9
$PLIMMIN
 10
0.0
 20
0.0
  9
$PLIMMAX
 10
12.0
 20
9.0
  9
$UNITMODE
 70
     0
  9
$VISRETAIN
 70
     0
  9
$PLINEGEN
 70
     0
  9
$PSLTSCALE
 70
     0
  0
ENDSEC
  0
SECTION
  2
TABLES
  0
TABLE
  2
VPORT
 70
     1
  0
VPORT
  2
*ACTIVE
 70
     0
 10
0.0
 20
0.0
 11
1.0
 21
1.0
 12
93.74713919532617
 22
87.458386271734256
 13
0.0
 23
0.0
 14
5.0
 24
5.0
 15
5.0
 25
5.0
 16
0.0
 26
0.0
 36
1.0
 17
0.0
 27
0.0
 37
0.0
 40
179.46013949787169
 41
1.7807262569832401
 42
50.0
 43
0.0
 44
0.0
 50
0.0
 51
0.0
 71
     0
 72
   100
 73
     1
 74
     0
 75
     0
 76
     0
 77
     0
 78
     0
  0
ENDTAB
  0
TABLE
  2
LTYPE
 70
     4
  0
LTYPE
  2
CONTINUOUS
 70
     0
  3
Solid Line
 72
    65
 73
     0
 40
0.0
  0
LTYPE
  2
CENTER
 70
     0
  3
____ _ ____ _ ____ _ ____ _ ____ _ ____ _ ____
 72
    65
 73
     4
 40
2.0
 49
1.25
 49
-0.25
 49
0.25
 49
-0.25
  0
LTYPE
  2
HIDDEN
 70
     0
  3
_ _ _ _ _ _ _ _ _ _ _ _ _ _ _ _ _ _ _ _ _ _ _
 72
    65
 73
     2
 40
0.375
 49
0.25
 49
-0.125
  0
LTYPE
  2
PHANTOM2
 70
     0
  3
___ _ _ ___ _ _ ___ _ _ ___ _ _
 72
    65
 73
     6
 40
1.25
 49
0.625
 49
-0.125
 49
0.125
 49
-0.125
 49
0.125
 49
-0.125
  0
ENDTAB
  0
TABLE
  2
LAYER
 70
     5
  0
LAYER
  2
0
 70
     0
 62
     7
  6
CONTINUOUS
  0
LAYER
  2
1
 70
     0
 62
     1
  6
CENTER
  0
LAYER
  2
2
 70
     0
 62
     2
  6
HIDDEN
  0
LAYER
  2
3
 70
     0
 62
     3
  6
CONTINUOUS
  0
LAYER
  2
WAKU
 70
     0
 62
     5
  6
CONTINUOUS
  0
ENDTAB
  0
TABLE
  2
STYLE
 70
     2
  0
STYLE
  2
STANDARD
 70
     0
 40
0.0
 41
1.0
 50
0.0
 71
     0
 42
2.5
  3
TXT
  4
BIGFONT
  0
STYLE
  2
STANDARD1
 70
     0
 40
0.0
 41
1.0
 50
0.0
 71
     0
 42
3.0
  3
txt
  4

  0
ENDTAB
  0
TABLE
  2
VIEW
 70
     1
  0
VIEW
  2
ALL
 70
     0
 40
135.0
 10
110.49579799999999
 20
67.5
 41
0.0
 11
0.0
 21
0.0
 31
1.0
 12
0.0
 22
0.0
 32
0.0
 42
0.0
 43
0.0
 44
0.0
 50
0.0
 71
     0
  0
ENDTAB
  0
TABLE
  2
UCS
 70
     0
  0
ENDTAB
  0
TABLE
  2
APPID
 70
     4
  0
APPID
  2
ACAD
 70
     0
  0
APPID
  2
DCO15
 70
     0
  0
APPID
  2
ACAD_MLEADERVER
 70
     0
  0
APPID
  2
ACAD_NAV_VCDISPLAY
 70
     0
  0
ENDTAB
  0
TABLE
  2
DIMSTYLE
 70
     1
  0
DIMSTYLE
  2
STANDARD
 70
     0
  3

  4

  5

  6

  7

 40
1.0
 41
0.18
 42
0.0625
 43
0.38
 44
0.18
 45
0.0
 46
0.0
 47
0.0
 48
0.0
140
0.18
141
0.09
142
0.0
143
25.399999999999999
144
1.0
145
0.0
146
1.0
147
0.09
 71
     0
 72
     0
 73
     1
 74
     1
 75
     0
 76
     0
 77
     0
 78
     0
170
     0
171
     2
172
     0
173
     0
174
     0
175
     0
176
     0
177
     0
178
     0
  0
ENDTAB
  0
ENDSEC
  0
SECTION
  2
BLOCKS
  0
BLOCK
  8
0
  2
$MODEL_SPACE
 70
     0
 10
0.0
 20
0.0
 30
0.0
  3
$MODEL_SPACE
  1

  0
ENDBLK
  5
15D
  8
0
  0
BLOCK
 67
     1
  8
0
  2
$PAPER_SPACE
 70
     0
 10
0.0
 20
0.0
 30
0.0
  3
$PAPER_SPACE
  1

  0
ENDBLK
  5
15B
 67
     1
  8
0
  0
BLOCK
  8
0
  2
STDGX5
 70
     0
 10
0.0
 20
0.0
 30
0.0
  3
STDGX5
  1

  0
ENDBLK
  5
41
  8
0
  0
BLOCK
  8
0
  2
ARROW1
 70
     0
 10
0.0
 20
0.0
 30
0.0
  3
ARROW1
  1

  0
SOLID
  5
2442
  8
WAKU
  6
CONTINUOUS
 62
     4
 10
-1.0
 20
0.1666666666666714
 30
0.0
 11
-1.0
 21
-0.1666666666666714
 31
0.0
 12
0.0
 22
0.0
 32
0.0
 13
0.0
 23
0.0
 33
0.0
  0
ENDBLK
  5
2444
  8
0
  0
ENDSEC
  0
SECTION
  2
ENTITIES
  0
INSERT
  5
CA
  8
0
  2
STDGX5
 10
0.0
 20
0.0
 30
0.0
  0
INSERT
  5
69A
  8
0
  2
STDGX5
 10
194.3272563481562
 20
13.52129245667936
 30
0.0
  0
LINE
  5
335C
  8
0
 10
92.626659170425938
 20
115.7078755147991
 30
0.0
 11
102.2266599303851
 21
115.7078755147991
 31
0.0
  0
LINE
  5
335E
  8
1
 10
86.926659170425935
 20
107.7078751348195
 30
0.0
 11
107.9266599303852
 21
107.7078751348195
 31
0.0
  0
CIRCLE
  5
335F
  8
0
 10
97.426659550405475
 20
107.7078751348195
 30
0.0
 40
5.4999999999999849
  0
CIRCLE
  5
3360
  8
0
 10
97.426659550405475
 20
107.7078751348195
 30
0.0
 40
5.880999999999986
  0
LINE
  5
3381
  8
0
 10
105.4266599303852
 20
112.5078755147991
 30
0.0
 11
105.4266599303851
 21
101.2943743787942
 31
0.0
  0
LINE
  5
3382
  8
0
 10
105.1726593932877
 20
101.39302518817161
 30
0.0
 11
105.1726593932877
 21
112.4026650474832
 31
0.0
  0
LINE
  5
3383
  8
1
 10
97.426659550405503
 20
118.2078755147991
 30
0.0
 11
97.426659550405475
 21
97.207874754839906
 31
0.0
  0
LINE
  5
3507
  8
0
 10
102.1891601353347
 20
101.2318752438652
 30
0.0
 11
100.66515964630941
 21
99.707874754839906
 31
0.0
  0
LINE
  5
350A
  8
0
 10
103.7131595722208
 20
99.707874754839906
 30
0.0
 11
102.1891601353347
 21
101.2318752438652
 31
0.0
  0
LINE
  5
350B
  8
0
 10
105.4266599303851
 20
101.29437475910311
 30
0.0
 11
103.8401593751082
 21
99.707874754839906
 31
0.0
  0
LINE
  5
350C
  8
0
 10
103.7131595722208
 20
99.707874754839906
 30
0.0
 11
103.8401593751082
 21
99.707874754839906
 31
0.0
  0
LINE
  5
3511
  8
0
 10
95.839158854268163
 20
101.23187503951
 30
0.0
 11
97.363159525270532
 21
99.707874754839906
 31
0.0
  0
LINE
  5
3513
  8
0
 10
99.014160246542929
 20
101.2318750395099
 30
0.0
 11
97.490159575540531
 21
99.707874754839906
 31
0.0
  0
LINE
  5
3514
  8
0
 10
100.53815961059129
 20
99.707874754839906
 30
0.0
 11
99.014160246542929
 21
101.2318750395099
 31
0.0
  0
LINE
  5
3515
  8
0
 10
97.363159525270532
 20
99.707874754839906
 30
0.0
 11
97.490159575540531
 21
99.707874754839906
 31
0.0
  0
LINE
  5
3516
  8
0
 10
100.53815961059129
 20
99.707874754839906
 30
0.0
 11
100.66515964630941
 21
99.707874754839906
 31
0.0
  0
LINE
  5
3519
  8
0
 10
94.315159490219742
 20
99.707874754839906
 30
0.0
 11
95.839158854268163
 21
101.23187503951
 31
0.0
  0
LINE
  5
351A
  8
0
 10
92.664158965476361
 20
101.2318752438652
 30
0.0
 11
94.188159454501658
 21
99.707874754839906
 31
0.0
  0
LINE
  5
351B
  8
0
 10
94.188159454501658
 20
99.707874754839906
 30
0.0
 11
94.315159490219742
 21
99.707874754839906
 31
0.0
  0
CIRCLE
  5
3522
  8
0
 10
97.426659550405475
 20
107.7078751348195
 30
0.0
 40
3.2999999999999972
  0
LINE
  5
3523
  8
0
 10
102.1214494630693
 20
115.4538749777016
 30
0.0
 11
92.731869637741767
 21
115.4538749777016
 31
0.0
  0
LINE
  5
3525
  8
0
 10
89.426659170425921
 20
101.2943743787942
 30
0.0
 11
89.426659170425935
 21
112.5078755147991
 31
0.0
  0
LINE
  5
3526
  8
0
 10
89.680659707523404
 20
112.4026650474832
 30
0.0
 11
89.680659707523404
 21
101.39302518817161
 31
0.0
  0
LINE
  5
360A
  8
0
 10
89.426659170425893
 20
101.29437475910311
 30
0.0
 11
91.013159725702792
 21
99.707874754839906
 31
0.0
  0
LINE
  5
360B
  8
0
 10
91.140159528590232
 20
99.707874754839906
 30
0.0
 11
92.664158965476361
 21
101.2318752438652
 31
0.0
  0
LINE
  5
360C
  8
0
 10
91.013159725702792
 20
99.707874754839906
 30
0.0
 11
91.140159528590232
 21
99.707874754839906
 31
0.0
  0
LINE
  5
360D
  8
0
 10
89.680659707523375
 20
101.0568750150738
 30
0.0
 11
89.672409120834857
 21
101.0486248940465
 31
0.0
  0
LINE
  5
3782
  8
0
 10
102.2266599303851
 20
115.7078755147991
 30
0.0
 11
105.4266599303852
 21
112.5078755147991
 31
0.0
  0
LINE
  5
3784
  8
0
 10
89.426659170425935
 20
112.5078755147991
 30
0.0
 11
92.626659170425938
 21
115.7078755147991
 31
0.0
  0
LINE
  5
3785
  8
0
 10
102.1214494630693
 20
115.4538749777016
 30
0.0
 11
105.1726593932877
 21
112.4026650474832
 31
0.0
  0
LINE
  5
3786
  8
0
 10
89.680659707523404
 20
112.4026650474832
 30
0.0
 11
92.731869637741767
 21
115.4538749777016
 31
0.0
  0
LINE
  5
3787
  8
0
 10
102.1214494630693
 20
115.4538749777016
 30
0.0
 11
102.2266599303851
 21
115.7078755147991
 31
0.0
  0
LINE
  5
3788
  8
0
 10
105.1726593932877
 20
112.4026650474832
 30
0.0
 11
105.4266599303852
 21
112.5078755147991
 31
0.0
  0
LINE
  5
3789
  8
0
 10
92.626659170425938
 20
115.7078755147991
 30
0.0
 11
92.731869637741767
 21
115.4538749777016
 31
0.0
  0
LINE
  5
378A
  8
0
 10
89.680659707523404
 20
112.4026650474832
 30
0.0
 11
89.426659170425935
 21
112.5078755147991
 31
0.0
  0
CIRCLE
  5
37BB
  8
2
 10
97.426659550405475
 20
107.7078751348195
 30
0.0
 40
3.681
  0
LINE
  5
37BC
  8
1
 10
97.426659550405503
 20
28.868619105057249
 30
0.0
 11
97.426659550405475
 21
49.868619865016449
 31
0.0
  0
LINE
  5
37BF
  8
0
 10
89.426659170425921
 20
45.782120241062159
 30
0.0
 11
89.426659170425935
 21
34.568619105057238
 31
0.0
  0
LINE
  5
37C0
  8
0
 10
105.4266599303852
 20
34.568619105057252
 30
0.0
 11
105.4266599303851
 21
45.782120241062159
 31
0.0
  0
CIRCLE
  5
37C1
  8
2
 10
97.426659550405475
 20
39.368619485036831
 30
0.0
 40
5.880999999999986
  0
CIRCLE
  5
37C2
  8
2
 10
97.426659550405475
 20
39.368619485036831
 30
0.0
 40
5.4999999999999849
  0
LINE
  5
37C4
  8
0
 10
89.426659550734968
 20
45.782120241062159
 30
0.0
 11
91.013159725702792
 21
47.368619865016449
 31
0.0
  0
LINE
  5
37C7
  8
0
 10
99.014160246542929
 20
45.844619580346389
 30
0.0
 11
97.490159575540531
 21
47.368619865016449
 31
0.0
  0
LINE
  5
37C9
  8
0
 10
94.315159490219742
 20
47.368619865016449
 30
0.0
 11
95.839158854268163
 21
45.844619580346368
 31
0.0
  0
LINE
  5
37CB
  8
0
 10
92.664158965476361
 20
45.84461937599113
 30
0.0
 11
94.188159454501658
 21
47.368619865016449
 31
0.0
  0
LINE
  5
37CC
  8
0
 10
91.140159528590232
 20
47.368619865016449
 30
0.0
 11
92.664158965476361
 21
45.84461937599113
 31
0.0
  0
LINE
  5
37CD
  8
0
 10
91.013159725702792
 20
47.368619865016449
 30
0.0
 11
91.140159528590232
 21
47.368619865016449
 31
0.0
  0
LINE
  5
37CE
  8
0
 10
94.188159454501658
 20
47.368619865016449
 30
0.0
 11
94.315159490219742
 21
47.368619865016449
 31
0.0
  0
LINE
  5
37CF
  8
0
 10
95.839158854268163
 20
45.844619580346368
 30
0.0
 11
97.363159525270532
 21
47.368619865016449
 31
0.0
  0
LINE
  5
37D0
  8
0
 10
97.363159525270532
 20
47.368619865016449
 30
0.0
 11
97.490159575540531
 21
47.368619865016449
 31
0.0
  0
LINE
  5
37D1
  8
0
 10
102.1891601353347
 20
45.844619375991137
 30
0.0
 11
100.66515964630941
 21
47.368619865016449
 31
0.0
  0
LINE
  5
37D3
  8
0
 10
100.53815961059129
 20
47.368619865016449
 30
0.0
 11
99.014160246542929
 21
45.844619580346389
 31
0.0
  0
LINE
  5
37D4
  8
0
 10
100.53815961059129
 20
47.368619865016449
 30
0.0
 11
100.66515964630941
 21
47.368619865016449
 31
0.0
  0
LINE
  5
37D5
  8
0
 10
103.7131595722208
 20
47.368619865016449
 30
0.0
 11
102.1891601353347
 21
45.844619375991137
 31
0.0
  0
LINE
  5
37D6
  8
0
 10
105.426659550076
 20
45.782120241062159
 30
0.0
 11
103.8401593751082
 21
47.368619865016449
 31
0.0
  0
LINE
  5
37D7
  8
0
 10
103.7131595722208
 20
47.368619865016449
 30
0.0
 11
103.8401593751082
 21
47.368619865016449
 31
0.0
  0
LINE
  5
37DB
  8
1
 10
86.926659170425935
 20
39.368619485036852
 30
0.0
 11
107.9266599303852
 21
39.368619485036831
 31
0.0
  0
LINE
  5
37DD
  8
0
 10
89.426659170425935
 20
34.568619105057238
 30
0.0
 11
92.626659170425938
 21
31.368619105057238
 31
0.0
  0
LINE
  5
37DE
  8
0
 10
89.934659715091428
 20
34.779039820350711
 30
0.0
 11
89.426659170425935
 21
34.568619105057238
 31
0.0
  0
LINE
  5
37E0
  8
0
 10
102.2266599303851
 20
31.368619105057249
 30
0.0
 11
105.4266599303852
 21
34.568619105057252
 31
0.0
  0
CIRCLE
  5
37E1
  8
0
 10
97.426659550405475
 20
39.368619485036852
 30
0.0
 40
3.681
  0
CIRCLE
  5
37E2
  8
0
 10
97.426659550405475
 20
39.368619485036831
 30
0.0
 40
3.2999999999999972
  0
LINE
  5
37E3
  8
0
 10
104.91865938571959
 20
34.779039820350683
 30
0.0
 11
105.4266599303852
 21
34.568619105057252
 31
0.0
  0
LINE
  5
37E5
  8
0
 10
92.626659170425938
 20
31.368619105057238
 30
0.0
 11
102.2266599303851
 21
31.368619105057249
 31
0.0
  0
LINE
  5
37E6
  8
0
 10
92.626659170425938
 20
31.368619105057238
 30
0.0
 11
92.837079885719362
 21
31.87661964972278
 31
0.0
  0
LINE
  5
37E7
  8
0
 10
102.0162392150916
 20
31.876619649722741
 30
0.0
 11
102.2266599303851
 21
31.368619105057249
 31
0.0
  0
LINE
  5
37E8
  8
0
 10
104.91865938571949
 20
45.782120241062238
 30
0.0
 11
104.91865938571949
 21
34.779039820350619
 31
0.0
  0
LINE
  5
37E9
  8
0
 10
102.0162392150917
 20
31.876619649722759
 30
0.0
 11
104.91865938571949
 21
34.779039820350619
 31
0.0
  0
LINE
  5
37EA
  8
0
 10
92.837079885719419
 20
31.87661964972283
 30
0.0
 11
102.0162392150916
 21
31.876619649722841
 31
0.0
  0
LINE
  5
37EB
  8
0
 10
89.93465971509147
 20
34.779039820350711
 30
0.0
 11
92.837079885719334
 21
31.87661964972278
 31
0.0
  0
LINE
  5
37EC
  8
0
 10
89.934659715091499
 20
45.782120241062159
 30
0.0
 11
89.934659715091499
 21
34.779039820350711
 31
0.0
  0
LINE
  5
37ED
  8
0
 10
89.426659170425921
 20
45.782120241062159
 30
0.0
 11
105.4266599303851
 21
45.782120241062159
 31
0.0
  0
LINE
  5
3D16
  8
1
 10
97.426659550405446
 20
63.879222186828208
 30
0.0
 11
97.426659550405446
 21
78.879222428972085
 31
0.0
  0
LINE
  5
3E26
  8
2
 10
50.69134209008805
 20
75.998222245687771
 30
0.0
 11
61.691342090088057
 21
75.998222245687771
 31
0.0
  0
LINE
  5
3E27
  8
2
 10
50.69134209008805
 20
72.179222245687811
 30
0.0
 11
61.691342090088057
 21
72.179222245687811
 31
0.0
  0
LINE
  5
3E28
  8
2
 10
59.491342090088068
 20
66.760222245687814
 30
0.0
 11
52.891342090088102
 21
66.760222245687814
 31
0.0
  0
LINE
  5
3E29
  8
0
 10
48.191341710108432
 20
66.887222329700535
 30
0.0
 11
62.604841914790789
 21
66.887222329700535
 31
0.0
  0
LINE
  5
3E2A
  8
0
 10
62.604841914790789
 20
66.379222186828201
 30
0.0
 11
48.699342318642053
 21
66.379222186828201
 31
0.0
  0
LINE
  5
3E2B
  8
0
 10
48.4453422472059
 20
76.379222428972071
 30
0.0
 11
62.506192036735932
 21
76.379222428972071
 31
0.0
  0
LINE
  5
3E2C
  8
0
 10
62.604841914790789
 20
76.125222357535904
 30
0.0
 11
48.191341710108439
 21
76.125222357535904
 31
0.0
  0
LINE
  5
3E8D
  8
2
 10
59.491342090088068
 20
66.760222245687814
 30
0.0
 11
59.491342072206663
 21
72.179222229482775
 31
0.0
  0
LINE
  5
3E8E
  8
1
 10
56.191342090088042
 20
63.879222186828201
 30
0.0
 11
56.19134209008805
 21
78.879222428972071
 31
0.0
  0
LINE
  5
3E99
  8
2
 10
59.872342179360913
 20
66.379222186828201
 30
0.0
 11
59.491342090088068
 21
66.760222245687814
 31
0.0
  0
LINE
  5
3E9F
  8
2
 10
61.691342090088057
 20
72.179222245687811
 30
0.0
 11
61.691342090088057
 21
75.998222245687771
 31
0.0
  0
LINE
  5
3EA3
  8
0
 10
62.506192036735932
 20
76.379222428972071
 30
0.0
 11
62.685076751577782
 21
76.205456728661602
 31
0.0
  0
LINE
  5
3EA4
  8
2
 10
61.691342090088057
 20
75.998222245687771
 30
0.0
 11
62.072341934609341
 21
76.379222428972071
 31
0.0
  0
LINE
  5
3EAB
  8
2
 10
52.89134210796945
 20
72.179222229482775
 30
0.0
 11
52.891342090088102
 21
66.760222245687814
 31
0.0
  0
LINE
  5
3EAC
  8
0
 10
51.391341904568591
 20
76.125222357535904
 30
0.0
 11
51.391341904568591
 21
66.887222329700535
 31
0.0
  0
LINE
  5
3EAD
  8
0
 10
48.191341710108439
 20
66.887222329700535
 30
0.0
 11
48.191341710108439
 21
76.125222357535904
 31
0.0
  0
LINE
  5
3EB0
  8
2
 10
52.891342090088102
 20
66.760222245687814
 30
0.0
 11
52.510342000815193
 21
66.379222186828201
 31
0.0
  0
LINE
  5
3EB1
  8
0
 10
51.391341904568591
 20
66.887222329700535
 30
0.0
 11
51.601762598770769
 21
66.379222186828201
 31
0.0
  0
LINE
  5
3EB2
  8
0
 10
48.191341710108439
 20
66.887222329700535
 30
0.0
 11
48.69934231864206
 21
66.379222186828201
 31
0.0
  0
LINE
  5
3EB3
  8
2
 10
50.69134209008805
 20
75.998222245687771
 30
0.0
 11
50.69134209008805
 21
72.179222245687811
 31
0.0
  0
LINE
  5
3EB6
  8
2
 10
50.310342245566773
 20
76.379222428972071
 30
0.0
 11
50.69134209008805
 21
75.998222245687771
 31
0.0
  0
LINE
  5
3EB7
  8
0
 10
51.496552484500327
 20
76.379222428972071
 30
0.0
 11
51.391341904568591
 21
76.125222357535904
 31
0.0
  0
LINE
  5
3EB8
  8
0
 10
48.4453422472059
 20
76.379222428972071
 30
0.0
 11
48.191341710108439
 21
76.125222357535904
 31
0.0
  0
LINE
  5
4152
  8
0
 10
60.132711197766881
 20
76.379222428972071
 30
0.0
 11
60.132711197766881
 21
66.379222186828201
 31
0.0
  0
INSERT
  5
42C4
  8
0
  2
STDGX5
 10
193.68248491648521
 20
9.7102539546783078
 30
0.0
  0
INSERT
  5
42D2
  8
0
  2
STDGX5
 10
388.00974126464138
 20
23.23154641135767
 30
0.0
  0
LINE
  5
4ABB
  8
3
 10
89.426659170425893
 20
69.680613332042654
 30
0.0
 11
91.013159725702764
 21
71.313851539475095
 31
0.0
  0
LINE
  5
4ABC
  8
3
 10
91.140159528590203
 20
71.313851539475095
 30
0.0
 11
92.664159491545917
 21
69.744954567017217
 31
0.0
  0
LINE
  5
4ABD
  8
3
 10
92.664159491545917
 20
69.744954567017217
 30
0.0
 11
92.664159491545917
 21
72.921292839186449
 31
0.0
  0
LINE
  5
4ABF
  8
3
 10
94.315159490219713
 20
71.313851539475095
 30
0.0
 11
95.839159569590734
 21
69.744954567017217
 31
0.0
  0
LINE
  5
4AC0
  8
3
 10
95.839159569590734
 20
69.744954567017217
 30
0.0
 11
97.363159547098377
 21
71.313851539475095
 31
0.0
  0
LINE
  5
4AC1
  8
3
 10
95.839159569590734
 20
69.744954567017217
 30
0.0
 11
95.839159569590734
 21
72.921292839186449
 31
0.0
  0
LINE
  5
4AC2
  8
3
 10
92.664159491545917
 20
69.744954567017217
 30
0.0
 11
94.188159454501616
 21
71.313851539475095
 31
0.0
  0
LINE
  5
4AC4
  8
3
 10
100.53815961059129
 20
71.313851539475095
 30
0.0
 11
99.014159531220244
 21
69.744954567017217
 31
0.0
  0
LINE
  5
4AC5
  8
3
 10
102.1891596092651
 20
69.744954567017217
 30
0.0
 11
100.66515964630931
 21
71.313851539475095
 31
0.0
  0
LINE
  5
4AC6
  8
3
 10
103.7131595722208
 20
71.313851539475095
 30
0.0
 11
102.1891596092651
 21
69.744954567017217
 31
0.0
  0
LINE
  5
4AC7
  8
3
 10
99.014159531220244
 20
69.744954567017217
 30
0.0
 11
99.014159531220244
 21
72.921292839186449
 31
0.0
  0
LINE
  5
4AC8
  8
3
 10
102.1891596092651
 20
69.744954567017217
 30
0.0
 11
102.1891596092651
 21
72.921292839186449
 31
0.0
  0
LINE
  5
4ACA
  8
3
 10
105.4266599303851
 20
69.680613332042654
 30
0.0
 11
103.8401593751082
 21
71.313851539475095
 31
0.0
  0
LINE
  5
4ACC
  8
3
 10
99.014159531220244
 20
69.744954567017217
 30
0.0
 11
97.490159553712616
 21
71.313851539475095
 31
0.0
  0
LINE
  5
4B40
  8
3
 10
100.66515964630931
 20
68.139514053786357
 30
0.0
 11
102.1891596092651
 21
69.619901810387333
 31
0.0
  0
LINE
  5
4B41
  8
3
 10
102.1891596092651
 20
66.4435635382181
 30
0.0
 11
100.66515964630931
 21
68.012460467020233
 31
0.0
  0
LINE
  5
4B42
  8
3
 10
105.4266599303851
 20
69.680613332042654
 30
0.0
 11
89.426659170425893
 21
69.680613332042654
 31
0.0
  0
LINE
  5
4B43
  8
0
 10
89.934659778959514
 20
66.379222186828216
 30
0.0
 11
104.91865932185149
 21
66.379222186828216
 31
0.0
  0
LINE
  5
4B64
  8
0
 10
105.4266599303851
 20
76.125222357535904
 30
0.0
 11
105.4266599303851
 21
66.887222329700549
 31
0.0
  0
LINE
  5
4B65
  8
3
 10
105.17634649936051
 20
66.636909364337285
 30
0.0
 11
103.8401593751082
 21
68.012460467020233
 31
0.0
  0
LINE
  5
4B66
  8
3
 10
103.7131595722208
 20
68.012460467020233
 30
0.0
 11
102.1891596092651
 21
66.4435635382181
 31
0.0
  0
LINE
  5
4B67
  8
3
 10
102.1891596092651
 20
66.4435635382181
 30
0.0
 11
102.1891596092651
 21
69.619901810387333
 31
0.0
  0
LINE
  5
4B68
  8
0
 10
104.9186588424718
 20
66.379222186828216
 30
0.0
 11
105.4266599303851
 21
66.887222329700549
 31
0.0
  0
LINE
  5
4B6A
  8
3
 10
102.1891596092651
 20
69.619901810387333
 30
0.0
 11
103.7131595722208
 21
68.139514053786357
 31
0.0
  0
LINE
  5
4B6B
  8
3
 10
103.8401593751082
 20
68.139514053786357
 30
0.0
 11
105.4266599303851
 21
69.680613332042654
 31
0.0
  0
LINE
  5
4B6C
  8
3
 10
103.8401593751082
 20
68.139514053786357
 30
0.0
 11
103.7131595722208
 21
68.139514053786357
 31
0.0
  0
LINE
  5
4B6D
  8
3
 10
103.7131595722208
 20
68.012460467020233
 30
0.0
 11
103.8401593751082
 21
68.012460467020233
 31
0.0
  0
LINE
  5
4B6E
  8
3
 10
103.8401593751082
 20
68.139514053786357
 30
0.0
 11
103.8401593751082
 21
68.012460467020233
 31
0.0
  0
LINE
  5
4B6F
  8
3
 10
103.7131595722208
 20
68.012460467020233
 30
0.0
 11
103.7131595722208
 21
68.139514053786357
 31
0.0
  0
LINE
  5
4BC3
  8
3
 10
91.013159725702764
 20
68.139514053786357
 30
0.0
 11
89.426659170425893
 21
69.680613332042654
 31
0.0
  0
LINE
  5
4BC4
  8
3
 10
89.676972601450444
 20
66.636909364337285
 30
0.0
 11
91.013159725702764
 21
68.012460467020233
 31
0.0
  0
LINE
  5
4BC5
  8
0
 10
89.426659170425907
 20
66.887222795361822
 30
0.0
 11
89.934659778959514
 21
66.379222186828216
 31
0.0
  0
LINE
  5
4BC6
  8
3
 10
95.839159569590734
 20
69.619901810387333
 30
0.0
 11
94.315159490219713
 21
68.139514053786357
 31
0.0
  0
LINE
  5
4BC7
  8
3
 10
94.315159490219713
 20
68.012460467020233
 30
0.0
 11
95.839159569590734
 21
66.4435635382181
 31
0.0
  0
LINE
  5
4BC8
  8
3
 10
95.839159569590734
 20
66.4435635382181
 30
0.0
 11
97.363159547098377
 21
68.012460467020233
 31
0.0
  0
LINE
  5
4BC9
  8
3
 10
95.839159569590734
 20
66.4435635382181
 30
0.0
 11
95.839159569590734
 21
69.619901810387333
 31
0.0
  0
LINE
  5
4BCA
  8
3
 10
100.53815961059129
 20
68.012460467020233
 30
0.0
 11
99.014159531220244
 21
66.4435635382181
 31
0.0
  0
LINE
  5
4BCB
  8
3
 10
99.014159531220244
 20
66.4435635382181
 30
0.0
 11
99.014159531220244
 21
69.619901810387333
 31
0.0
  0
LINE
  5
4BCC
  8
3
 10
99.014159531220244
 20
66.4435635382181
 30
0.0
 11
97.490159553712616
 21
68.012460467020233
 31
0.0
  0
LINE
  5
4BCD
  8
3
 10
97.490159553712616
 20
68.139514053786357
 30
0.0
 11
99.014159531220244
 21
69.619901810387333
 31
0.0
  0
LINE
  5
4BCE
  8
3
 10
99.014159531220244
 20
69.619901810387333
 30
0.0
 11
100.53815961059129
 21
68.139514053786357
 31
0.0
  0
LINE
  5
4BCF
  8
3
 10
100.66515964630931
 20
68.139514053786357
 30
0.0
 11
100.53815961059129
 21
68.139514053786357
 31
0.0
  0
LINE
  5
4BD0
  8
3
 10
100.53815961059129
 20
68.012460467020233
 30
0.0
 11
100.66515964630931
 21
68.012460467020233
 31
0.0
  0
LINE
  5
4BD1
  8
3
 10
100.66515964630931
 20
68.139514053786357
 30
0.0
 11
100.66515964630931
 21
68.012460467020233
 31
0.0
  0
LINE
  5
4BD2
  8
3
 10
100.53815961059129
 20
68.012460467020233
 30
0.0
 11
100.53815961059129
 21
68.139514053786357
 31
0.0
  0
LINE
  5
4BD3
  8
3
 10
97.363159547098377
 20
68.139514053786357
 30
0.0
 11
95.839159569590734
 21
69.619901810387333
 31
0.0
  0
LINE
  5
4BD4
  8
3
 10
97.490159553712616
 20
68.139514053786357
 30
0.0
 11
97.363159547098377
 21
68.139514053786357
 31
0.0
  0
LINE
  5
4BD5
  8
3
 10
97.363159547098377
 20
68.012460467020233
 30
0.0
 11
97.490159553712616
 21
68.012460467020233
 31
0.0
  0
LINE
  5
4BD6
  8
3
 10
97.490159553712616
 20
68.139514053786357
 30
0.0
 11
97.490159553712616
 21
68.012460467020233
 31
0.0
  0
LINE
  5
4BD7
  8
3
 10
97.363159547098377
 20
68.139514053786357
 30
0.0
 11
97.363159547098377
 21
68.012460467020233
 31
0.0
  0
LINE
  5
4BD8
  8
3
 10
91.140159528590203
 20
68.012460467020233
 30
0.0
 11
92.664159491545917
 21
66.4435635382181
 31
0.0
  0
LINE
  5
4BD9
  8
3
 10
92.664159491545917
 20
66.4435635382181
 30
0.0
 11
94.188159454501616
 21
68.012460467020233
 31
0.0
  0
LINE
  5
4BDA
  8
3
 10
92.664159491545917
 20
66.4435635382181
 30
0.0
 11
92.664159491545917
 21
69.619901810387333
 31
0.0
  0
LINE
  5
4BDB
  8
3
 10
92.664159491545917
 20
69.619901810387333
 30
0.0
 11
91.140159528590203
 21
68.139514053786357
 31
0.0
  0
LINE
  5
4BDC
  8
3
 10
94.188159454501616
 20
68.139514053786357
 30
0.0
 11
92.664159491545917
 21
69.619901810387333
 31
0.0
  0
LINE
  5
4BDD
  8
3
 10
94.315159490219713
 20
68.139514053786357
 30
0.0
 11
94.188159454501616
 21
68.139514053786357
 31
0.0
  0
LINE
  5
4BDE
  8
3
 10
94.188159454501616
 20
68.012460467020233
 30
0.0
 11
94.315159490219713
 21
68.012460467020233
 31
0.0
  0
LINE
  5
4BDF
  8
3
 10
94.315159490219713
 20
68.012460467020233
 30
0.0
 11
94.315159490219713
 21
68.139514053786357
 31
0.0
  0
LINE
  5
4BE0
  8
3
 10
94.188159454501616
 20
68.139514053786357
 30
0.0
 11
94.188159454501616
 21
68.012460467020233
 31
0.0
  0
LINE
  5
4BE1
  8
3
 10
91.140159528590203
 20
68.139514053786357
 30
0.0
 11
91.013159725702764
 21
68.139514053786357
 31
0.0
  0
LINE
  5
4BE2
  8
3
 10
91.013159725702764
 20
68.012460467020233
 30
0.0
 11
91.140159528590203
 21
68.012460467020233
 31
0.0
  0
LINE
  5
4BE3
  8
3
 10
91.140159528590203
 20
68.012460467020233
 30
0.0
 11
91.140159528590203
 21
68.139514053786357
 31
0.0
  0
LINE
  5
4BE4
  8
3
 10
91.013159725702764
 20
68.139514053786357
 30
0.0
 11
91.013159725702764
 21
68.012460467020233
 31
0.0
  0
LINE
  5
4C01
  8
3
 10
102.1891596092651
 20
76.222683867985566
 30
0.0
 11
100.66515964630931
 21
74.74229611138459
 31
0.0
  0
LINE
  5
4C02
  8
3
 10
102.1891596092651
 20
72.921292839186449
 30
0.0
 11
100.66515964630931
 21
71.440905082585473
 31
0.0
  0
LINE
  5
4C03
  8
3
 10
100.66515964630931
 20
74.615242524618466
 30
0.0
 11
102.1891596092651
 21
73.046345595816334
 31
0.0
  0
LINE
  5
4C04
  8
3
 10
105.4266599303851
 20
72.982004360841771
 30
0.0
 11
89.426659170425893
 21
72.982004360841771
 31
0.0
  0
LINE
  5
4C05
  8
0
 10
105.1726593932876
 20
76.379222428972085
 30
0.0
 11
89.680659707523347
 21
76.379222428972085
 31
0.0
  0
LINE
  5
4C06
  8
3
 10
103.7131595722208
 20
74.74229611138459
 30
0.0
 11
102.1891596092651
 21
76.222683867985566
 31
0.0
  0
LINE
  5
4C07
  8
3
 10
105.3464246279368
 20
76.20545672866163
 30
0.0
 11
103.8401593751082
 21
74.74229611138459
 31
0.0
  0
LINE
  5
4C08
  8
3
 10
102.1891596092651
 20
73.046345595816334
 30
0.0
 11
102.1891596092651
 21
76.222683867985566
 31
0.0
  0
LINE
  5
4C0A
  8
3
 10
103.7131595722208
 20
71.440905082585473
 30
0.0
 11
102.1891596092651
 21
72.921292839186449
 31
0.0
  0
LINE
  5
4C0B
  8
3
 10
102.1891596092651
 20
73.046345595816334
 30
0.0
 11
103.7131595722208
 21
74.615242524618466
 31
0.0
  0
LINE
  5
4C0C
  8
3
 10
105.4266599303851
 20
72.982004360841771
 30
0.0
 11
103.8401593751082
 21
71.440905082585473
 31
0.0
  0
LINE
  5
4C0D
  8
3
 10
103.7131595722208
 20
71.440905082585473
 30
0.0
 11
103.8401593751082
 21
71.440905082585473
 31
0.0
  0
LINE
  5
4C0E
  8
3
 10
103.7131595722208
 20
71.313851539475095
 30
0.0
 11
103.8401593751082
 21
71.313851539475095
 31
0.0
  0
LINE
  5
4C0F
  8
3
 10
103.8401593751082
 20
71.440905082585473
 30
0.0
 11
103.8401593751082
 21
71.313851539475095
 31
0.0
  0
LINE
  5
4C10
  8
3
 10
103.7131595722208
 20
71.313851539475095
 30
0.0
 11
103.7131595722208
 21
71.440905082585473
 31
0.0
  0
LINE
  5
4C11
  8
3
 10
103.8401593751082
 20
74.615242524618466
 30
0.0
 11
103.7131595722208
 21
74.615242524618466
 31
0.0
  0
LINE
  5
4C12
  8
3
 10
103.7131595722208
 20
74.74229611138459
 30
0.0
 11
103.8401593751082
 21
74.74229611138459
 31
0.0
  0
LINE
  5
4C13
  8
3
 10
103.7131595722208
 20
74.615242524618466
 30
0.0
 11
103.7131595722208
 21
74.74229611138459
 31
0.0
  0
LINE
  5
4C14
  8
3
 10
103.8401593751082
 20
74.74229611138459
 30
0.0
 11
103.8401593751082
 21
74.615242524618466
 31
0.0
  0
LINE
  5
4C15
  8
3
 10
103.8401593751082
 20
74.615242524618466
 30
0.0
 11
105.4266599303851
 21
72.982004360841771
 31
0.0
  0
LINE
  5
4C17
  8
0
 10
105.4266599303851
 20
76.125221211196362
 30
0.0
 11
105.1726593932876
 21
76.379222428972085
 31
0.0
  0
LINE
  5
4C1F
  8
3
 10
89.506894472874166
 20
76.205456728661616
 30
0.0
 11
91.013159725702764
 21
74.74229611138459
 31
0.0
  0
LINE
  5
4C20
  8
3
 10
89.426659170425893
 20
72.982004360841771
 30
0.0
 11
91.013159725702764
 21
71.440905082585473
 31
0.0
  0
LINE
  5
4C21
  8
3
 10
91.013159725702764
 20
74.615242524618466
 30
0.0
 11
89.426659170425893
 21
72.982004360841771
 31
0.0
  0
LINE
  5
4C22
  8
3
 10
94.315159490219713
 20
74.74229611138459
 30
0.0
 11
95.839159569590734
 21
76.222683867985566
 31
0.0
  0
LINE
  5
4C23
  8
3
 10
94.315159490219713
 20
71.440905082585473
 30
0.0
 11
95.839159569590734
 21
72.921292839186449
 31
0.0
  0
LINE
  5
4C24
  8
3
 10
95.839159569590734
 20
73.046345595816334
 30
0.0
 11
94.315159490219713
 21
74.615242524618466
 31
0.0
  0
LINE
  5
4C25
  8
3
 10
95.839159569590734
 20
76.222683867985566
 30
0.0
 11
97.363159547098377
 21
74.74229611138459
 31
0.0
  0
LINE
  5
4C26
  8
3
 10
95.839159569590734
 20
73.046345595816334
 30
0.0
 11
95.839159569590734
 21
76.222683867985566
 31
0.0
  0
LINE
  5
4C27
  8
3
 10
100.53815961059129
 20
74.74229611138459
 30
0.0
 11
99.014159531220244
 21
76.222683867985566
 31
0.0
  0
LINE
  5
4C28
  8
3
 10
99.014159531220244
 20
73.046345595816334
 30
0.0
 11
99.014159531220244
 21
76.222683867985566
 31
0.0
  0
LINE
  5
4C29
  8
3
 10
99.014159531220244
 20
76.222683867985566
 30
0.0
 11
97.490159553712616
 21
74.74229611138459
 31
0.0
  0
LINE
  5
4C2A
  8
3
 10
99.014159531220244
 20
72.921292839186449
 30
0.0
 11
97.490159553712616
 21
71.440905082585473
 31
0.0
  0
LINE
  5
4C2B
  8
3
 10
97.490159553712616
 20
74.615242524618466
 30
0.0
 11
99.014159531220244
 21
73.046345595816334
 31
0.0
  0
LINE
  5
4C2C
  8
3
 10
100.53815961059129
 20
71.440905082585473
 30
0.0
 11
100.66515964630931
 21
71.440905082585473
 31
0.0
  0
LINE
  5
4C2D
  8
3
 10
100.53815961059129
 20
71.313851539475095
 30
0.0
 11
100.66515964630931
 21
71.313851539475095
 31
0.0
  0
LINE
  5
4C2E
  8
3
 10
100.66515964630931
 20
71.440905082585473
 30
0.0
 11
100.66515964630931
 21
71.313851539475095
 31
0.0
  0
LINE
  5
4C2F
  8
3
 10
100.53815961059129
 20
71.313851539475095
 30
0.0
 11
100.53815961059129
 21
71.440905082585473
 31
0.0
  0
LINE
  5
4C30
  8
3
 10
100.53815961059129
 20
71.440905082585473
 30
0.0
 11
99.014159531220244
 21
72.921292839186449
 31
0.0
  0
LINE
  5
4C31
  8
3
 10
100.66515964630931
 20
74.615242524618466
 30
0.0
 11
100.53815961059129
 21
74.615242524618466
 31
0.0
  0
LINE
  5
4C32
  8
3
 10
100.53815961059129
 20
74.74229611138459
 30
0.0
 11
100.66515964630931
 21
74.74229611138459
 31
0.0
  0
LINE
  5
4C33
  8
3
 10
100.53815961059129
 20
74.615242524618466
 30
0.0
 11
100.53815961059129
 21
74.74229611138459
 31
0.0
  0
LINE
  5
4C34
  8
3
 10
100.66515964630931
 20
74.74229611138459
 30
0.0
 11
100.66515964630931
 21
74.615242524618466
 31
0.0
  0
LINE
  5
4C35
  8
3
 10
99.014159531220244
 20
73.046345595816334
 30
0.0
 11
100.53815961059129
 21
74.615242524618466
 31
0.0
  0
LINE
  5
4C36
  8
3
 10
97.363159547098377
 20
71.440905082585473
 30
0.0
 11
97.490159553712616
 21
71.440905082585473
 31
0.0
  0
LINE
  5
4C37
  8
3
 10
97.363159547098377
 20
71.313851539475095
 30
0.0
 11
97.490159553712616
 21
71.313851539475095
 31
0.0
  0
LINE
  5
4C38
  8
3
 10
97.490159553712616
 20
71.440905082585473
 30
0.0
 11
97.490159553712616
 21
71.313851539475095
 31
0.0
  0
LINE
  5
4C39
  8
3
 10
97.363159547098377
 20
71.440905082585473
 30
0.0
 11
97.363159547098377
 21
71.313851539475095
 31
0.0
  0
LINE
  5
4C3A
  8
3
 10
95.839159569590734
 20
72.921292839186449
 30
0.0
 11
97.363159547098377
 21
71.440905082585473
 31
0.0
  0
LINE
  5
4C3B
  8
3
 10
97.490159553712616
 20
74.615242524618466
 30
0.0
 11
97.363159547098377
 21
74.615242524618466
 31
0.0
  0
LINE
  5
4C3C
  8
3
 10
97.363159547098377
 20
74.74229611138459
 30
0.0
 11
97.490159553712616
 21
74.74229611138459
 31
0.0
  0
LINE
  5
4C3D
  8
3
 10
97.363159547098377
 20
74.74229611138459
 30
0.0
 11
97.363159547098377
 21
74.615242524618466
 31
0.0
  0
LINE
  5
4C3E
  8
3
 10
97.490159553712616
 20
74.74229611138459
 30
0.0
 11
97.490159553712616
 21
74.615242524618466
 31
0.0
  0
LINE
  5
4C3F
  8
3
 10
97.363159547098377
 20
74.615242524618466
 30
0.0
 11
95.839159569590734
 21
73.046345595816334
 31
0.0
  0
LINE
  5
4C40
  8
3
 10
91.140159528590203
 20
74.74229611138459
 30
0.0
 11
92.664159491545917
 21
76.222683867985566
 31
0.0
  0
LINE
  5
4C41
  8
3
 10
92.664159491545917
 20
76.222683867985566
 30
0.0
 11
94.188159454501616
 21
74.74229611138459
 31
0.0
  0
LINE
  5
4C42
  8
3
 10
92.664159491545917
 20
73.046345595816334
 30
0.0
 11
92.664159491545917
 21
76.222683867985566
 31
0.0
  0
LINE
  5
4C43
  8
3
 10
91.140159528590203
 20
71.440905082585473
 30
0.0
 11
92.664159491545917
 21
72.921292839186449
 31
0.0
  0
LINE
  5
4C44
  8
3
 10
92.664159491545917
 20
73.046345595816334
 30
0.0
 11
91.140159528590203
 21
74.615242524618466
 31
0.0
  0
LINE
  5
4C45
  8
3
 10
94.188159454501616
 20
71.440905082585473
 30
0.0
 11
94.315159490219713
 21
71.440905082585473
 31
0.0
  0
LINE
  5
4C46
  8
3
 10
94.188159454501616
 20
71.313851539475095
 30
0.0
 11
94.315159490219713
 21
71.313851539475095
 31
0.0
  0
LINE
  5
4C47
  8
3
 10
94.188159454501616
 20
71.440905082585473
 30
0.0
 11
94.188159454501616
 21
71.313851539475095
 31
0.0
  0
LINE
  5
4C48
  8
3
 10
94.315159490219713
 20
71.313851539475095
 30
0.0
 11
94.315159490219713
 21
71.440905082585473
 31
0.0
  0
LINE
  5
4C49
  8
3
 10
92.664159491545917
 20
72.921292839186449
 30
0.0
 11
94.188159454501616
 21
71.440905082585473
 31
0.0
  0
LINE
  5
4C4A
  8
3
 10
94.315159490219713
 20
74.615242524618466
 30
0.0
 11
94.188159454501616
 21
74.615242524618466
 31
0.0
  0
LINE
  5
4C4B
  8
3
 10
94.188159454501616
 20
74.74229611138459
 30
0.0
 11
94.315159490219713
 21
74.74229611138459
 31
0.0
  0
LINE
  5
4C4C
  8
3
 10
94.188159454501616
 20
74.74229611138459
 30
0.0
 11
94.188159454501616
 21
74.615242524618466
 31
0.0
  0
LINE
  5
4C4D
  8
3
 10
94.315159490219713
 20
74.615242524618466
 30
0.0
 11
94.315159490219713
 21
74.74229611138459
 31
0.0
  0
LINE
  5
4C4E
  8
3
 10
94.188159454501616
 20
74.615242524618466
 30
0.0
 11
92.664159491545917
 21
73.046345595816334
 31
0.0
  0
LINE
  5
4C4F
  8
3
 10
91.013159725702764
 20
71.440905082585473
 30
0.0
 11
91.140159528590203
 21
71.440905082585473
 31
0.0
  0
LINE
  5
4C50
  8
3
 10
91.013159725702764
 20
71.313851539475095
 30
0.0
 11
91.140159528590203
 21
71.313851539475095
 31
0.0
  0
LINE
  5
4C51
  8
3
 10
91.140159528590203
 20
71.313851539475095
 30
0.0
 11
91.140159528590203
 21
71.440905082585473
 31
0.0
  0
LINE
  5
4C52
  8
3
 10
91.013159725702764
 20
71.440905082585473
 30
0.0
 11
91.013159725702764
 21
71.313851539475095
 31
0.0
  0
LINE
  5
4C53
  8
3
 10
91.013159725702764
 20
74.74229611138459
 30
0.0
 11
91.013159725702764
 21
74.615242524618466
 31
0.0
  0
LINE
  5
4C54
  8
3
 10
91.013159725702764
 20
74.74229611138459
 30
0.0
 11
91.140159528590203
 21
74.74229611138459
 31
0.0
  0
LINE
  5
4C55
  8
3
 10
91.140159528590203
 20
74.615242524618466
 30
0.0
 11
91.140159528590203
 21
74.74229611138459
 31
0.0
  0
LINE
  5
4C56
  8
3
 10
91.140159528590203
 20
74.615242524618466
 30
0.0
 11
91.013159725702764
 21
74.615242524618466
 31
0.0
  0
LINE
  5
4C57
  8
0
 10
89.426659170425893
 20
76.125222357535904
 30
0.0
 11
89.426659170425893
 21
66.887222329700563
 31
0.0
  0
LINE
  5
4C58
  8
0
 10
89.680659707523347
 20
76.379222428972085
 30
0.0
 11
89.426660316762366
 21
76.125222357535904
 31
0.0
  0
LINE
  5
4EDC
  8
0
 10
89.426659170425893
 20
76.125222357535904
 30
0.0
 11
105.4266599303851
 21
76.125222357535904
 31
0.0
  0
LINE
  5
4EDD
  8
0
 10
105.4266599303851
 20
66.887222329700549
 30
0.0
 11
89.426659170425893
 21
66.887222329700563
 31
0.0
  0
LINE
  5
4EDE
  8
0
 10
64.191342470067653
 20
74.742296111384576
 30
0.0
 11
64.191342470067653
 21
74.615242524618452
 31
0.0
  0
LINE
  5
4EDF
  8
0
 10
62.604841914790789
 20
76.125222357535904
 30
0.0
 11
62.604841914790789
 21
72.982004360841756
 31
0.0
  0
LINE
  5
4EE1
  8
0
 10
62.604841914790789
 20
69.68061333204264
 30
0.0
 11
62.604841914790789
 21
66.887222329700535
 31
0.0
  0
LINE
  5
4EE3
  8
0
 10
64.191342470067653
 20
68.139514053786343
 30
0.0
 11
62.604841914790789
 21
69.68061333204264
 31
0.0
  0
LINE
  5
4EE4
  8
0
 10
62.85515488015406
 20
66.636909364337271
 30
0.0
 11
62.604841914790789
 21
66.379222186828201
 31
0.0
  0
LINE
  5
4EE5
  8
0
 10
64.191342470067653
 20
68.139514053786343
 30
0.0
 11
64.191342470067653
 21
68.012460467020219
 31
0.0
  0
LINE
  5
4EE6
  8
0
 10
62.604841914790789
 20
66.887222329700535
 30
0.0
 11
62.85515488015406
 21
66.636909364337271
 31
0.0
  0
LINE
  5
4EE7
  8
0
 10
62.85515488015406
 20
66.636909364337271
 30
0.0
 11
64.191342470067653
 21
68.012460467020219
 31
0.0
  0
LINE
  5
4EE8
  8
0
 10
62.604841914790789
 20
72.982004360841756
 30
0.0
 11
62.604841914790789
 21
69.68061333204264
 31
0.0
  0
LINE
  5
4EEA
  8
0
 10
62.604841914790789
 20
72.982004360841756
 30
0.0
 11
64.191342470067653
 21
71.440905082585459
 31
0.0
  0
LINE
  5
4EEB
  8
0
 10
64.191342470067653
 20
71.440905082585459
 30
0.0
 11
64.191342470067653
 21
71.313851539475081
 31
0.0
  0
LINE
  5
4EEC
  8
0
 10
62.604841914790789
 20
69.68061333204264
 30
0.0
 11
64.191342470067653
 21
71.313851539475081
 31
0.0
  0
LINE
  5
4EED
  8
0
 10
64.191342470067653
 20
74.615242524618452
 30
0.0
 11
62.604841914790789
 21
72.982004360841756
 31
0.0
  0
LINE
  5
4EEE
  8
0
 10
62.506192036735932
 20
76.379222428972071
 30
0.0
 11
62.685076751577782
 21
76.205456728661602
 31
0.0
  0
LINE
  5
4EEF
  8
0
 10
62.685076751577782
 20
76.205456728661602
 30
0.0
 11
62.604841914790789
 21
76.125222357535904
 31
0.0
  0
LINE
  5
4EF0
  8
0
 10
62.685076751577782
 20
76.205456728661602
 30
0.0
 11
64.191342470067653
 21
74.742296111384576
 31
0.0
  0
LINE
  5
4EF1
  8
0
 10
130.6619766307432
 20
68.139514053786343
 30
0.0
 11
132.2484771860201
 21
69.68061333204264
 31
0.0
  0
LINE
  5
4EF2
  8
0
 10
132.2484771860201
 20
69.68061333204264
 30
0.0
 11
132.2484771860201
 21
66.887222329700535
 31
0.0
  0
LINE
  5
4EF3
  8
0
 10
134.720607903044
 20
76.379222428972071
 30
0.0
 11
134.720607903044
 21
66.379222186828201
 31
0.0
  0
LINE
  5
4EF4
  8
0
 10
146.66197739070239
 20
66.887222329700535
 30
0.0
 11
146.66197739070239
 21
76.125222357535904
 31
0.0
  0
LINE
  5
4EF5
  8
0
 10
143.46197719624229
 20
76.125222357535904
 30
0.0
 11
143.46197719624229
 21
66.887222329700535
 31
0.0
  0
LINE
  5
4EF6
  8
2
 10
141.96197699284139
 20
72.179222229482775
 30
0.0
 11
141.96197701072279
 21
66.760222245687814
 31
0.0
  0
LINE
  5
4EF7
  8
1
 10
138.66197701072281
 20
63.879222186828201
 30
0.0
 11
138.66197701072281
 21
78.879222428972071
 31
0.0
  0
LINE
  5
4EF8
  8
2
 10
135.3619770107228
 20
66.760222245687814
 30
0.0
 11
135.3619770286042
 21
72.179222229482775
 31
0.0
  0
LINE
  5
4EF9
  8
0
 10
132.2484771860201
 20
66.379222186828201
 30
0.0
 11
146.1539767821688
 21
66.379222186828201
 31
0.0
  0
LINE
  5
4EFA
  8
0
 10
146.6619773907025
 20
66.887222329700535
 30
0.0
 11
132.2484771860201
 21
66.887222329700535
 31
0.0
  0
LINE
  5
4EFB
  8
0
 10
146.66197739070239
 20
66.887222329700535
 30
0.0
 11
146.1539767821688
 21
66.379222186828201
 31
0.0
  0
LINE
  5
4EFC
  8
2
 10
135.3619770107228
 20
66.760222245687814
 30
0.0
 11
141.96197701072279
 21
66.760222245687814
 31
0.0
  0
LINE
  5
4EFD
  8
0
 10
143.46197719624229
 20
66.887222329700535
 30
0.0
 11
143.2515565020401
 21
66.379222186828201
 31
0.0
  0
LINE
  5
4EFE
  8
2
 10
141.96197701072279
 20
66.760222245687814
 30
0.0
 11
142.34297709999569
 21
66.379222186828201
 31
0.0
  0
LINE
  5
4EFF
  8
2
 10
134.98097692145001
 20
66.379222186828201
 30
0.0
 11
135.3619770107228
 21
66.760222245687814
 31
0.0
  0
LINE
  5
4F00
  8
0
 10
131.9981642206568
 20
66.636909364337271
 30
0.0
 11
130.6619766307432
 21
68.012460467020219
 31
0.0
  0
LINE
  5
4F01
  8
0
 10
132.2484771860201
 20
66.887222329700535
 30
0.0
 11
131.9981642206568
 21
66.636909364337271
 31
0.0
  0
LINE
  5
4F02
  8
0
 10
131.9981642206568
 20
66.636909364337271
 30
0.0
 11
132.2484771860201
 21
66.379222186828201
 31
0.0
  0
LINE
  5
4F03
  8
0
 10
130.6619766307432
 20
68.139514053786343
 30
0.0
 11
130.6619766307432
 21
68.012460467020219
 31
0.0
  0
LINE
  5
4F04
  8
0
 10
132.2484771860201
 20
76.125222357535904
 30
0.0
 11
146.66197739070239
 21
76.125222357535904
 31
0.0
  0
LINE
  5
4F05
  8
0
 10
146.40797685360499
 20
76.379222428972071
 30
0.0
 11
132.3471270640749
 21
76.379222428972071
 31
0.0
  0
LINE
  5
4F06
  8
0
 10
146.40797685360499
 20
76.379222428972071
 30
0.0
 11
146.66197739070239
 21
76.125222357535904
 31
0.0
  0
LINE
  5
4F07
  8
2
 10
144.16197701072281
 20
72.179222245687811
 30
0.0
 11
133.16197701072281
 21
72.179222245687811
 31
0.0
  0
LINE
  5
4F08
  8
2
 10
144.16197701072281
 20
75.998222245687771
 30
0.0
 11
133.16197701072281
 21
75.998222245687771
 31
0.0
  0
LINE
  5
4F09
  8
2
 10
144.16197701072281
 20
75.998222245687771
 30
0.0
 11
144.16197701072281
 21
72.179222245687811
 31
0.0
  0
LINE
  5
4F0A
  8
0
 10
143.35676661631049
 20
76.379222428972071
 30
0.0
 11
143.46197719624229
 21
76.125222357535904
 31
0.0
  0
LINE
  5
4F0B
  8
2
 10
144.54297685524409
 20
76.379222428972071
 30
0.0
 11
144.16197701072281
 21
75.998222245687771
 31
0.0
  0
LINE
  5
4F0C
  8
0
 10
132.16824234923311
 20
76.205456728661602
 30
0.0
 11
130.6619766307432
 21
74.742296111384576
 31
0.0
  0
LINE
  5
4F0D
  8
0
 10
132.2484771860201
 20
76.125222357535904
 30
0.0
 11
132.2484771860201
 21
72.982004360841756
 31
0.0
  0
LINE
  5
4F0E
  8
2
 10
133.16197701072281
 20
72.179222245687811
 30
0.0
 11
133.16197701072281
 21
75.998222245687771
 31
0.0
  0
LINE
  5
4F0F
  8
0
 10
132.2484771860201
 20
72.982004360841756
 30
0.0
 11
130.6619766307432
 21
71.440905082585459
 31
0.0
  0
LINE
  5
4F10
  8
0
 10
132.2484771860201
 20
72.982004360841756
 30
0.0
 11
132.2484771860201
 21
69.68061333204264
 31
0.0
  0
LINE
  5
4F11
  8
0
 10
132.2484771860201
 20
69.68061333204264
 30
0.0
 11
130.6619766307432
 21
71.313851539475081
 31
0.0
  0
LINE
  5
4F12
  8
0
 10
130.6619766307432
 20
71.440905082585459
 30
0.0
 11
130.6619766307432
 21
71.313851539475081
 31
0.0
  0
LINE
  5
4F13
  8
0
 10
130.6619766307432
 20
74.615242524618452
 30
0.0
 11
132.2484771860201
 21
72.982004360841756
 31
0.0
  0
LINE
  5
4F14
  8
0
 10
130.6619766307432
 20
74.742296111384576
 30
0.0
 11
130.6619766307432
 21
74.615242524618452
 31
0.0
  0
LINE
  5
4F15
  8
0
 10
132.16824234923311
 20
76.205456728661602
 30
0.0
 11
132.2484771860201
 21
76.125222357535904
 31
0.0
  0
LINE
  5
4F16
  8
0
 10
132.3471270640749
 20
76.379222428972071
 30
0.0
 11
132.16824234923311
 21
76.205456728661602
 31
0.0
  0
LINE
  5
4F17
  8
0
 10
132.3471270640749
 20
76.379222428972071
 30
0.0
 11
132.16824234923311
 21
76.205456728661602
 31
0.0
  0
LINE
  5
4F18
  8
2
 10
133.16197701072281
 20
75.998222245687771
 30
0.0
 11
132.7809771662015
 21
76.379222428972071
 31
0.0
  0
LINE
  5
4F4E
  8
0
 10
89.680659707523375
 20
101.39302518817161
 30
0.0
 11
89.506893484065728
 21
101.21414047332981
 31
0.0
  0
LINE
  5
4F4F
  8
0
 10
89.680659707523404
 20
101.39302518817161
 30
0.0
 11
105.1726593932877
 21
101.39302518817161
 31
0.0
  0
LINE
  5
4F52
  8
0
 10
105.1726593932875
 20
101.39302518817161
 30
0.0
 11
105.34642561674519
 21
101.21414047332981
 31
0.0
  0
LINE
  5
4F55
  8
0
 10
89.676971671712522
 20
46.032432275102849
 30
0.0
 11
89.934659715091499
 21
45.782120241062159
 31
0.0
  0
LINE
  5
4F56
  8
0
 10
105.1763474290984
 20
46.032432275102849
 30
0.0
 11
104.91865938571939
 21
45.782120241062159
 31
0.0
  0
TEXT
  5
5008
  8
0
 62
     3
 10
0.0
 20
0.0
 30
0.0
 40
5.0
  1
HSE-9160
  7
STANDARD1
  0
ENDSEC
  0
EOF
