  0
SECTION
  2
HEADER
  9
$ACADVER
  1
AC1009
  9
$INSBASE
 10
0.0
 20
0.0
 30
0.0
  9
$EXTMIN
 10
0.0
 20
-1.4802182810368341
 30
0.0
  9
$EXTMAX
 10
173.2247782355555
 20
141.7194219106633
 30
0.0
  9
$LIMMIN
 10
0.0
 20
0.0
  9
$LIMMAX
 10
187.5
 20
135.0
  9
$ORTHOMODE
 70
     1
  9
$REGENMODE
 70
     1
  9
$FILLMODE
 70
     1
  9
$QTEXTMODE
 70
     0
  9
$MIRRTEXT
 70
     0
  9
$DRAGMODE
 70
     2
  9
$LTSCALE
 40
5.0
  9
$OSMODE
 70
    55
  9
$ATTMODE
 70
     1
  9
$TEXTSIZE
 40
2.5
  9
$TRACEWID
 40
0.05
  9
$TEXTSTYLE
  7
STANDARD
  9
$CLAYER
  8
0
  9
$CELTYPE
  6
BYLAYER
  9
$CECOLOR
 62
   256
  9
$DIMSCALE
 40
0.5
  9
$DIMASZ
 40
3.0
  9
$DIMEXO
 40
2.0
  9
$DIMDLI
 40
10.0
  9
$DIMRND
 40
0.0
  9
$DIMDLE
 40
0.0
  9
$DIMEXE
 40
2.0
  9
$DIMTP
 40
0.0
  9
$DIMTM
 40
0.0
  9
$DIMTXT
 40
3.0
  9
$DIMCEN
 40
0.09
  9
$DIMTSZ
 40
0.0
  9
$DIMTOL
 70
     0
  9
$DIMLIM
 70
     0
  9
$DIMTIH
 70
     0
  9
$DIMTOH
 70
     0
  9
$DIMSE1
 70
     0
  9
$DIMSE2
 70
     0
  9
$DIMTAD
 70
     1
  9
$DIMZIN
 70
     0
  9
$DIMBLK
  1

  9
$DIMASO
 70
     0
  9
$DIMSHO
 70
     0
  9
$DIMPOST
  1

  9
$DIMAPOST
  1

  9
$DIMALT
 70
     0
  9
$DIMALTD
 70
     2
  9
$DIMALTF
 40
25.399999999999999
  9
$DIMLFAC
 40
1.0
  9
$DIMTOFL
 70
     1
  9
$DIMTVP
 40
1.6000000000000001
  9
$DIMTIX
 70
     1
  9
$DIMSOXD
 70
     0
  9
$DIMSAH
 70
     0
  9
$DIMBLK1
  1
ARROW1
  9
$DIMBLK2
  1
ARROW1
  9
$DIMSTYLE
  2
STANDARD
  9
$DIMCLRD
 70
     0
  9
$DIMCLRE
 70
     0
  9
$DIMCLRT
 70
     0
  9
$DIMTFAC
 40
1.0
  9
$DIMGAP
 40
0.09
  9
$LUNITS
 70
     2
  9
$LUPREC
 70
     4
  9
$SKETCHINC
 40
0.1
  9
$FILLETRAD
 40
0.0
  9
$AUNITS
 70
     0
  9
$AUPREC
 70
     0
  9
$MENU
  1
E:\r13\win\SUPPORT\ACAD
  9
$ELEVATION
 40
0.0
  9
$PELEVATION
 40
0.0
  9
$THICKNESS
 40
0.0
  9
$LIMCHECK
 70
     0
  9
$BLIPMODE
 70
     0
  9
$CHAMFERA
 40
3.2000000000000002
  9
$CHAMFERB
 40
3.2000000000000002
  9
$SKPOLY
 70
     0
  9
$TDCREATE
 40
2449840.5944097228
  9
$TDUPDATE
 40
2456598.6935658222
  9
$TDINDWG
 40
0.5928931944
  9
$TDUSRTIMER
 40
0.5928931944
  9
$USRTIMER
 70
     1
  9
$ANGBASE
 50
0.0
  9
$ANGDIR
 70
     0
  9
$PDMODE
 70
     0
  9
$PDSIZE
 40
0.0
  9
$PLINEWID
 40
0.0
  9
$COORDS
 70
     1
  9
$SPLFRAME
 70
     0
  9
$SPLINETYPE
 70
     6
  9
$SPLINESEGS
 70
     8
  9
$ATTDIA
 70
     0
  9
$ATTREQ
 70
     1
  9
$HANDLING
 70
     1
  9
$HANDSEED
  5
6F56
  9
$SURFTAB1
 70
     6
  9
$SURFTAB2
 70
     6
  9
$SURFTYPE
 70
     6
  9
$SURFU
 70
     6
  9
$SURFV
 70
     6
  9
$UCSNAME
  2

  9
$UCSORG
 10
0.0
 20
0.0
 30
0.0
  9
$UCSXDIR
 10
1.0
 20
0.0
 30
0.0
  9
$UCSYDIR
 10
0.0
 20
1.0
 30
0.0
  9
$PUCSNAME
  2

  9
$PUCSORG
 10
0.0
 20
0.0
 30
0.0
  9
$PUCSXDIR
 10
1.0
 20
0.0
 30
0.0
  9
$PUCSYDIR
 10
0.0
 20
1.0
 30
0.0
  9
$USERI1
 70
     0
  9
$USERI2
 70
     1
  9
$USERI3
 70
     1
  9
$USERI4
 70
     0
  9
$USERI5
 70
     0
  9
$USERR1
 40
0.0
  9
$USERR2
 40
0.0
  9
$USERR3
 40
0.0
  9
$USERR4
 40
0.0
  9
$USERR5
 40
0.0
  9
$WORLDVIEW
 70
     1
  9
$SHADEDGE
 70
     3
  9
$SHADEDIF
 70
    70
  9
$TILEMODE
 70
     1
  9
$MAXACTVP
 70
    16
  9
$PLIMCHECK
 70
     0
  9
$PEXTMIN
 10
1.0000000000000000E+020
 20
1.0000000000000000E+020
 30
1.0000000000000000E+020
  9
$PEXTMAX
 10
-1.0000000000000000E+020
 20
-1.0000000000000000E+020
 30
-1.0000000000000000E+020
  9
$PLIMMIN
 10
0.0
 20
0.0
  9
$PLIMMAX
 10
12.0
 20
9.0
  9
$UNITMODE
 70
     0
  9
$VISRETAIN
 70
     0
  9
$PLINEGEN
 70
     0
  9
$PSLTSCALE
 70
     0
  0
ENDSEC
  0
SECTION
  2
TABLES
  0
TABLE
  2
VPORT
 70
     1
  0
VPORT
  2
*ACTIVE
 70
     0
 10
0.0
 20
0.0
 11
1.0
 21
1.0
 12
93.74713919532617
 22
91.840677823229314
 13
0.0
 23
0.0
 14
5.0
 24
5.0
 15
5.0
 25
5.0
 16
0.0
 26
0.0
 36
1.0
 17
0.0
 27
0.0
 37
0.0
 40
188.2986689401846
 41
1.7807262569832401
 42
50.0
 43
0.0
 44
0.0
 50
0.0
 51
0.0
 71
     0
 72
   100
 73
     1
 74
     0
 75
     0
 76
     0
 77
     0
 78
     0
  0
ENDTAB
  0
TABLE
  2
LTYPE
 70
     4
  0
LTYPE
  2
CONTINUOUS
 70
     0
  3
Solid Line
 72
    65
 73
     0
 40
0.0
  0
LTYPE
  2
CENTER
 70
     0
  3
____ _ ____ _ ____ _ ____ _ ____ _ ____ _ ____
 72
    65
 73
     4
 40
2.0
 49
1.25
 49
-0.25
 49
0.25
 49
-0.25
  0
LTYPE
  2
HIDDEN
 70
     0
  3
_ _ _ _ _ _ _ _ _ _ _ _ _ _ _ _ _ _ _ _ _ _ _
 72
    65
 73
     2
 40
0.375
 49
0.25
 49
-0.125
  0
LTYPE
  2
PHANTOM2
 70
     0
  3
___ _ _ ___ _ _ ___ _ _ ___ _ _
 72
    65
 73
     6
 40
1.25
 49
0.625
 49
-0.125
 49
0.125
 49
-0.125
 49
0.125
 49
-0.125
  0
ENDTAB
  0
TABLE
  2
LAYER
 70
     5
  0
LAYER
  2
0
 70
     0
 62
     7
  6
CONTINUOUS
  0
LAYER
  2
1
 70
     0
 62
     1
  6
CENTER
  0
LAYER
  2
2
 70
     0
 62
     2
  6
HIDDEN
  0
LAYER
  2
3
 70
     0
 62
     3
  6
CONTINUOUS
  0
LAYER
  2
WAKU
 70
     0
 62
     5
  6
CONTINUOUS
  0
ENDTAB
  0
TABLE
  2
STYLE
 70
     2
  0
STYLE
  2
STANDARD
 70
     0
 40
0.0
 41
1.0
 50
0.0
 71
     0
 42
2.5
  3
TXT
  4
BIGFONT
  0
STYLE
  2
STANDARD1
 70
     0
 40
0.0
 41
1.0
 50
0.0
 71
     0
 42
3.0
  3
txt
  4

  0
ENDTAB
  0
TABLE
  2
VIEW
 70
     1
  0
VIEW
  2
ALL
 70
     0
 40
135.0
 10
110.49579799999999
 20
67.5
 41
0.0
 11
0.0
 21
0.0
 31
1.0
 12
0.0
 22
0.0
 32
0.0
 42
0.0
 43
0.0
 44
0.0
 50
0.0
 71
     0
  0
ENDTAB
  0
TABLE
  2
UCS
 70
     0
  0
ENDTAB
  0
TABLE
  2
APPID
 70
     4
  0
APPID
  2
ACAD
 70
     0
  0
APPID
  2
DCO15
 70
     0
  0
APPID
  2
ACAD_MLEADERVER
 70
     0
  0
APPID
  2
ACAD_NAV_VCDISPLAY
 70
     0
  0
ENDTAB
  0
TABLE
  2
DIMSTYLE
 70
     1
  0
DIMSTYLE
  2
STANDARD
 70
     0
  3

  4

  5

  6

  7

 40
1.0
 41
0.18
 42
0.0625
 43
0.38
 44
0.18
 45
0.0
 46
0.0
 47
0.0
 48
0.0
140
0.18
141
0.09
142
0.0
143
25.399999999999999
144
1.0
145
0.0
146
1.0
147
0.09
 71
     0
 72
     0
 73
     1
 74
     1
 75
     0
 76
     0
 77
     0
 78
     0
170
     0
171
     2
172
     0
173
     0
174
     0
175
     0
176
     0
177
     0
178
     0
  0
ENDTAB
  0
ENDSEC
  0
SECTION
  2
BLOCKS
  0
BLOCK
  8
0
  2
$MODEL_SPACE
 70
     0
 10
0.0
 20
0.0
 30
0.0
  3
$MODEL_SPACE
  1

  0
ENDBLK
  5
15D
  8
0
  0
BLOCK
 67
     1
  8
0
  2
$PAPER_SPACE
 70
     0
 10
0.0
 20
0.0
 30
0.0
  3
$PAPER_SPACE
  1

  0
ENDBLK
  5
15B
 67
     1
  8
0
  0
BLOCK
  8
0
  2
STDGX5
 70
     0
 10
0.0
 20
0.0
 30
0.0
  3
STDGX5
  1

  0
ENDBLK
  5
41
  8
0
  0
BLOCK
  8
0
  2
ARROW1
 70
     0
 10
0.0
 20
0.0
 30
0.0
  3
ARROW1
  1

  0
SOLID
  5
2442
  8
WAKU
  6
CONTINUOUS
 62
     4
 10
-1.0
 20
0.1666666666666714
 30
0.0
 11
-1.0
 21
-0.1666666666666714
 31
0.0
 12
0.0
 22
0.0
 32
0.0
 13
0.0
 23
0.0
 33
0.0
  0
ENDBLK
  5
2444
  8
0
  0
ENDSEC
  0
SECTION
  2
ENTITIES
  0
INSERT
  5
CA
  8
0
  2
STDGX5
 10
0.0
 20
0.0
 30
0.0
  0
INSERT
  5
69A
  8
0
  2
STDGX5
 10
194.3272563481562
 20
13.52129245667936
 30
0.0
  0
LINE
  5
531D
  8
1
 10
102.7504322773615
 20
129.2194221341808
 30
0.0
 11
127.7504318303267
 21
129.2194221341808
 31
0.0
  0
LINE
  5
5321
  8
0
 10
121.77543214548621
 20
120.5684216866095
 30
0.0
 11
123.1244319400588
 21
119.21942235769821
 31
0.0
  0
CIRCLE
  5
5324
  8
0
 10
115.25043205384399
 20
129.2194221341808
 30
0.0
 40
7.8810000000000002
  0
LINE
  5
5326
  8
0
 10
125.2504318303266
 20
136.01942191066331
 30
0.0
 11
125.2504318303266
 21
120.3144220808346
 31
0.0
  0
LINE
  5
5327
  8
0
 10
124.9964322245518
 20
120.522421802004
 30
0.0
 11
124.9964322245518
 21
135.91421182911401
 31
0.0
  0
LINE
  5
5328
  8
0
 10
123.1244319400588
 20
119.21942235769821
 30
0.0
 11
123.2514317429462
 21
119.21942235769821
 31
0.0
  0
LINE
  5
532B
  8
0
 10
124.7754321715632
 20
120.7434218549926
 30
0.0
 11
125.2504318303266
 21
120.2684221962292
 31
0.0
  0
LINE
  5
532C
  8
0
 10
125.2504318303266
 20
120.2684221962292
 30
0.0
 11
125.2504318303266
 21
120.3144220808346
 31
0.0
  0
LINE
  5
532F
  8
0
 10
124.6004320031801
 20
120.5684216866095
 30
0.0
 11
124.7754321715632
 21
120.7434218549926
 31
0.0
  0
LINE
  5
5330
  8
0
 10
123.2514317429462
 20
119.21942235769821
 30
0.0
 11
124.6004320031801
 21
120.5684216866095
 31
0.0
  0
LINE
  5
5333
  8
0
 10
113.5994321715856
 20
119.21942235769821
 30
0.0
 11
112.250432027767
 21
120.5684216866095
 31
0.0
  0
CIRCLE
  5
5336
  8
0
 10
115.25043205384399
 20
129.2194221341808
 30
0.0
 40
7.5
  0
CIRCLE
  5
5337
  8
2
 10
115.25043205384399
 20
129.21942213418089
 30
0.0
 40
4.8810000000000002
  0
CIRCLE
  5
5338
  8
0
 10
115.25043205384399
 20
129.21942213418089
 30
0.0
 40
4.5000000000000142
  0
LINE
  5
533A
  8
0
 10
108.4504322773615
 20
139.2194219106633
 30
0.0
 11
122.0504318303266
 21
139.2194219106633
 31
0.0
  0
LINE
  5
533B
  8
0
 10
121.9452217487773
 20
138.96542230488851
 30
0.0
 11
108.5556423589108
 21
138.96542230488851
 31
0.0
  0
LINE
  5
533C
  8
1
 10
115.25043205384399
 20
141.7194219106633
 30
0.0
 11
115.25043205384399
 21
116.71942235769821
 31
0.0
  0
LINE
  5
533D
  8
0
 10
116.9014319361025
 20
119.21942235769821
 30
0.0
 11
118.2504320799211
 21
120.5684216866095
 31
0.0
  0
LINE
  5
5340
  8
0
 10
118.2504320799211
 20
120.5684216866095
 30
0.0
 11
118.4254320154736
 21
120.7434218549926
 31
0.0
  0
LINE
  5
5341
  8
0
 10
118.4254320154736
 20
120.7434218549926
 30
0.0
 11
118.600431951026
 21
120.5684216866095
 31
0.0
  0
LINE
  5
5342
  8
0
 10
119.9494317455986
 20
119.21942235769821
 30
0.0
 11
120.0764320141474
 21
119.21942235769821
 31
0.0
  0
LINE
  5
5343
  8
0
 10
121.42543180872001
 20
120.5684216866095
 30
0.0
 11
121.6004319771031
 21
120.7434218549926
 31
0.0
  0
LINE
  5
5344
  8
0
 10
121.6004319771031
 20
120.7434218549926
 30
0.0
 11
121.77543214548621
 21
120.5684216866095
 31
0.0
  0
LINE
  5
5345
  8
0
 10
120.0764320141474
 20
119.21942235769821
 30
0.0
 11
121.42543180872001
 21
120.5684216866095
 31
0.0
  0
LINE
  5
5346
  8
0
 10
118.600431951026
 20
120.5684216866095
 30
0.0
 11
119.9494317455986
 21
119.21942235769821
 31
0.0
  0
LINE
  5
5349
  8
0
 10
113.5994321715856
 20
119.21942235769821
 30
0.0
 11
113.7264322073037
 21
119.21942235769821
 31
0.0
  0
LINE
  5
534A
  8
0
 10
115.25043205384409
 20
120.7434218549926
 30
0.0
 11
115.4254320330523
 21
120.5684216866095
 31
0.0
  0
LINE
  5
534B
  8
0
 10
115.25043205384409
 20
120.7434218549926
 30
0.0
 11
115.0754320746358
 21
120.5684216866095
 31
0.0
  0
LINE
  5
534C
  8
0
 10
116.7744319003845
 20
119.21942235769821
 30
0.0
 11
116.9014319361025
 21
119.21942235769821
 31
0.0
  0
LINE
  5
534D
  8
0
 10
115.4254320330523
 20
120.5684216866095
 30
0.0
 11
116.7744319003845
 21
119.21942235769821
 31
0.0
  0
LINE
  5
534E
  8
0
 10
115.0754320746358
 20
120.5684216866095
 30
0.0
 11
113.7264322073037
 21
119.21942235769821
 31
0.0
  0
LINE
  5
5352
  8
0
 10
105.2504322773615
 20
120.3144220808346
 30
0.0
 11
105.2504322773615
 21
136.01942191066331
 31
0.0
  0
LINE
  5
5353
  8
0
 10
105.50443188313641
 20
135.91421182911401
 30
0.0
 11
105.50443188313631
 21
120.522421802004
 31
0.0
  0
LINE
  5
5354
  8
0
 10
108.900432130585
 20
120.7434218549926
 30
0.0
 11
108.7254319622019
 21
120.5684216866095
 31
0.0
  0
LINE
  5
5356
  8
0
 10
109.0754322989682
 20
120.5684216866095
 30
0.0
 11
108.900432130585
 21
120.7434218549926
 31
0.0
  0
LINE
  5
5357
  8
0
 10
111.90043215666211
 20
120.5684216866095
 30
0.0
 11
110.5514323620895
 21
119.21942235769821
 31
0.0
  0
LINE
  5
5358
  8
0
 10
110.4244320935408
 20
119.21942235769821
 30
0.0
 11
110.5514323620895
 21
119.21942235769821
 31
0.0
  0
LINE
  5
5359
  8
0
 10
112.250432027767
 20
120.5684216866095
 30
0.0
 11
112.0754320922145
 21
120.7434218549926
 31
0.0
  0
LINE
  5
535A
  8
0
 10
112.0754320922145
 20
120.7434218549926
 30
0.0
 11
111.90043215666211
 21
120.5684216866095
 31
0.0
  0
LINE
  5
535D
  8
0
 10
110.4244320935408
 20
119.21942235769821
 30
0.0
 11
109.0754322989682
 21
120.5684216866095
 31
0.0
  0
LINE
  5
535E
  8
0
 10
105.900432104508
 20
120.5684216866095
 30
0.0
 11
105.72543193612491
 21
120.7434218549926
 31
0.0
  0
LINE
  5
535F
  8
0
 10
107.24943236474191
 20
119.21942235769821
 30
0.0
 11
105.900432104508
 21
120.5684216866095
 31
0.0
  0
LINE
  5
5361
  8
0
 10
105.5504317677418
 20
120.5684216866095
 30
0.0
 11
105.2504322773615
 21
120.2684221962292
 31
0.0
  0
LINE
  5
5362
  8
0
 10
105.2504322773615
 20
120.2684221962292
 30
0.0
 11
105.2504322773615
 21
120.3144220808346
 31
0.0
  0
LINE
  5
5365
  8
0
 10
105.72543193612491
 20
120.7434218549926
 30
0.0
 11
105.5504317677418
 21
120.5684216866095
 31
0.0
  0
LINE
  5
5366
  8
0
 10
108.7254319622019
 20
120.5684216866095
 30
0.0
 11
107.3764321676293
 21
119.21942235769821
 31
0.0
  0
LINE
  5
5367
  8
0
 10
107.24943236474191
 20
119.21942235769821
 30
0.0
 11
107.3764321676293
 21
119.21942235769821
 31
0.0
  0
LINE
  5
5663
  8
0
 10
105.2504322773615
 20
136.01942191066331
 30
0.0
 11
108.4504322773615
 21
139.2194219106633
 31
0.0
  0
LINE
  5
5664
  8
0
 10
122.0504318303266
 20
139.2194219106633
 30
0.0
 11
125.2504318303266
 21
136.01942191066331
 31
0.0
  0
LINE
  5
5665
  8
0
 10
121.9452217487773
 20
138.96542230488851
 30
0.0
 11
124.9964322245518
 21
135.91421182911401
 31
0.0
  0
LINE
  5
5666
  8
0
 10
105.50443188313641
 20
135.91421182911401
 30
0.0
 11
108.5556423589108
 21
138.96542230488851
 31
0.0
  0
LINE
  5
5668
  8
0
 10
125.2504318303266
 20
136.01942191066331
 30
0.0
 11
124.9964322245518
 21
135.91421182911401
 31
0.0
  0
LINE
  5
5669
  8
0
 10
122.0504318303266
 20
139.2194219106633
 30
0.0
 11
121.9452217487773
 21
138.96542230488851
 31
0.0
  0
LINE
  5
566A
  8
0
 10
108.4504322773615
 20
139.2194219106633
 30
0.0
 11
108.5556423589108
 21
138.96542230488851
 31
0.0
  0
LINE
  5
566B
  8
0
 10
105.50443188313641
 20
135.91421182911401
 30
0.0
 11
105.2504322773615
 21
136.01942191066331
 31
0.0
  0
LINE
  5
56C0
  8
0
 10
118.600431951026
 20
58.509567192434758
 30
0.0
 11
119.9494317455986
 21
59.858566521346063
 31
0.0
  0
CIRCLE
  5
56C2
  8
2
 10
115.25043205384399
 20
49.85856674486346
 30
0.0
 40
7.8810000000000002
  0
CIRCLE
  5
56C3
  8
2
 10
115.25043205384399
 20
49.85856674486346
 30
0.0
 40
7.5
  0
CIRCLE
  5
56C4
  8
0
 10
115.25043205384399
 20
49.858566744863353
 30
0.0
 40
4.5000000000000142
  0
CIRCLE
  5
56C5
  8
0
 10
115.25043205384399
 20
49.858566744863353
 30
0.0
 40
4.8810000000000002
  0
LINE
  5
56C6
  8
1
 10
102.7504322773615
 20
49.858566744863481
 30
0.0
 11
127.7504318303267
 21
49.858566744863481
 31
0.0
  0
LINE
  5
56C7
  8
0
 10
108.4504322773615
 20
39.858566968380899
 30
0.0
 11
122.0504318303266
 21
39.858566968380899
 31
0.0
  0
LINE
  5
56C9
  8
1
 10
115.25043205384399
 20
37.358566968380899
 30
0.0
 11
115.25043205384399
 21
62.358566521346063
 31
0.0
  0
LINE
  5
56CA
  8
0
 10
105.2504322773615
 20
58.763566798209638
 30
0.0
 11
105.2504322773615
 21
43.058566968380909
 31
0.0
  0
LINE
  5
56CC
  8
0
 10
111.90043215666211
 20
58.509567192434758
 30
0.0
 11
110.5514323620895
 21
59.858566521346063
 31
0.0
  0
LINE
  5
56CE
  8
0
 10
108.7254319622019
 20
58.509567192434758
 30
0.0
 11
107.3764321676293
 21
59.858566521346063
 31
0.0
  0
LINE
  5
56D0
  8
0
 10
107.24943236474191
 20
59.858566521346063
 30
0.0
 11
105.900432104508
 21
58.509567192434758
 31
0.0
  0
LINE
  5
56D1
  8
0
 10
105.5504317677418
 20
58.509567192434758
 30
0.0
 11
105.2504322773615
 21
58.809566682815053
 31
0.0
  0
LINE
  5
56D2
  8
0
 10
105.2504322773615
 20
58.809566682815053
 30
0.0
 11
105.2504322773615
 21
58.763566798209638
 31
0.0
  0
LINE
  5
56D5
  8
0
 10
105.900432104508
 20
58.509567192434758
 30
0.0
 11
105.72543193612491
 21
58.334567024051637
 31
0.0
  0
LINE
  5
56D6
  8
0
 10
105.72543193612491
 20
58.334567024051637
 30
0.0
 11
105.5504317677418
 21
58.509567192434758
 31
0.0
  0
LINE
  5
56D7
  8
0
 10
107.24943236474191
 20
59.858566521346063
 30
0.0
 11
107.3764321676293
 21
59.858566521346063
 31
0.0
  0
LINE
  5
56D8
  8
0
 10
110.4244320935408
 20
59.858566521346063
 30
0.0
 11
109.0754322989682
 21
58.509567192434758
 31
0.0
  0
LINE
  5
56D9
  8
0
 10
108.900432130585
 20
58.334567024051637
 30
0.0
 11
108.7254319622019
 21
58.509567192434758
 31
0.0
  0
LINE
  5
56DA
  8
0
 10
109.0754322989682
 20
58.509567192434758
 30
0.0
 11
108.900432130585
 21
58.334567024051637
 31
0.0
  0
LINE
  5
56DB
  8
0
 10
110.4244320935408
 20
59.858566521346063
 30
0.0
 11
110.5514323620895
 21
59.858566521346063
 31
0.0
  0
LINE
  5
56DC
  8
0
 10
115.25043205384409
 20
58.334567024051637
 30
0.0
 11
115.0754320746358
 21
58.509567192434758
 31
0.0
  0
LINE
  5
56DD
  8
0
 10
113.5994321715856
 20
59.858566521346063
 30
0.0
 11
112.250432027767
 21
58.509567192434758
 31
0.0
  0
LINE
  5
56DF
  8
0
 10
112.250432027767
 20
58.509567192434758
 30
0.0
 11
112.0754320922145
 21
58.334567024051637
 31
0.0
  0
LINE
  5
56E0
  8
0
 10
112.0754320922145
 20
58.334567024051637
 30
0.0
 11
111.90043215666211
 21
58.509567192434758
 31
0.0
  0
LINE
  5
56E1
  8
0
 10
113.5994321715856
 20
59.858566521346063
 30
0.0
 11
113.7264322073037
 21
59.858566521346063
 31
0.0
  0
LINE
  5
56E2
  8
0
 10
115.0754320746358
 20
58.509567192434758
 30
0.0
 11
113.7264322073037
 21
59.858566521346063
 31
0.0
  0
LINE
  5
56E3
  8
0
 10
116.9014319361025
 20
59.858566521346063
 30
0.0
 11
118.2504320799211
 21
58.509567192434758
 31
0.0
  0
LINE
  5
56E5
  8
0
 10
116.7744319003845
 20
59.858566521346063
 30
0.0
 11
116.9014319361025
 21
59.858566521346063
 31
0.0
  0
LINE
  5
56E6
  8
0
 10
115.25043205384409
 20
58.334567024051637
 30
0.0
 11
115.4254320330523
 21
58.509567192434758
 31
0.0
  0
LINE
  5
56E7
  8
0
 10
115.4254320330523
 20
58.509567192434758
 30
0.0
 11
116.7744319003845
 21
59.858566521346063
 31
0.0
  0
LINE
  5
56E8
  8
0
 10
118.2504320799211
 20
58.509567192434758
 30
0.0
 11
118.4254320154736
 21
58.334567024051637
 31
0.0
  0
LINE
  5
56E9
  8
0
 10
118.4254320154736
 20
58.334567024051637
 30
0.0
 11
118.600431951026
 21
58.509567192434758
 31
0.0
  0
LINE
  5
56EA
  8
0
 10
105.2504322773615
 20
43.058566968380909
 30
0.0
 11
108.4504322773615
 21
39.858566968380899
 31
0.0
  0
LINE
  5
56EC
  8
0
 10
105.758432420234
 20
43.268987517246117
 30
0.0
 11
105.2504322773615
 21
43.058566968380909
 31
0.0
  0
LINE
  5
56ED
  8
0
 10
108.4504322773615
 20
39.858566968380899
 30
0.0
 11
108.6608528262267
 21
40.366567111253367
 31
0.0
  0
LINE
  5
56EE
  8
0
 10
125.2504318303266
 20
43.058566968380909
 30
0.0
 11
125.2504318303266
 21
58.763566798209638
 31
0.0
  0
LINE
  5
56F0
  8
0
 10
121.77543214548621
 20
58.509567192434758
 30
0.0
 11
123.1244319400588
 21
59.858566521346063
 31
0.0
  0
LINE
  5
56F2
  8
0
 10
120.0764320141474
 20
59.858566521346063
 30
0.0
 11
121.42543180872001
 21
58.509567192434758
 31
0.0
  0
LINE
  5
56F3
  8
0
 10
119.9494317455986
 20
59.858566521346063
 30
0.0
 11
120.0764320141474
 21
59.858566521346063
 31
0.0
  0
LINE
  5
56F4
  8
0
 10
121.42543180872001
 20
58.509567192434758
 30
0.0
 11
121.6004319771031
 21
58.334567024051637
 31
0.0
  0
LINE
  5
56F5
  8
0
 10
121.6004319771031
 20
58.334567024051637
 30
0.0
 11
121.77543214548621
 21
58.509567192434758
 31
0.0
  0
LINE
  5
56F6
  8
0
 10
123.2514317429462
 20
59.858566521346063
 30
0.0
 11
124.6004320031801
 21
58.509567192434758
 31
0.0
  0
LINE
  5
56F7
  8
0
 10
123.1244319400588
 20
59.858566521346063
 30
0.0
 11
123.2514317429462
 21
59.858566521346063
 31
0.0
  0
LINE
  5
56F8
  8
0
 10
124.9504323399464
 20
58.509567192434758
 30
0.0
 11
125.2504318303266
 21
58.809566682815053
 31
0.0
  0
LINE
  5
56F9
  8
0
 10
125.2504318303266
 20
58.809566682815053
 30
0.0
 11
125.2504318303266
 21
58.763566798209638
 31
0.0
  0
LINE
  5
56FC
  8
0
 10
124.7754321715632
 20
58.334567024051637
 30
0.0
 11
124.9504323399464
 21
58.509567192434758
 31
0.0
  0
LINE
  5
56FD
  8
0
 10
124.6004320031801
 20
58.509567192434758
 30
0.0
 11
124.7754321715632
 21
58.334567024051637
 31
0.0
  0
LINE
  5
56FE
  8
0
 10
122.0504318303266
 20
39.858566968380899
 30
0.0
 11
125.2504318303266
 21
43.058566968380909
 31
0.0
  0
LINE
  5
5700
  8
0
 10
125.2504318303266
 20
43.058566968380909
 30
0.0
 11
124.7424316874542
 21
43.268987517246153
 31
0.0
  0
LINE
  5
5701
  8
0
 10
122.0504318303266
 20
39.858566968380899
 30
0.0
 11
121.8400112814614
 21
40.366567111253381
 31
0.0
  0
LINE
  5
5702
  8
0
 62
     0
 10
105.2504322773615
 20
58.334567024051758
 30
0.0
 11
125.2504318303266
 21
58.334567024051758
 31
0.0
  0
LINE
  5
5703
  8
0
 62
     0
 10
105.7584324202338
 20
43.268987517246309
 30
0.0
 11
105.7584324202338
 21
58.367566576838108
 31
0.0
  0
LINE
  5
5704
  8
0
 62
     0
 10
124.7424316874543
 20
58.367566576838108
 30
0.0
 11
124.7424316874543
 21
43.268987517246273
 31
0.0
  0
LINE
  5
5705
  8
0
 62
     0
 10
121.8400112814614
 20
40.36656711125336
 30
0.0
 11
108.6608528262267
 21
40.366567111253339
 31
0.0
  0
LINE
  5
5706
  8
0
 10
121.8400112814614
 20
40.36656711125336
 30
0.0
 11
124.7424316874543
 21
43.268987517246273
 31
0.0
  0
LINE
  5
5707
  8
0
 10
105.7584324202338
 20
43.268987517246309
 30
0.0
 11
108.6608528262267
 21
40.366567111253339
 31
0.0
  0
LINE
  5
67E4
  8
3
 10
121.950431848208
 20
95.721623296741186
 30
0.0
 11
123.1244319400588
 21
94.547623204890428
 31
0.0
  0
LINE
  5
67E8
  8
3
 10
125.2504318303266
 20
92.896623206216645
 30
0.0
 11
105.2504322773615
 21
92.896623206216645
 31
0.0
  0
LINE
  5
67EB
  8
3
 10
123.1244319400588
 20
88.197623281631408
 30
0.0
 11
120.0764320141473
 21
91.245623207542835
 31
0.0
  0
LINE
  5
67EC
  8
3
 10
121.950431848208
 20
83.721623192433057
 30
0.0
 11
123.1244319400588
 21
84.895623284283815
 31
0.0
  0
LINE
  5
67ED
  8
3
 10
123.1244319400588
 20
85.022623087171254
 30
0.0
 11
120.076432246978
 21
88.070623245913325
 31
0.0
  0
LINE
  5
67F0
  8
3
 10
125.2504318303266
 20
86.546623282957626
 30
0.0
 11
105.2504322773615
 21
86.546623282957626
 31
0.0
  0
LINE
  5
67F1
  8
3
 10
125.2504318303266
 20
89.721623244587136
 30
0.0
 11
105.2504322773615
 21
89.721623244587136
 31
0.0
  0
LINE
  5
67F2
  8
3
 10
120.0764317813167
 20
94.420623402002988
 30
0.0
 11
123.1244319400588
 21
91.372623243260918
 31
0.0
  0
LINE
  5
67F4
  8
3
 10
125.2504318303266
 20
89.246623730960792
 30
0.0
 11
123.2514317429462
 21
91.245623207542835
 31
0.0
  0
LINE
  5
67F7
  8
0
 10
124.7424321854668
 20
83.721623192433057
 30
0.0
 11
125.2504318303266
 21
84.229623335305405
 31
0.0
  0
LINE
  5
67F8
  8
3
 10
124.7754321715632
 20
95.721623296741186
 30
0.0
 11
124.7754321715632
 21
83.754623210880695
 31
0.0
  0
LINE
  5
67F9
  8
3
 10
123.2514317429462
 20
84.895623284283815
 30
0.0
 11
124.425431834797
 21
83.721623192433057
 31
0.0
  0
LINE
  5
67FC
  8
3
 10
123.2514317429462
 20
88.070623245913325
 30
0.0
 11
123.2514317429462
 21
88.197623281631408
 31
0.0
  0
LINE
  5
67FD
  8
3
 10
123.1244319400588
 20
88.070623245913325
 30
0.0
 11
123.2514317429462
 21
88.070623245913325
 31
0.0
  0
LINE
  5
67FE
  8
3
 10
123.2514317429462
 20
88.197623281631408
 30
0.0
 11
123.1244319400588
 21
88.197623281631408
 31
0.0
  0
LINE
  5
67FF
  8
3
 10
123.1244319400588
 20
88.197623281631408
 30
0.0
 11
123.1244319400588
 21
88.070623245913325
 31
0.0
  0
LINE
  5
6800
  8
3
 10
123.1244319400588
 20
85.022623087171254
 30
0.0
 11
123.1244319400588
 21
84.895623284283815
 31
0.0
  0
LINE
  5
6801
  8
3
 10
123.1244319400588
 20
84.895623284283815
 30
0.0
 11
123.2514317429462
 21
84.895623284283815
 31
0.0
  0
LINE
  5
6802
  8
3
 10
123.2514317429462
 20
84.895623284283815
 30
0.0
 11
123.2514317429462
 21
85.022623087171254
 31
0.0
  0
LINE
  5
6803
  8
3
 10
123.2514317429462
 20
85.022623087171254
 30
0.0
 11
123.1244319400588
 21
85.022623087171254
 31
0.0
  0
LINE
  5
6810
  8
0
 10
125.2504318303266
 20
84.229623335305405
 30
0.0
 11
125.2504318303266
 21
95.467623225305019
 31
0.0
  0
LINE
  5
6811
  8
3
 10
123.2514317429462
 20
88.070623245913325
 30
0.0
 11
125.2504318303266
 21
86.071623769331282
 31
0.0
  0
LINE
  5
6812
  8
3
 10
125.2504318303266
 20
87.02162286915248
 30
0.0
 11
123.2514317429462
 21
85.022623087171254
 31
0.0
  0
LINE
  5
6813
  8
3
 10
125.2504318303266
 20
90.196622758213465
 30
0.0
 11
123.2514317429462
 21
88.197623281631408
 31
0.0
  0
LINE
  5
6814
  8
3
 10
123.2514317429462
 20
94.420623402002988
 30
0.0
 11
123.1244319400588
 21
94.420623402002988
 31
0.0
  0
LINE
  5
6815
  8
3
 10
123.2514317429462
 20
94.420623402002988
 30
0.0
 11
123.2514317429462
 21
94.547623204890428
 31
0.0
  0
LINE
  5
6816
  8
3
 10
123.1244319400588
 20
94.547623204890428
 30
0.0
 11
123.2514317429462
 21
94.547623204890428
 31
0.0
  0
LINE
  5
6817
  8
3
 10
123.1244319400588
 20
94.547623204890428
 30
0.0
 11
123.1244319400588
 21
94.420623402002988
 31
0.0
  0
LINE
  5
6820
  8
0
 10
125.2504318303266
 20
95.467623225305019
 30
0.0
 11
124.9964322245517
 21
95.721623296741186
 31
0.0
  0
LINE
  5
6822
  8
3
 10
123.2514317429462
 20
94.547623204890428
 30
0.0
 11
124.425431834797
 21
95.721623296741186
 31
0.0
  0
LINE
  5
6823
  8
3
 10
125.2504318303266
 20
92.421623620021762
 30
0.0
 11
123.2514317429462
 21
94.420623402002988
 31
0.0
  0
LINE
  5
6824
  8
3
 10
123.2514317429462
 20
91.245623207542835
 30
0.0
 11
123.1244319400588
 21
91.245623207542835
 31
0.0
  0
LINE
  5
6825
  8
3
 10
123.2514317429462
 20
91.245623207542835
 30
0.0
 11
123.2514317429462
 21
91.372623243260918
 31
0.0
  0
LINE
  5
6826
  8
3
 10
123.1244319400588
 20
91.372623243260918
 30
0.0
 11
123.2514317429462
 21
91.372623243260918
 31
0.0
  0
LINE
  5
6827
  8
3
 10
123.1244319400588
 20
91.372623243260918
 30
0.0
 11
123.1244319400588
 21
91.245623207542835
 31
0.0
  0
LINE
  5
6828
  8
3
 10
123.2514317429462
 20
91.372623243260918
 30
0.0
 11
125.2504318303266
 21
93.371622719842946
 31
0.0
  0
LINE
  5
6829
  8
3
 10
113.7264322073036
 20
94.420623402002988
 30
0.0
 11
113.5994321715856
 21
94.420623402002988
 31
0.0
  0
LINE
  5
682A
  8
3
 10
113.5994321715856
 20
94.547623204890428
 30
0.0
 11
113.7264322073036
 21
94.547623204890428
 31
0.0
  0
LINE
  5
682E
  8
3
 10
113.7264322073036
 20
91.245623207542835
 30
0.0
 11
113.5994321715856
 21
91.245623207542835
 31
0.0
  0
LINE
  5
682F
  8
3
 10
113.5994321715856
 20
91.372623243260918
 30
0.0
 11
113.7264322073036
 21
91.372623243260918
 31
0.0
  0
LINE
  5
6830
  8
3
 10
113.5994321715856
 20
88.070623245913325
 30
0.0
 11
113.7264322073036
 21
88.070623245913325
 31
0.0
  0
LINE
  5
6831
  8
3
 10
113.7264322073036
 20
88.197623281631408
 30
0.0
 11
113.5994321715856
 21
88.197623281631408
 31
0.0
  0
LINE
  5
6832
  8
3
 10
113.5994321715856
 20
84.895623284283815
 30
0.0
 11
113.7264322073036
 21
84.895623284283815
 31
0.0
  0
LINE
  5
6833
  8
3
 10
113.7264322073036
 20
85.022623087171254
 30
0.0
 11
113.5994321715856
 21
85.022623087171254
 31
0.0
  0
LINE
  5
683E
  8
1
 10
115.25043205384399
 20
81.221623192433057
 30
0.0
 11
115.25043205384409
 21
98.221623296741214
 31
0.0
  0
LINE
  5
6847
  8
3
 10
119.9494320948446
 20
91.245623207542835
 30
0.0
 11
116.9014319361025
 21
88.197623281631408
 31
0.0
  0
LINE
  5
684B
  8
3
 10
119.94943186201399
 20
88.070623245913325
 30
0.0
 11
116.9014319361025
 21
85.022623087171254
 31
0.0
  0
LINE
  5
684D
  8
3
 10
118.4254320154735
 20
95.721623296741186
 30
0.0
 11
118.4254320154735
 21
83.721623192433057
 31
0.0
  0
LINE
  5
684E
  8
3
 10
120.0764320141473
 20
84.895623284283815
 30
0.0
 11
121.2504321059981
 21
83.721623192433057
 31
0.0
  0
LINE
  5
6851
  8
3
 10
121.6004319771031
 20
95.721623296741186
 30
0.0
 11
121.6004319771031
 21
83.721623192433057
 31
0.0
  0
LINE
  5
6852
  8
3
 10
118.7754321194091
 20
83.721623192433057
 30
0.0
 11
119.9494317455986
 21
84.895623284283815
 31
0.0
  0
LINE
  5
6858
  8
3
 10
119.9494317455986
 20
88.197623281631408
 30
0.0
 11
119.9494317455986
 21
88.070623245913325
 31
0.0
  0
LINE
  5
6859
  8
3
 10
120.0764320141473
 20
88.070623245913325
 30
0.0
 11
120.0764320141473
 21
88.197623281631408
 31
0.0
  0
LINE
  5
685A
  8
3
 10
120.0764320141473
 20
88.197623281631408
 30
0.0
 11
119.9494317455986
 21
88.197623281631408
 31
0.0
  0
LINE
  5
685B
  8
3
 10
119.9494317455986
 20
88.070623245913325
 30
0.0
 11
120.0764320141473
 21
88.070623245913325
 31
0.0
  0
LINE
  5
685E
  8
3
 10
123.1244319400588
 20
91.245623207542835
 30
0.0
 11
120.0764320141473
 21
88.197623281631408
 31
0.0
  0
LINE
  5
685F
  8
3
 10
119.9494317455986
 20
85.022623087171254
 30
0.0
 11
119.9494317455986
 21
84.895623284283815
 31
0.0
  0
LINE
  5
6860
  8
3
 10
119.9494317455986
 20
84.895623284283815
 30
0.0
 11
120.0764320141473
 21
84.895623284283815
 31
0.0
  0
LINE
  5
6861
  8
3
 10
120.0764320141473
 20
84.895623284283815
 30
0.0
 11
120.0764320141473
 21
85.022623087171254
 31
0.0
  0
LINE
  5
6862
  8
3
 10
120.0764320141473
 20
85.022623087171254
 30
0.0
 11
119.9494317455986
 21
85.022623087171254
 31
0.0
  0
LINE
  5
6864
  8
3
 10
123.1244317072282
 20
88.070623245913325
 30
0.0
 11
120.0764320141473
 21
85.022623087171254
 31
0.0
  0
LINE
  5
6867
  8
3
 10
119.9494317455986
 20
85.022623087171254
 30
0.0
 11
116.90143251817901
 21
88.070623245913325
 31
0.0
  0
LINE
  5
6869
  8
3
 10
119.9494317455986
 20
88.197623281631408
 30
0.0
 11
116.90143228534851
 21
91.245623207542835
 31
0.0
  0
LINE
  5
686A
  8
3
 10
116.9014319361025
 20
84.895623284283815
 30
0.0
 11
118.0754319115379
 21
83.721623192433057
 31
0.0
  0
LINE
  5
686B
  8
3
 10
115.6004320122605
 20
83.721623192433057
 30
0.0
 11
116.7744319003844
 21
84.895623284283815
 31
0.0
  0
LINE
  5
686D
  8
3
 10
114.9004320954276
 20
83.721623192433057
 30
0.0
 11
113.7264322073036
 21
84.895623284283815
 31
0.0
  0
LINE
  5
6871
  8
3
 10
113.7264322073036
 20
88.197623281631408
 30
0.0
 11
113.7264322073036
 21
88.070623245913325
 31
0.0
  0
LINE
  5
6872
  8
3
 10
113.7264322073036
 20
85.022623087171254
 30
0.0
 11
113.7264322073036
 21
84.895623284283815
 31
0.0
  0
LINE
  5
6874
  8
3
 10
116.7744319003844
 20
88.070623245913325
 30
0.0
 11
116.9014319361025
 21
88.070623245913325
 31
0.0
  0
LINE
  5
6875
  8
3
 10
116.9014319361025
 20
88.197623281631408
 30
0.0
 11
116.7744319003844
 21
88.197623281631408
 31
0.0
  0
LINE
  5
6876
  8
3
 10
116.9014319361025
 20
88.070623245913325
 30
0.0
 11
116.9014319361025
 21
88.197623281631408
 31
0.0
  0
LINE
  5
6877
  8
3
 10
116.7744319003844
 20
88.197623281631408
 30
0.0
 11
116.7744319003844
 21
88.070623245913325
 31
0.0
  0
LINE
  5
6879
  8
3
 10
116.7744319003844
 20
88.197623281631408
 30
0.0
 11
113.7264322073036
 21
91.245623207542835
 31
0.0
  0
LINE
  5
687A
  8
3
 10
116.7744319003844
 20
84.895623284283815
 30
0.0
 11
116.9014319361025
 21
84.895623284283815
 31
0.0
  0
LINE
  5
687B
  8
3
 10
116.9014319361025
 20
85.022623087171254
 30
0.0
 11
116.7744319003844
 21
85.022623087171254
 31
0.0
  0
LINE
  5
687C
  8
3
 10
116.9014319361025
 20
84.895623284283815
 30
0.0
 11
116.9014319361025
 21
85.022623087171254
 31
0.0
  0
LINE
  5
687D
  8
3
 10
116.7744319003844
 20
85.022623087171254
 30
0.0
 11
116.7744319003844
 21
84.895623284283815
 31
0.0
  0
LINE
  5
687E
  8
3
 10
116.7744319003844
 20
85.022623087171254
 30
0.0
 11
113.7264324401342
 21
88.070623245913325
 31
0.0
  0
LINE
  5
6880
  8
3
 10
113.7264322073036
 20
85.022623087171254
 30
0.0
 11
116.7744316675539
 21
88.070623245913325
 31
0.0
  0
LINE
  5
6881
  8
3
 10
113.7264322073036
 20
88.197623281631408
 30
0.0
 11
116.7744319003844
 21
91.245623207542835
 31
0.0
  0
LINE
  5
6885
  8
3
 10
116.9014319361025
 20
91.372623243260918
 30
0.0
 11
119.9494323276752
 21
94.420623402002988
 31
0.0
  0
LINE
  5
6889
  8
3
 10
120.0764320141473
 20
94.547623204890428
 30
0.0
 11
121.2504321059981
 21
95.721623296741186
 31
0.0
  0
LINE
  5
688A
  8
3
 10
120.0764320141473
 20
94.420623402002988
 30
0.0
 11
119.9494317455986
 21
94.420623402002988
 31
0.0
  0
LINE
  5
688B
  8
3
 10
120.0764320141473
 20
94.420623402002988
 30
0.0
 11
120.0764320141473
 21
94.547623204890428
 31
0.0
  0
LINE
  5
688C
  8
3
 10
119.9494317455986
 20
94.547623204890428
 30
0.0
 11
120.0764320141473
 21
94.547623204890428
 31
0.0
  0
LINE
  5
688D
  8
3
 10
119.9494317455986
 20
94.547623204890428
 30
0.0
 11
119.9494317455986
 21
94.420623402002988
 31
0.0
  0
LINE
  5
6893
  8
3
 10
120.0764320141473
 20
91.245623207542835
 30
0.0
 11
119.9494317455986
 21
91.245623207542835
 31
0.0
  0
LINE
  5
6894
  8
3
 10
120.0764320141473
 20
91.245623207542835
 30
0.0
 11
120.0764320141473
 21
91.372623243260918
 31
0.0
  0
LINE
  5
6895
  8
3
 10
119.9494317455986
 20
91.372623243260918
 30
0.0
 11
120.0764320141473
 21
91.372623243260918
 31
0.0
  0
LINE
  5
6896
  8
3
 10
119.9494317455986
 20
91.372623243260918
 30
0.0
 11
119.9494317455986
 21
91.245623207542835
 31
0.0
  0
LINE
  5
6897
  8
3
 10
120.0764320141473
 20
91.372623243260918
 30
0.0
 11
123.1244321728894
 21
94.420623402002988
 31
0.0
  0
LINE
  5
6898
  8
3
 10
118.7754321194091
 20
95.721623296741186
 30
0.0
 11
119.9494317455986
 21
94.547623204890428
 31
0.0
  0
LINE
  5
6899
  8
3
 10
116.9014320525179
 20
94.420623402002988
 30
0.0
 11
119.9494317455986
 21
91.372623243260918
 31
0.0
  0
LINE
  5
689D
  8
3
 10
113.7264322073036
 20
94.547623204890428
 30
0.0
 11
113.7264322073036
 21
94.420623402002988
 31
0.0
  0
LINE
  5
68A1
  8
3
 10
116.9014319361025
 20
94.547623204890428
 30
0.0
 11
118.0754319115379
 21
95.721623296741186
 31
0.0
  0
LINE
  5
68A2
  8
3
 10
116.9014319361025
 20
94.420623402002988
 30
0.0
 11
116.7744319003844
 21
94.420623402002988
 31
0.0
  0
LINE
  5
68A3
  8
3
 10
116.7744319003844
 20
94.547623204890428
 30
0.0
 11
116.9014319361025
 21
94.547623204890428
 31
0.0
  0
LINE
  5
68A4
  8
3
 10
116.9014319361025
 20
94.420623402002988
 30
0.0
 11
116.9014319361025
 21
94.547623204890428
 31
0.0
  0
LINE
  5
68A5
  8
3
 10
116.7744319003844
 20
94.547623204890428
 30
0.0
 11
116.7744319003844
 21
94.420623402002988
 31
0.0
  0
LINE
  5
68A6
  8
3
 10
115.6004320122605
 20
95.721623296741186
 30
0.0
 11
116.7744319003844
 21
94.547623204890428
 31
0.0
  0
LINE
  5
68A9
  8
3
 10
114.9004320954276
 20
95.721623296741186
 30
0.0
 11
113.7264322073036
 21
94.547623204890428
 31
0.0
  0
LINE
  5
68AB
  8
3
 10
113.7264322073036
 20
91.372623243260918
 30
0.0
 11
113.7264322073036
 21
91.245623207542835
 31
0.0
  0
LINE
  5
68AC
  8
3
 10
116.9014319361025
 20
91.245623207542835
 30
0.0
 11
116.7744319003844
 21
91.245623207542835
 31
0.0
  0
LINE
  5
68AD
  8
3
 10
116.7744319003844
 20
91.372623243260918
 30
0.0
 11
116.9014319361025
 21
91.372623243260918
 31
0.0
  0
LINE
  5
68AE
  8
3
 10
116.9014319361025
 20
91.245623207542835
 30
0.0
 11
116.9014319361025
 21
91.372623243260918
 31
0.0
  0
LINE
  5
68AF
  8
3
 10
116.7744319003844
 20
91.372623243260918
 30
0.0
 11
116.7744319003844
 21
91.245623207542835
 31
0.0
  0
LINE
  5
68B0
  8
3
 10
116.7744321332151
 20
94.420623402002988
 30
0.0
 11
113.7264322073036
 21
91.372623243260918
 31
0.0
  0
LINE
  5
68B1
  8
3
 10
113.726431974473
 20
94.420623402002988
 30
0.0
 11
116.7744319003844
 21
91.372623243260918
 31
0.0
  0
LINE
  5
68B2
  8
3
 10
105.2504322773615
 20
89.246623730960778
 30
0.0
 11
107.24943236474191
 21
91.245623207542835
 31
0.0
  0
LINE
  5
68C0
  8
3
 10
107.3764324004599
 20
88.070623245913325
 30
0.0
 11
110.4244320935407
 21
85.022623087171254
 31
0.0
  0
LINE
  5
68C2
  8
3
 10
107.3764321676293
 20
91.245623207542835
 30
0.0
 11
110.4244320935407
 21
88.197623281631408
 31
0.0
  0
LINE
  5
68C3
  8
3
 10
111.7254319882789
 20
83.721623192433057
 30
0.0
 11
110.5514323620895
 21
84.895623284283815
 31
0.0
  0
LINE
  5
68C5
  8
3
 10
113.5994321715856
 20
84.895623284283815
 30
0.0
 11
112.4254321961501
 21
83.721623192433057
 31
0.0
  0
LINE
  5
68C7
  8
3
 10
110.4244320935407
 20
84.895623284283815
 30
0.0
 11
109.25043200169
 21
83.721623192433057
 31
0.0
  0
LINE
  5
68CA
  8
0
 10
105.75843192222131
 20
83.721623192433057
 30
0.0
 11
124.7424321854668
 21
83.721623192433057
 31
0.0
  0
LINE
  5
68CB
  8
3
 10
110.4244320935407
 20
88.070623245913325
 30
0.0
 11
110.4244320935407
 21
88.197623281631408
 31
0.0
  0
LINE
  5
68CC
  8
3
 10
110.4244320935407
 20
88.070623245913325
 30
0.0
 11
110.5514323620895
 21
88.070623245913325
 31
0.0
  0
LINE
  5
68CD
  8
3
 10
110.5514323620895
 20
88.197623281631408
 30
0.0
 11
110.4244320935407
 21
88.197623281631408
 31
0.0
  0
LINE
  5
68CE
  8
3
 10
110.5514323620895
 20
88.197623281631408
 30
0.0
 11
110.5514323620895
 21
88.070623245913325
 31
0.0
  0
LINE
  5
68D0
  8
3
 10
113.5994321715856
 20
88.070623245913325
 30
0.0
 11
113.5994321715856
 21
88.197623281631408
 31
0.0
  0
LINE
  5
68D2
  8
3
 10
110.55143201284351
 20
91.245623207542835
 30
0.0
 11
113.5994321715856
 21
88.197623281631408
 31
0.0
  0
LINE
  5
68D4
  8
3
 10
110.5514323620895
 20
88.197623281631408
 30
0.0
 11
113.5994318223396
 21
91.245623207542835
 31
0.0
  0
LINE
  5
68D5
  8
3
 10
110.4244320935407
 20
84.895623284283815
 30
0.0
 11
110.4244320935407
 21
85.022623087171254
 31
0.0
  0
LINE
  5
68D6
  8
3
 10
110.4244320935407
 20
84.895623284283815
 30
0.0
 11
110.5514323620895
 21
84.895623284283815
 31
0.0
  0
LINE
  5
68D7
  8
3
 10
110.5514323620895
 20
85.022623087171254
 30
0.0
 11
110.5514323620895
 21
84.895623284283815
 31
0.0
  0
LINE
  5
68D8
  8
3
 10
110.5514323620895
 20
85.022623087171254
 30
0.0
 11
110.4244320935407
 21
85.022623087171254
 31
0.0
  0
LINE
  5
68D9
  8
3
 10
113.5994321715856
 20
84.895623284283815
 30
0.0
 11
113.5994321715856
 21
85.022623087171254
 31
0.0
  0
LINE
  5
68DB
  8
3
 10
110.5514323620895
 20
85.022623087171254
 30
0.0
 11
113.599431589509
 21
88.070623245913325
 31
0.0
  0
LINE
  5
68DC
  8
3
 10
110.55143224567411
 20
88.070623245913325
 30
0.0
 11
113.5994321715856
 21
85.022623087171254
 31
0.0
  0
LINE
  5
68DD
  8
3
 10
107.24943236474191
 20
84.895623284283815
 30
0.0
 11
106.07543227289111
 21
83.721623192433057
 31
0.0
  0
LINE
  5
68DE
  8
0
 10
105.2504322773615
 20
84.229623335305405
 30
0.0
 11
105.75843192222131
 21
83.721623192433057
 31
0.0
  0
LINE
  5
68E0
  8
3
 10
108.5504322594801
 20
83.721623192433057
 30
0.0
 11
107.3764321676293
 21
84.895623284283815
 31
0.0
  0
LINE
  5
68EC
  8
3
 10
107.24943236474191
 20
88.070623245913325
 30
0.0
 11
105.2504322773615
 21
86.071623769331268
 31
0.0
  0
LINE
  5
68F2
  8
3
 10
107.24943236474191
 20
88.070623245913325
 30
0.0
 11
107.24943236474191
 21
88.197623281631408
 31
0.0
  0
LINE
  5
68F5
  8
3
 10
105.2504322773615
 20
90.196622758213465
 30
0.0
 11
107.24943236474191
 21
88.197623281631408
 31
0.0
  0
LINE
  5
68F7
  8
3
 10
107.3764321676293
 20
88.197623281631408
 30
0.0
 11
107.3764321676293
 21
88.070623245913325
 31
0.0
  0
LINE
  5
68F9
  8
3
 10
107.3764321676293
 20
88.197623281631408
 30
0.0
 11
110.4244320935408
 21
91.245623207542835
 31
0.0
  0
LINE
  5
68FC
  8
3
 10
107.24943236474191
 20
88.070623245913325
 30
0.0
 11
107.3764321676293
 21
88.070623245913325
 31
0.0
  0
LINE
  5
68FD
  8
3
 10
107.3764321676293
 20
88.197623281631408
 30
0.0
 11
107.24943236474191
 21
88.197623281631408
 31
0.0
  0
LINE
  5
68FE
  8
3
 10
107.24943236474191
 20
84.895623284283815
 30
0.0
 11
107.24943236474191
 21
85.022623087171254
 31
0.0
  0
LINE
  5
68FF
  8
3
 10
107.3764321676293
 20
85.022623087171254
 30
0.0
 11
107.3764321676293
 21
84.895623284283815
 31
0.0
  0
LINE
  5
6900
  8
0
 10
125.2504318303266
 20
84.229623335305405
 30
0.0
 11
105.2504322773615
 21
84.229623335305405
 31
0.0
  0
LINE
  5
6901
  8
3
 10
107.24943236474191
 20
84.895623284283815
 30
0.0
 11
107.3764321676293
 21
84.895623284283815
 31
0.0
  0
LINE
  5
6902
  8
3
 10
107.3764321676293
 20
85.022623087171254
 30
0.0
 11
107.24943236474191
 21
85.022623087171254
 31
0.0
  0
LINE
  5
6903
  8
3
 10
105.2504322773615
 20
87.02162286915248
 30
0.0
 11
107.24943236474191
 21
85.022623087171254
 31
0.0
  0
LINE
  5
6904
  8
3
 10
107.3764321676293
 20
85.022623087171254
 30
0.0
 11
110.4244318607101
 21
88.070623245913325
 31
0.0
  0
LINE
  5
6905
  8
0
 10
105.2504322773615
 20
84.229623335305405
 30
0.0
 11
105.2504322773615
 21
95.467623225305019
 31
0.0
  0
LINE
  5
6909
  8
3
 10
110.4244320935407
 20
91.372623243260918
 30
0.0
 11
107.3764319347987
 21
94.420623402002988
 31
0.0
  0
LINE
  5
690A
  8
3
 10
111.7254319882789
 20
95.721623296741186
 30
0.0
 11
110.5514323620895
 21
94.547623204890428
 31
0.0
  0
LINE
  5
690B
  8
3
 10
110.5514323620895
 20
94.420623402002988
 30
0.0
 11
110.4244320935407
 21
94.420623402002988
 31
0.0
  0
LINE
  5
690C
  8
3
 10
110.5514323620895
 20
94.547623204890428
 30
0.0
 11
110.5514323620895
 21
94.420623402002988
 31
0.0
  0
LINE
  5
690D
  8
3
 10
110.4244320935407
 20
94.547623204890428
 30
0.0
 11
110.5514323620895
 21
94.547623204890428
 31
0.0
  0
LINE
  5
690E
  8
3
 10
110.4244320935407
 20
94.420623402002988
 30
0.0
 11
110.4244320935407
 21
94.547623204890428
 31
0.0
  0
LINE
  5
6910
  8
3
 10
113.5994321715856
 20
94.547623204890428
 30
0.0
 11
112.4254321961501
 21
95.721623296741186
 31
0.0
  0
LINE
  5
6912
  8
3
 10
113.5994321715856
 20
94.420623402002988
 30
0.0
 11
113.5994321715856
 21
94.547623204890428
 31
0.0
  0
LINE
  5
6917
  8
3
 10
110.4244320935407
 20
94.547623204890428
 30
0.0
 11
109.25043200169
 21
95.721623296741186
 31
0.0
  0
LINE
  5
6918
  8
3
 10
110.5514323620895
 20
91.245623207542835
 30
0.0
 11
110.4244320935407
 21
91.245623207542835
 31
0.0
  0
LINE
  5
6919
  8
3
 10
110.5514323620895
 20
91.372623243260918
 30
0.0
 11
110.5514323620895
 21
91.245623207542835
 31
0.0
  0
LINE
  5
691A
  8
3
 10
110.4244320935407
 20
91.372623243260918
 30
0.0
 11
110.5514323620895
 21
91.372623243260918
 31
0.0
  0
LINE
  5
691B
  8
3
 10
110.4244320935407
 20
91.245623207542835
 30
0.0
 11
110.4244320935407
 21
91.372623243260918
 31
0.0
  0
LINE
  5
691C
  8
3
 10
113.5994321715856
 20
91.245623207542835
 30
0.0
 11
113.5994321715856
 21
91.372623243260918
 31
0.0
  0
LINE
  5
691D
  8
3
 10
113.5994320551702
 20
94.420623402002988
 30
0.0
 11
110.5514323620895
 21
91.372623243260918
 31
0.0
  0
LINE
  5
691E
  8
3
 10
113.5994321715856
 20
91.372623243260918
 30
0.0
 11
110.55143178001281
 21
94.420623402002988
 31
0.0
  0
LINE
  5
6921
  8
3
 10
107.24943236474191
 20
94.547623204890428
 30
0.0
 11
106.07543227289111
 21
95.721623296741186
 31
0.0
  0
LINE
  5
6922
  8
3
 10
105.2504322773615
 20
92.421623620021762
 30
0.0
 11
107.24943236474191
 21
94.420623402002988
 31
0.0
  0
LINE
  5
6923
  8
3
 10
107.24943236474191
 20
94.420623402002988
 30
0.0
 11
107.24943236474191
 21
94.547623204890428
 31
0.0
  0
LINE
  5
692B
  8
0
 10
105.50443188313631
 20
95.721623296741186
 30
0.0
 11
105.2504322773615
 21
95.467623225305019
 31
0.0
  0
LINE
  5
692D
  8
3
 10
108.5504322594801
 20
95.721623296741186
 30
0.0
 11
107.3764321676293
 21
94.547623204890428
 31
0.0
  0
LINE
  5
692F
  8
3
 10
107.3764321676293
 20
94.547623204890428
 30
0.0
 11
107.3764321676293
 21
94.420623402002988
 31
0.0
  0
LINE
  5
6934
  8
3
 10
107.3764321676293
 20
94.420623402002988
 30
0.0
 11
107.24943236474191
 21
94.420623402002988
 31
0.0
  0
LINE
  5
6935
  8
3
 10
107.24943236474191
 20
94.547623204890428
 30
0.0
 11
107.3764321676293
 21
94.547623204890428
 31
0.0
  0
LINE
  5
6936
  8
0
 10
105.2504322773615
 20
95.467623225305019
 30
0.0
 11
125.2504318303266
 21
95.467623225305019
 31
0.0
  0
LINE
  5
6937
  8
0
 10
124.9964322245517
 20
95.721623296741186
 30
0.0
 11
105.50443188313631
 21
95.721623296741186
 31
0.0
  0
LINE
  5
6938
  8
3
 10
107.24943236474191
 20
91.245623207542835
 30
0.0
 11
107.24943236474191
 21
91.372623243260918
 31
0.0
  0
LINE
  5
6939
  8
3
 10
107.3764321676293
 20
91.372623243260918
 30
0.0
 11
107.3764321676293
 21
91.245623207542835
 31
0.0
  0
LINE
  5
693A
  8
3
 10
107.3764321676293
 20
91.245623207542835
 30
0.0
 11
107.24943236474191
 21
91.245623207542835
 31
0.0
  0
LINE
  5
693B
  8
3
 10
107.24943236474191
 20
91.372623243260918
 30
0.0
 11
107.3764321676293
 21
91.372623243260918
 31
0.0
  0
LINE
  5
693C
  8
3
 10
107.24943236474191
 20
91.372623243260918
 30
0.0
 11
105.2504322773615
 21
93.371622719842975
 31
0.0
  0
LINE
  5
693D
  8
3
 10
110.4244323263714
 20
94.420623402002988
 30
0.0
 11
107.3764321676293
 21
91.372623243260918
 31
0.0
  0
LINE
  5
6B02
  8
2
 10
71.776085648615222
 20
84.102623244587221
 30
0.0
 11
62.776085648615222
 21
84.102623244587221
 31
0.0
  0
LINE
  5
6B03
  8
2
 10
59.776085648615222
 20
90.641623244587194
 30
0.0
 11
74.776085648615222
 21
90.641623244587194
 31
0.0
  0
LINE
  5
6B04
  8
2
 10
59.776085648615222
 20
95.340623244587277
 30
0.0
 11
74.776085648615222
 21
95.340623244587277
 31
0.0
  0
LINE
  5
6B05
  8
0
 10
75.785085480589728
 20
83.721623192433057
 30
0.0
 11
57.784086015004974
 21
83.721623192433057
 31
0.0
  0
LINE
  5
6B06
  8
0
 10
57.530085477907519
 20
95.721623296741186
 30
0.0
 11
75.973085980791907
 21
95.721623296741186
 31
0.0
  0
LINE
  5
6B07
  8
0
 10
76.227085586566787
 20
95.467623225305019
 30
0.0
 11
57.27608587213264
 21
95.467623225305019
 31
0.0
  0
LINE
  5
6B08
  8
0
 10
57.27608587213264
 20
84.229623335305405
 30
0.0
 11
76.227085586566787
 21
84.229623335305405
 31
0.0
  0
LINE
  5
6B09
  8
0
 10
76.227085586566787
 20
90.196623281700326
 30
0.0
 11
77.276085425097804
 21
91.245623207542835
 31
0.0
  0
LINE
  5
6B0A
  8
2
 10
74.776085648615222
 20
90.641623244587194
 30
0.0
 11
74.776085648615222
 21
95.340623244587277
 31
0.0
  0
LINE
  5
6B0C
  8
0
 10
76.227085586566787
 20
90.196623281700326
 30
0.0
 11
76.227085586566787
 21
92.421623314622579
 31
0.0
  0
LINE
  5
6B0D
  8
0
 10
77.276085425097804
 20
84.895623284283815
 30
0.0
 11
76.102085333247047
 21
83.721623192433057
 31
0.0
  0
LINE
  5
6B0E
  8
0
 10
76.227085586566787
 20
84.229623335305405
 30
0.0
 11
75.752085927803378
 21
83.754623210880695
 31
0.0
  0
LINE
  5
6B10
  8
0
 10
75.752085927803378
 20
83.754623210880695
 30
0.0
 11
75.752085927803378
 21
83.721623192433057
 31
0.0
  0
LINE
  5
6B11
  8
0
 10
76.102085333247047
 20
83.721623192433057
 30
0.0
 11
75.785085480589728
 21
83.721623192433057
 31
0.0
  0
LINE
  5
6B12
  8
0
 10
75.752085927803378
 20
83.754623210880695
 30
0.0
 11
75.785085480589728
 21
83.721623192433057
 31
0.0
  0
LINE
  5
6B13
  8
0
 10
75.752085927803378
 20
89.721623244587136
 30
0.0
 11
76.227085586566787
 21
89.246623207473917
 31
0.0
  0
LINE
  5
6B14
  8
0
 10
75.752085927803378
 20
89.721623244587136
 30
0.0
 11
76.227085586566787
 21
90.196623281700326
 31
0.0
  0
LINE
  5
6B15
  8
0
 10
77.276085425097804
 20
88.070623245913325
 30
0.0
 11
76.227085586566787
 21
87.021623174551664
 31
0.0
  0
LINE
  5
6B16
  8
0
 10
76.227085586566787
 20
87.021623174551664
 30
0.0
 11
75.752085927803378
 21
86.546623282957626
 31
0.0
  0
LINE
  5
6B17
  8
0
 10
75.752085927803378
 20
86.546623282957626
 30
0.0
 11
76.227085586566787
 21
86.071623158532915
 31
0.0
  0
LINE
  5
6B18
  8
0
 10
77.276085425097804
 20
88.070623245913325
 30
0.0
 11
77.276085425097804
 21
88.197623281631408
 31
0.0
  0
LINE
  5
6B1A
  8
0
 10
76.227085586566787
 20
87.021623174551664
 30
0.0
 11
76.227085586566787
 21
89.246623207473917
 31
0.0
  0
LINE
  5
6B1B
  8
0
 10
76.227085586566787
 20
89.246623207473917
 30
0.0
 11
77.276085425097804
 21
88.197623281631408
 31
0.0
  0
LINE
  5
6B1C
  8
0
 10
77.276085425097804
 20
84.895623284283815
 30
0.0
 11
77.276085425097804
 21
85.022623087171254
 31
0.0
  0
LINE
  5
6B1D
  8
0
 10
76.227085586566787
 20
86.071623158532915
 30
0.0
 11
77.276085425097804
 21
85.022623087171254
 31
0.0
  0
LINE
  5
6B1E
  8
0
 10
76.227085586566787
 20
84.229623335305405
 30
0.0
 11
76.227085586566787
 21
86.071623158532915
 31
0.0
  0
LINE
  5
6B1F
  8
2
 10
72.15708579488502
 20
83.721623192433057
 30
0.0
 11
71.776085648615222
 21
84.102623244587221
 31
0.0
  0
LINE
  5
6B20
  8
2
 10
71.776085648615222
 20
84.102623244587221
 30
0.0
 11
71.776085454900127
 21
90.641623265001726
 31
0.0
  0
LINE
  5
6B21
  8
2
 10
74.776085648615222
 20
95.340623244587277
 30
0.0
 11
75.157085355300765
 21
95.721623296741186
 31
0.0
  0
LINE
  5
6B23
  8
0
 10
77.276085425097804
 20
94.547623204890428
 30
0.0
 11
76.102085333247047
 21
95.721623296741186
 31
0.0
  0
LINE
  5
6B24
  8
0
 10
76.227085586566787
 20
93.371623330641327
 30
0.0
 11
76.227085586566787
 21
95.467623225305019
 31
0.0
  0
LINE
  5
6B25
  8
0
 10
76.227085586566787
 20
93.371623330641327
 30
0.0
 11
77.276085425097804
 21
94.420623402002988
 31
0.0
  0
LINE
  5
6B26
  8
0
 10
77.276085425097804
 20
94.420623402002988
 30
0.0
 11
77.276085425097804
 21
94.547623204890428
 31
0.0
  0
LINE
  5
6B27
  8
0
 10
75.752085927803378
 20
92.896623206216645
 30
0.0
 11
76.227085586566787
 21
93.371623330641327
 31
0.0
  0
LINE
  5
6B28
  8
0
 10
76.227085586566787
 20
92.421623314622579
 30
0.0
 11
75.752085927803378
 21
92.896623206216645
 31
0.0
  0
LINE
  5
6B29
  8
0
 10
76.102085333247047
 20
95.721623296741186
 30
0.0
 11
75.973085980791907
 21
95.721623296741186
 31
0.0
  0
LINE
  5
6B2A
  8
0
 10
75.973085980791907
 20
95.721623296741186
 30
0.0
 11
76.227085586566787
 21
95.467623225305019
 31
0.0
  0
LINE
  5
6B2B
  8
0
 10
77.276085425097804
 20
91.245623207542835
 30
0.0
 11
77.276085425097804
 21
91.372623243260918
 31
0.0
  0
LINE
  5
6B2C
  8
0
 10
77.276085425097804
 20
91.372623243260918
 30
0.0
 11
76.227085586566787
 21
92.421623314622579
 31
0.0
  0
LINE
  5
6B2D
  8
1
 10
67.276085648615222
 20
81.221623192433057
 30
0.0
 11
67.276085648615222
 21
98.221623296741214
 31
0.0
  0
LINE
  5
6B2E
  8
2
 10
62.776085648615222
 20
84.102623244587221
 30
0.0
 11
62.395085502345431
 21
83.721623192433057
 31
0.0
  0
LINE
  5
6B2F
  8
2
 10
62.776085842330318
 20
90.641623265001726
 30
0.0
 11
62.776085648615222
 21
84.102623244587221
 31
0.0
  0
LINE
  5
6B31
  8
0
 10
57.27608587213264
 20
84.229623335305405
 30
0.0
 11
57.27608587213264
 21
95.467623225305019
 31
0.0
  0
LINE
  5
6B32
  8
2
 10
59.776085648615222
 20
95.340623244587277
 30
0.0
 11
59.776085648615222
 21
90.641623244587194
 31
0.0
  0
LINE
  5
6B33
  8
0
 10
57.27608587213264
 20
84.229623335305405
 30
0.0
 11
57.784086015004981
 21
83.721623192433057
 31
0.0
  0
LINE
  5
6B34
  8
0
 10
60.476085872132643
 20
84.229623335305405
 30
0.0
 11
60.686506566334828
 21
83.721623192433057
 31
0.0
  0
LINE
  5
6B37
  8
0
 10
57.530085477907519
 20
95.721623296741186
 30
0.0
 11
57.27608587213264
 21
95.467623225305019
 31
0.0
  0
LINE
  5
6B38
  8
2
 10
59.395085941929679
 20
95.721623296741186
 30
0.0
 11
59.776085648615222
 21
95.340623244587277
 31
0.0
  0
LINE
  5
6B39
  8
0
 10
60.581295986403092
 20
95.721623296741186
 30
0.0
 11
60.476085872132643
 21
95.467623225305019
 31
0.0
  0
LINE
  5
6D60
  8
3
 10
108.9004318977544
 20
95.721623296741186
 30
0.0
 11
108.9004318977544
 21
83.721623192433057
 31
0.0
  0
LINE
  5
6D61
  8
3
 10
112.0754318593839
 20
95.721623296741186
 30
0.0
 11
112.0754318593839
 21
83.721623192433057
 31
0.0
  0
LINE
  5
6D62
  8
3
 10
115.25043205384399
 20
95.721623296741186
 30
0.0
 11
115.25043205384399
 21
83.754623210880695
 31
0.0
  0
LINE
  5
6D63
  8
3
 10
105.72543193612491
 20
95.721623296741186
 30
0.0
 11
105.72543193612491
 21
83.721623192433057
 31
0.0
  0
LINE
  5
6D9E
  8
0
 10
60.476085872132643
 20
84.229623335305405
 30
0.0
 11
60.476085872132643
 21
95.467623225305019
 31
0.0
  0
LINE
  5
6D9F
  8
0
 10
170.02477823555549
 20
84.229623335305405
 30
0.0
 11
170.02477823555549
 21
95.467623225305019
 31
0.0
  0
LINE
  5
6DA0
  8
0
 10
173.2247782355555
 20
84.229623335305405
 30
0.0
 11
173.2247782355555
 21
95.467623225305019
 31
0.0
  0
LINE
  5
6DA1
  8
2
 10
167.7247782653578
 20
90.641623265001726
 30
0.0
 11
167.72477845907289
 21
84.102623244587221
 31
0.0
  0
LINE
  5
6DA2
  8
1
 10
163.22477845907289
 20
81.221623192433057
 30
0.0
 11
163.22477845907289
 21
98.221623296741214
 31
0.0
  0
LINE
  5
6DA3
  8
2
 10
158.72477845907289
 20
84.102623244587221
 30
0.0
 11
158.72477865278799
 21
90.641623265001726
 31
0.0
  0
LINE
  5
6DA4
  8
0
 10
154.2737785211213
 20
84.229623335305405
 30
0.0
 11
154.2737785211213
 21
86.071623158532915
 31
0.0
  0
LINE
  5
6DA5
  8
0
 10
153.22477868259031
 20
84.895623284283815
 30
0.0
 11
154.3987787744411
 21
83.721623192433057
 31
0.0
  0
LINE
  5
6DA6
  8
0
 10
173.2247782355555
 20
84.229623335305405
 30
0.0
 11
154.2737785211213
 21
84.229623335305405
 31
0.0
  0
LINE
  5
6DA7
  8
0
 10
154.71577862709839
 20
83.721623192433057
 30
0.0
 11
172.7167780926832
 21
83.721623192433057
 31
0.0
  0
LINE
  5
6DA8
  8
2
 10
158.72477845907289
 20
84.102623244587221
 30
0.0
 11
167.72477845907289
 21
84.102623244587221
 31
0.0
  0
LINE
  5
6DA9
  8
2
 10
167.72477845907289
 20
84.102623244587221
 30
0.0
 11
168.10577860534269
 21
83.721623192433057
 31
0.0
  0
LINE
  5
6DAA
  8
0
 10
173.2247782355555
 20
84.229623335305405
 30
0.0
 11
172.7167780926832
 21
83.721623192433057
 31
0.0
  0
LINE
  5
6DAB
  8
0
 10
170.02477823555549
 20
84.229623335305405
 30
0.0
 11
169.8143575413533
 21
83.721623192433057
 31
0.0
  0
LINE
  5
6DAC
  8
2
 10
158.3437783128031
 20
83.721623192433057
 30
0.0
 11
158.72477845907289
 21
84.102623244587221
 31
0.0
  0
LINE
  5
6DAD
  8
0
 10
154.74877817988471
 20
83.754623210880695
 30
0.0
 11
154.71577862709839
 21
83.721623192433057
 31
0.0
  0
LINE
  5
6DAE
  8
0
 10
154.3987787744411
 20
83.721623192433057
 30
0.0
 11
154.71577862709839
 21
83.721623192433057
 31
0.0
  0
LINE
  5
6DAF
  8
0
 10
154.74877817988471
 20
83.754623210880695
 30
0.0
 11
154.74877817988471
 21
83.721623192433057
 31
0.0
  0
LINE
  5
6DB0
  8
0
 10
154.2737785211213
 20
84.229623335305405
 30
0.0
 11
154.74877817988471
 21
83.754623210880695
 31
0.0
  0
LINE
  5
6DB1
  8
0
 10
154.2737785211213
 20
95.467623225305019
 30
0.0
 11
173.2247782355555
 21
95.467623225305019
 31
0.0
  0
LINE
  5
6DB2
  8
0
 10
172.9707786297806
 20
95.721623296741186
 30
0.0
 11
154.52777812689621
 21
95.721623296741186
 31
0.0
  0
LINE
  5
6DB3
  8
2
 10
170.72477845907289
 20
95.340623244587277
 30
0.0
 11
155.72477845907289
 21
95.340623244587277
 31
0.0
  0
LINE
  5
6DB4
  8
2
 10
170.72477845907289
 20
90.641623244587194
 30
0.0
 11
155.72477845907289
 21
90.641623244587194
 31
0.0
  0
LINE
  5
6DB5
  8
2
 10
171.10577816575841
 20
95.721623296741186
 30
0.0
 11
170.72477845907289
 21
95.340623244587277
 31
0.0
  0
LINE
  5
6DB6
  8
2
 10
170.72477845907289
 20
95.340623244587277
 30
0.0
 11
170.72477845907289
 21
90.641623244587194
 31
0.0
  0
LINE
  5
6DB7
  8
0
 10
172.9707786297806
 20
95.721623296741186
 30
0.0
 11
173.2247782355555
 21
95.467623225305019
 31
0.0
  0
LINE
  5
6DB8
  8
0
 10
169.9195681212851
 20
95.721623296741186
 30
0.0
 11
170.02477823555549
 21
95.467623225305019
 31
0.0
  0
LINE
  5
6DB9
  8
0
 10
154.2737785211213
 20
93.371623330641327
 30
0.0
 11
154.2737785211213
 21
95.467623225305019
 31
0.0
  0
LINE
  5
6DBA
  8
0
 10
153.22477868259031
 20
94.547623204890428
 30
0.0
 11
154.3987787744411
 21
95.721623296741186
 31
0.0
  0
LINE
  5
6DBB
  8
2
 10
155.72477845907289
 20
95.340623244587277
 30
0.0
 11
155.34377875238741
 21
95.721623296741186
 31
0.0
  0
LINE
  5
6DBC
  8
0
 10
153.22477868259031
 20
91.372623243260918
 30
0.0
 11
154.2737785211213
 21
92.421623314622579
 31
0.0
  0
LINE
  5
6DBD
  8
0
 10
154.2737785211213
 20
93.371623330641327
 30
0.0
 11
153.22477868259031
 21
94.420623402002988
 31
0.0
  0
LINE
  5
6DBE
  8
0
 10
154.2737785211213
 20
86.071623158532915
 30
0.0
 11
153.22477868259031
 21
85.022623087171254
 31
0.0
  0
LINE
  5
6DBF
  8
0
 10
154.2737785211213
 20
89.246623207473917
 30
0.0
 11
153.22477868259031
 21
88.197623281631408
 31
0.0
  0
LINE
  5
6DC0
  8
0
 10
153.22477868259031
 20
88.070623245913325
 30
0.0
 11
154.2737785211213
 21
87.021623174551664
 31
0.0
  0
LINE
  5
6DC1
  8
0
 10
154.2737785211213
 20
90.196623281700326
 30
0.0
 11
153.22477868259031
 21
91.245623207542835
 31
0.0
  0
LINE
  5
6DC2
  8
0
 10
154.74877817988471
 20
89.721623244587136
 30
0.0
 11
154.2737785211213
 21
90.196623281700326
 31
0.0
  0
LINE
  5
6DC3
  8
0
 10
154.2737785211213
 20
87.021623174551664
 30
0.0
 11
154.2737785211213
 21
89.246623207473917
 31
0.0
  0
LINE
  5
6DC4
  8
0
 10
154.74877817988471
 20
86.546623282957626
 30
0.0
 11
154.2737785211213
 21
86.071623158532915
 31
0.0
  0
LINE
  5
6DC5
  8
0
 10
154.2737785211213
 20
87.021623174551664
 30
0.0
 11
154.74877817988471
 21
86.546623282957626
 31
0.0
  0
LINE
  5
6DC6
  8
0
 10
154.74877817988471
 20
89.721623244587136
 30
0.0
 11
154.2737785211213
 21
89.246623207473917
 31
0.0
  0
LINE
  5
6DC7
  8
0
 10
154.2737785211213
 20
92.421623314622579
 30
0.0
 11
154.74877817988471
 21
92.896623206216645
 31
0.0
  0
LINE
  5
6DC8
  8
2
 10
155.72477845907289
 20
90.641623244587194
 30
0.0
 11
155.72477845907289
 21
95.340623244587277
 31
0.0
  0
LINE
  5
6DC9
  8
0
 10
154.2737785211213
 20
90.196623281700326
 30
0.0
 11
154.2737785211213
 21
92.421623314622579
 31
0.0
  0
LINE
  5
6DCA
  8
0
 10
154.74877817988471
 20
92.896623206216645
 30
0.0
 11
154.2737785211213
 21
93.371623330641327
 31
0.0
  0
LINE
  5
6DCB
  8
0
 10
153.22477868259031
 20
84.895623284283815
 30
0.0
 11
153.22477868259031
 21
85.022623087171254
 31
0.0
  0
LINE
  5
6DCC
  8
0
 10
153.22477868259031
 20
88.070623245913325
 30
0.0
 11
153.22477868259031
 21
88.197623281631408
 31
0.0
  0
LINE
  5
6DCD
  8
0
 10
153.22477868259031
 20
91.245623207542835
 30
0.0
 11
153.22477868259031
 21
91.372623243260918
 31
0.0
  0
LINE
  5
6DCE
  8
0
 10
153.22477868259031
 20
94.420623402002988
 30
0.0
 11
153.22477868259031
 21
94.547623204890428
 31
0.0
  0
LINE
  5
6DCF
  8
0
 10
154.52777812689621
 20
95.721623296741186
 30
0.0
 11
154.2737785211213
 21
95.467623225305019
 31
0.0
  0
LINE
  5
6DD0
  8
0
 10
154.3987787744411
 20
95.721623296741186
 30
0.0
 11
154.52777812689621
 21
95.721623296741186
 31
0.0
  0
LINE
  5
6E03
  8
0
 10
106.0754314623846
 20
120.39342244954889
 30
0.0
 11
108.55043266473341
 21
120.39342244954889
 31
0.0
  0
LINE
  5
6E05
  8
0
 10
112.4254313705416
 20
120.39342244954889
 30
0.0
 11
114.9004327677285
 21
120.39342244954889
 31
0.0
  0
LINE
  5
6E06
  8
0
 10
115.6004313399596
 20
120.39342244954889
 30
0.0
 11
118.0754327371465
 21
120.39342244954889
 31
0.0
  0
LINE
  5
6E07
  8
0
 10
118.7754312484947
 20
120.39342244954889
 30
0.0
 11
121.2504325112514
 21
120.39342244954889
 31
0.0
  0
LINE
  5
6E08
  8
0
 10
121.95043144295479
 20
120.39342244954889
 30
0.0
 11
124.4254326453035
 21
120.39342244954889
 31
0.0
  0
LINE
  5
6E09
  8
0
 10
109.2504315964367
 20
120.39342244954889
 30
0.0
 11
111.7254328591935
 21
120.39342244954889
 31
0.0
  0
TEXT
  5
6EBB
  8
0
 62
     3
 10
0.0
 20
0.0
 30
0.0
 40
5.0
  1
HSE-9202
  7
STANDARD1
  0
ENDSEC
  0
EOF
