  0
SECTION
  2
HEADER
  9
$ACADVER
  1
AC1009
  9
$INSBASE
 10
0.0
 20
0.0
 30
0.0
  9
$EXTMIN
 10
0.0
 20
-1.4802182810368341
 30
0.0
  9
$EXTMAX
 10
203.23301830428611
 20
163.78127120600629
 30
0.0
  9
$LIMMIN
 10
0.0
 20
0.0
  9
$LIMMAX
 10
187.5
 20
135.0
  9
$ORTHOMODE
 70
     1
  9
$REGENMODE
 70
     1
  9
$FILLMODE
 70
     1
  9
$QTEXTMODE
 70
     0
  9
$MIRRTEXT
 70
     0
  9
$DRAGMODE
 70
     2
  9
$LTSCALE
 40
5.0
  9
$OSMODE
 70
    55
  9
$ATTMODE
 70
     1
  9
$TEXTSIZE
 40
2.5
  9
$TRACEWID
 40
0.05
  9
$TEXTSTYLE
  7
STANDARD
  9
$CLAYER
  8
0
  9
$CELTYPE
  6
BYLAYER
  9
$CECOLOR
 62
   256
  9
$DIMSCALE
 40
0.5
  9
$DIMASZ
 40
3.0
  9
$DIMEXO
 40
2.0
  9
$DIMDLI
 40
10.0
  9
$DIMRND
 40
0.0
  9
$DIMDLE
 40
0.0
  9
$DIMEXE
 40
2.0
  9
$DIMTP
 40
0.0
  9
$DIMTM
 40
0.0
  9
$DIMTXT
 40
3.0
  9
$DIMCEN
 40
0.09
  9
$DIMTSZ
 40
0.0
  9
$DIMTOL
 70
     0
  9
$DIMLIM
 70
     0
  9
$DIMTIH
 70
     0
  9
$DIMTOH
 70
     0
  9
$DIMSE1
 70
     0
  9
$DIMSE2
 70
     0
  9
$DIMTAD
 70
     1
  9
$DIMZIN
 70
     0
  9
$DIMBLK
  1

  9
$DIMASO
 70
     0
  9
$DIMSHO
 70
     0
  9
$DIMPOST
  1

  9
$DIMAPOST
  1

  9
$DIMALT
 70
     0
  9
$DIMALTD
 70
     2
  9
$DIMALTF
 40
25.399999999999999
  9
$DIMLFAC
 40
1.0
  9
$DIMTOFL
 70
     1
  9
$DIMTVP
 40
1.6000000000000001
  9
$DIMTIX
 70
     1
  9
$DIMSOXD
 70
     0
  9
$DIMSAH
 70
     0
  9
$DIMBLK1
  1
ARROW1
  9
$DIMBLK2
  1
ARROW1
  9
$DIMSTYLE
  2
STANDARD
  9
$DIMCLRD
 70
     0
  9
$DIMCLRE
 70
     0
  9
$DIMCLRT
 70
     0
  9
$DIMTFAC
 40
1.0
  9
$DIMGAP
 40
0.09
  9
$LUNITS
 70
     2
  9
$LUPREC
 70
     4
  9
$SKETCHINC
 40
0.1
  9
$FILLETRAD
 40
0.0
  9
$AUNITS
 70
     0
  9
$AUPREC
 70
     0
  9
$MENU
  1
E:\r13\win\SUPPORT\ACAD
  9
$ELEVATION
 40
0.0
  9
$PELEVATION
 40
0.0
  9
$THICKNESS
 40
0.0
  9
$LIMCHECK
 70
     0
  9
$BLIPMODE
 70
     0
  9
$CHAMFERA
 40
3.2000000000000002
  9
$CHAMFERB
 40
3.2000000000000002
  9
$SKPOLY
 70
     0
  9
$TDCREATE
 40
2449840.5944097228
  9
$TDUPDATE
 40
2456598.6937259729
  9
$TDINDWG
 40
0.6552364120000001
  9
$TDUSRTIMER
 40
0.6552364120000001
  9
$USRTIMER
 70
     1
  9
$ANGBASE
 50
0.0
  9
$ANGDIR
 70
     0
  9
$PDMODE
 70
     0
  9
$PDSIZE
 40
0.0
  9
$PLINEWID
 40
0.0
  9
$COORDS
 70
     1
  9
$SPLFRAME
 70
     0
  9
$SPLINETYPE
 70
     6
  9
$SPLINESEGS
 70
     8
  9
$ATTDIA
 70
     0
  9
$ATTREQ
 70
     1
  9
$HANDLING
 70
     1
  9
$HANDSEED
  5
85E2
  9
$SURFTAB1
 70
     6
  9
$SURFTAB2
 70
     6
  9
$SURFTYPE
 70
     6
  9
$SURFU
 70
     6
  9
$SURFV
 70
     6
  9
$UCSNAME
  2

  9
$UCSORG
 10
0.0
 20
0.0
 30
0.0
  9
$UCSXDIR
 10
1.0
 20
0.0
 30
0.0
  9
$UCSYDIR
 10
0.0
 20
1.0
 30
0.0
  9
$PUCSNAME
  2

  9
$PUCSORG
 10
0.0
 20
0.0
 30
0.0
  9
$PUCSXDIR
 10
1.0
 20
0.0
 30
0.0
  9
$PUCSYDIR
 10
0.0
 20
1.0
 30
0.0
  9
$USERI1
 70
     0
  9
$USERI2
 70
     1
  9
$USERI3
 70
     1
  9
$USERI4
 70
     0
  9
$USERI5
 70
     0
  9
$USERR1
 40
0.0
  9
$USERR2
 40
0.0
  9
$USERR3
 40
0.0
  9
$USERR4
 40
0.0
  9
$USERR5
 40
0.0
  9
$WORLDVIEW
 70
     1
  9
$SHADEDGE
 70
     3
  9
$SHADEDIF
 70
    70
  9
$TILEMODE
 70
     1
  9
$MAXACTVP
 70
    16
  9
$PLIMCHECK
 70
     0
  9
$PEXTMIN
 10
1.0000000000000000E+020
 20
1.0000000000000000E+020
 30
1.0000000000000000E+020
  9
$PEXTMAX
 10
-1.0000000000000000E+020
 20
-1.0000000000000000E+020
 30
-1.0000000000000000E+020
  9
$PLIMMIN
 10
0.0
 20
0.0
  9
$PLIMMAX
 10
12.0
 20
9.0
  9
$UNITMODE
 70
     0
  9
$VISRETAIN
 70
     0
  9
$PLINEGEN
 70
     0
  9
$PSLTSCALE
 70
     0
  0
ENDSEC
  0
SECTION
  2
TABLES
  0
TABLE
  2
VPORT
 70
     1
  0
VPORT
  2
*ACTIVE
 70
     0
 10
0.0
 20
0.0
 11
1.0
 21
1.0
 12
101.6165096253318
 22
106.2161113715939
 13
0.0
 23
0.0
 14
5.0
 24
5.0
 15
5.0
 25
5.0
 16
0.0
 26
0.0
 36
1.0
 17
0.0
 27
0.0
 37
0.0
 40
217.3159018254272
 41
1.7807262569832401
 42
50.0
 43
0.0
 44
0.0
 50
0.0
 51
0.0
 71
     0
 72
   100
 73
     1
 74
     0
 75
     0
 76
     0
 77
     0
 78
     0
  0
ENDTAB
  0
TABLE
  2
LTYPE
 70
     4
  0
LTYPE
  2
CONTINUOUS
 70
     0
  3
Solid Line
 72
    65
 73
     0
 40
0.0
  0
LTYPE
  2
CENTER
 70
     0
  3
____ _ ____ _ ____ _ ____ _ ____ _ ____ _ ____
 72
    65
 73
     4
 40
2.0
 49
1.25
 49
-0.25
 49
0.25
 49
-0.25
  0
LTYPE
  2
HIDDEN
 70
     0
  3
_ _ _ _ _ _ _ _ _ _ _ _ _ _ _ _ _ _ _ _ _ _ _
 72
    65
 73
     2
 40
0.375
 49
0.25
 49
-0.125
  0
LTYPE
  2
PHANTOM2
 70
     0
  3
___ _ _ ___ _ _ ___ _ _ ___ _ _
 72
    65
 73
     6
 40
1.25
 49
0.625
 49
-0.125
 49
0.125
 49
-0.125
 49
0.125
 49
-0.125
  0
ENDTAB
  0
TABLE
  2
LAYER
 70
     5
  0
LAYER
  2
0
 70
     0
 62
     7
  6
CONTINUOUS
  0
LAYER
  2
1
 70
     0
 62
     1
  6
CENTER
  0
LAYER
  2
2
 70
     0
 62
     2
  6
HIDDEN
  0
LAYER
  2
3
 70
     0
 62
     3
  6
CONTINUOUS
  0
LAYER
  2
WAKU
 70
     0
 62
     5
  6
CONTINUOUS
  0
ENDTAB
  0
TABLE
  2
STYLE
 70
     2
  0
STYLE
  2
STANDARD
 70
     0
 40
0.0
 41
1.0
 50
0.0
 71
     0
 42
2.5
  3
TXT
  4
BIGFONT
  0
STYLE
  2
STANDARD1
 70
     0
 40
0.0
 41
1.0
 50
0.0
 71
     0
 42
3.0
  3
txt
  4

  0
ENDTAB
  0
TABLE
  2
VIEW
 70
     1
  0
VIEW
  2
ALL
 70
     0
 40
135.0
 10
110.49579799999999
 20
67.5
 41
0.0
 11
0.0
 21
0.0
 31
1.0
 12
0.0
 22
0.0
 32
0.0
 42
0.0
 43
0.0
 44
0.0
 50
0.0
 71
     0
  0
ENDTAB
  0
TABLE
  2
UCS
 70
     0
  0
ENDTAB
  0
TABLE
  2
APPID
 70
     4
  0
APPID
  2
ACAD
 70
     0
  0
APPID
  2
DCO15
 70
     0
  0
APPID
  2
ACAD_MLEADERVER
 70
     0
  0
APPID
  2
ACAD_NAV_VCDISPLAY
 70
     0
  0
ENDTAB
  0
TABLE
  2
DIMSTYLE
 70
     1
  0
DIMSTYLE
  2
STANDARD
 70
     0
  3

  4

  5

  6

  7

 40
1.0
 41
0.18
 42
0.0625
 43
0.38
 44
0.18
 45
0.0
 46
0.0
 47
0.0
 48
0.0
140
0.18
141
0.09
142
0.0
143
25.399999999999999
144
1.0
145
0.0
146
1.0
147
0.09
 71
     0
 72
     0
 73
     1
 74
     1
 75
     0
 76
     0
 77
     0
 78
     0
170
     0
171
     2
172
     0
173
     0
174
     0
175
     0
176
     0
177
     0
178
     0
  0
ENDTAB
  0
ENDSEC
  0
SECTION
  2
BLOCKS
  0
BLOCK
  8
0
  2
$MODEL_SPACE
 70
     0
 10
0.0
 20
0.0
 30
0.0
  3
$MODEL_SPACE
  1

  0
ENDBLK
  5
15D
  8
0
  0
BLOCK
 67
     1
  8
0
  2
$PAPER_SPACE
 70
     0
 10
0.0
 20
0.0
 30
0.0
  3
$PAPER_SPACE
  1

  0
ENDBLK
  5
15B
 67
     1
  8
0
  0
BLOCK
  8
0
  2
STDGX5
 70
     0
 10
0.0
 20
0.0
 30
0.0
  3
STDGX5
  1

  0
ENDBLK
  5
41
  8
0
  0
BLOCK
  8
0
  2
ARROW1
 70
     0
 10
0.0
 20
0.0
 30
0.0
  3
ARROW1
  1

  0
SOLID
  5
2442
  8
WAKU
  6
CONTINUOUS
 62
     4
 10
-1.0
 20
0.1666666666666714
 30
0.0
 11
-1.0
 21
-0.1666666666666714
 31
0.0
 12
0.0
 22
0.0
 32
0.0
 13
0.0
 23
0.0
 33
0.0
  0
ENDBLK
  5
2444
  8
0
  0
ENDSEC
  0
SECTION
  2
ENTITIES
  0
INSERT
  5
CA
  8
0
  2
STDGX5
 10
0.0
 20
0.0
 30
0.0
  0
INSERT
  5
69A
  8
0
  2
STDGX5
 10
194.3272563481562
 20
13.52129245667936
 30
0.0
  0
LINE
  5
75EA
  8
0
 10
120.1052830391076
 20
136.28127083347729
 30
0.0
 11
121.629282536402
 21
137.80527126209429
 31
0.0
  0
LINE
  5
75EB
  8
1
 10
116.1542824678567
 20
148.78127101974181
 30
0.0
 11
146.15428284038569
 21
148.78127101974181
 31
0.0
  0
LINE
  5
75EC
  8
0
 10
143.40028230328829
 20
137.45527092532799
 30
0.0
 11
141.02928289472001
 21
137.45527092532799
 31
0.0
  0
LINE
  5
75F1
  8
1
 10
131.1616795124111
 20
163.78127120600629
 30
0.0
 11
131.16167951241101
 21
135.10079461759941
 31
0.0
  0
LINE
  5
75F3
  8
0
 10
142.33028207202219
 20
136.28127083347729
 30
0.0
 11
142.2032822691348
 21
136.28127083347729
 31
0.0
  0
LINE
  5
75F7
  8
0
 10
143.40028230328829
 20
137.45527092532799
 30
0.0
 11
143.40028230328829
 21
157.97606073869051
 31
0.0
  0
LINE
  5
75F9
  8
0
 10
143.65428284038569
 20
158.08127120600631
 30
0.0
 11
143.65428284038569
 21
137.60527067051819
 31
0.0
  0
LINE
  5
75FA
  8
0
 10
143.65428284038569
 20
137.60527067051819
 30
0.0
 11
142.33028207202219
 21
136.28127083347729
 31
0.0
  0
CIRCLE
  5
7600
  8
0
 10
131.1542826541212
 20
148.78127101974181
 30
0.0
 40
9.0
  0
CIRCLE
  5
7601
  8
0
 10
131.1542826541212
 20
148.78127101974181
 30
0.0
 40
5.5000000000000142
  0
CIRCLE
  5
7602
  8
2
 10
131.1542826541212
 20
148.78127101974189
 30
0.0
 40
5.8810000000000144
  0
CIRCLE
  5
7603
  8
0
 10
131.1542826541212
 20
148.78127101974181
 30
0.0
 40
9.3810000000000002
  0
LINE
  5
7604
  8
0
 10
132.6782821514156
 20
136.28127083347729
 30
0.0
 11
131.1542826541212
 21
137.80527126209429
 31
0.0
  0
LINE
  5
7606
  8
0
 10
137.5042825773802
 20
137.80527126209429
 30
0.0
 11
135.98028214876319
 21
136.28127083347729
 31
0.0
  0
LINE
  5
7608
  8
0
 10
140.67928277184041
 20
137.80527126209429
 30
0.0
 11
139.1552823432234
 21
136.28127083347729
 31
0.0
  0
LINE
  5
760A
  8
0
 10
142.2032822691348
 20
136.28127083347729
 30
0.0
 11
140.67928277184041
 21
137.80527126209429
 31
0.0
  0
LINE
  5
760B
  8
0
 10
139.02828254033591
 20
136.28127083347729
 30
0.0
 11
137.5042825773802
 21
137.80527126209429
 31
0.0
  0
LINE
  5
760C
  8
0
 10
139.1552823432234
 20
136.28127083347729
 30
0.0
 11
139.02828254033591
 21
136.28127083347729
 31
0.0
  0
LINE
  5
760D
  8
0
 10
134.32928261575071
 20
137.80527126209429
 30
0.0
 11
132.80528218713371
 21
136.28127083347729
 31
0.0
  0
LINE
  5
760E
  8
0
 10
135.85328234587581
 20
136.28127083347729
 30
0.0
 11
134.32928261575071
 21
137.80527126209429
 31
0.0
  0
LINE
  5
760F
  8
0
 10
135.98028214876319
 20
136.28127083347729
 30
0.0
 11
135.85328234587581
 21
136.28127083347729
 31
0.0
  0
LINE
  5
7610
  8
0
 10
132.80528218713371
 20
136.28127083347729
 30
0.0
 11
132.6782821514156
 21
136.28127083347729
 31
0.0
  0
LINE
  5
7611
  8
0
 10
124.8042827308622
 20
137.80527126209429
 30
0.0
 11
126.3282831594792
 21
136.28127083347729
 31
0.0
  0
LINE
  5
7613
  8
0
 10
127.97928269249169
 20
137.80527126209429
 30
0.0
 11
129.50328312110869
 21
136.28127083347729
 31
0.0
  0
LINE
  5
7615
  8
0
 10
129.63028315682681
 20
136.28127083347729
 30
0.0
 11
131.1542826541212
 21
137.80527126209429
 31
0.0
  0
LINE
  5
7616
  8
0
 10
129.63028315682681
 20
136.28127083347729
 30
0.0
 11
129.50328312110869
 21
136.28127083347729
 31
0.0
  0
LINE
  5
7617
  8
0
 10
126.4552829623666
 20
136.28127083347729
 30
0.0
 11
127.97928269249169
 21
137.80527126209429
 31
0.0
  0
LINE
  5
7618
  8
0
 10
126.4552829623666
 20
136.28127083347729
 30
0.0
 11
126.3282831594792
 21
136.28127083347729
 31
0.0
  0
LINE
  5
7619
  8
0
 10
123.2802827679065
 20
136.28127083347729
 30
0.0
 11
123.153282965019
 21
136.28127083347729
 31
0.0
  0
LINE
  5
761B
  8
0
 10
123.2802827679065
 20
136.28127083347729
 30
0.0
 11
124.8042827308622
 21
137.80527126209429
 31
0.0
  0
LINE
  5
761C
  8
0
 10
121.629282536402
 20
137.80527126209429
 30
0.0
 11
123.153282965019
 21
136.28127083347729
 31
0.0
  0
LINE
  5
761D
  8
0
 10
140.3490723730699
 20
161.0272706689089
 30
0.0
 11
121.95949293517251
 21
161.0272706689089
 31
0.0
  0
LINE
  5
761E
  8
0
 10
121.85428246785671
 20
161.28127120600629
 30
0.0
 11
140.4542828403857
 21
161.28127120600629
 31
0.0
  0
LINE
  5
763F
  8
0
 10
118.9082830049541
 20
157.97606073869051
 30
0.0
 11
118.9082830049541
 21
137.45527092532799
 31
0.0
  0
LINE
  5
7641
  8
0
 10
118.6542824678567
 20
137.60527067051819
 30
0.0
 11
118.6542824678567
 21
158.08127120600631
 31
0.0
  0
LINE
  5
7642
  8
0
 10
118.6542824678567
 20
137.60527067051819
 30
0.0
 11
119.97828323622009
 21
136.28127083347729
 31
0.0
  0
LINE
  5
7643
  8
0
 10
120.1052830391076
 20
136.28127083347729
 30
0.0
 11
119.97828323622009
 21
136.28127083347729
 31
0.0
  0
LINE
  5
7857
  8
0
 10
121.85428246785671
 20
161.28127120600629
 30
0.0
 11
118.6542824678567
 21
158.08127120600631
 31
0.0
  0
LINE
  5
7858
  8
0
 10
140.4542828403857
 20
161.28127120600629
 30
0.0
 11
143.65428284038569
 21
158.08127120600631
 31
0.0
  0
LINE
  5
7859
  8
0
 10
140.3490723730699
 20
161.0272706689089
 30
0.0
 11
143.40028230328829
 21
157.97606073869051
 31
0.0
  0
LINE
  5
785A
  8
0
 10
121.95949293517251
 20
161.0272706689089
 30
0.0
 11
118.9082830049541
 21
157.97606073869051
 31
0.0
  0
LINE
  5
785B
  8
0
 10
143.40028230328829
 20
157.97606073869051
 30
0.0
 11
143.65428284038569
 21
158.08127120600631
 31
0.0
  0
LINE
  5
785C
  8
0
 10
140.3490723730699
 20
161.0272706689089
 30
0.0
 11
140.4542828403857
 21
161.28127120600629
 31
0.0
  0
LINE
  5
785D
  8
0
 10
121.95949293517251
 20
161.0272706689089
 30
0.0
 11
121.85428246785671
 21
161.28127120600629
 31
0.0
  0
LINE
  5
785E
  8
0
 10
118.9082830049541
 20
157.97606073869051
 30
0.0
 11
118.6542824678567
 21
158.08127120600631
 31
0.0
  0
LINE
  5
7862
  8
1
 10
116.1542824678567
 20
55.692344900511102
 30
0.0
 11
146.15428284038569
 21
55.692344900511102
 31
0.0
  0
LINE
  5
7864
  8
0
 10
121.85428246785671
 20
43.192344714246588
 30
0.0
 11
140.4542828403857
 21
43.192344714246588
 31
0.0
  0
CIRCLE
  5
7865
  8
0
 10
131.1542826541212
 20
55.692344900511053
 30
0.0
 40
5.8810000000000144
  0
LINE
  5
7866
  8
0
 10
132.6782821514156
 20
68.192345086775617
 30
0.0
 11
131.1542826541212
 21
66.668344658158617
 31
0.0
  0
CIRCLE
  5
7867
  8
2
 10
131.1542826541212
 20
55.692344900511152
 30
0.0
 40
9.3810000000000002
  0
CIRCLE
  5
7868
  8
0
 10
131.1542826541212
 20
55.692344900511102
 30
0.0
 40
5.5000000000000142
  0
CIRCLE
  5
7869
  8
2
 10
131.1542826541212
 20
55.692344900511152
 30
0.0
 40
9.0
  0
LINE
  5
786B
  8
1
 10
131.1616795124111
 20
40.692344714246588
 30
0.0
 11
131.16167951241101
 21
69.372821302653563
 31
0.0
  0
LINE
  5
786D
  8
0
 10
118.6542824678567
 20
66.868345249734716
 30
0.0
 11
118.6542824678567
 21
46.392344714246569
 31
0.0
  0
LINE
  5
786E
  8
0
 10
123.2802827679065
 20
68.192345086775617
 30
0.0
 11
124.8042827308622
 21
66.668344658158617
 31
0.0
  0
LINE
  5
786F
  8
0
 10
120.1052830391076
 20
68.192345086775617
 30
0.0
 11
121.629282536402
 21
66.668344658158617
 31
0.0
  0
LINE
  5
7870
  8
0
 10
118.6542824678567
 20
66.868345249734716
 30
0.0
 11
119.97828323622009
 21
68.192345086775617
 31
0.0
  0
LINE
  5
7871
  8
0
 10
120.1052830391076
 20
68.192345086775617
 30
0.0
 11
119.97828323622009
 21
68.192345086775617
 31
0.0
  0
LINE
  5
7874
  8
0
 10
121.629282536402
 20
66.668344658158617
 30
0.0
 11
123.153282965019
 21
68.192345086775617
 31
0.0
  0
LINE
  5
7875
  8
0
 10
123.2802827679065
 20
68.192345086775617
 30
0.0
 11
123.153282965019
 21
68.192345086775617
 31
0.0
  0
LINE
  5
7876
  8
0
 10
127.97928269249169
 20
66.668344658158617
 30
0.0
 11
129.50328312110869
 21
68.192345086775617
 31
0.0
  0
LINE
  5
7877
  8
0
 10
126.4552829623666
 20
68.192345086775617
 30
0.0
 11
127.97928269249169
 21
66.668344658158617
 31
0.0
  0
LINE
  5
7878
  8
0
 10
124.8042827308622
 20
66.668344658158617
 30
0.0
 11
126.3282831594792
 21
68.192345086775617
 31
0.0
  0
LINE
  5
7879
  8
0
 10
126.4552829623666
 20
68.192345086775617
 30
0.0
 11
126.3282831594792
 21
68.192345086775617
 31
0.0
  0
LINE
  5
787A
  8
0
 10
129.63028315682681
 20
68.192345086775617
 30
0.0
 11
131.1542826541212
 21
66.668344658158617
 31
0.0
  0
LINE
  5
787B
  8
0
 10
129.63028315682681
 20
68.192345086775617
 30
0.0
 11
129.50328312110869
 21
68.192345086775617
 31
0.0
  0
LINE
  5
787D
  8
0
 10
121.85428246785671
 20
43.192344714246588
 30
0.0
 11
118.6542824678567
 21
46.392344714246569
 31
0.0
  0
LINE
  5
787F
  8
0
 10
122.06470301672189
 20
43.700344857118921
 30
0.0
 11
121.85428246785671
 21
43.192344714246588
 31
0.0
  0
LINE
  5
7881
  8
0
 10
143.65428284038569
 20
46.392344714246569
 30
0.0
 11
143.65428284038569
 21
66.868345249734716
 31
0.0
  0
LINE
  5
7882
  8
0
 10
139.1552823432234
 20
68.192345086775617
 30
0.0
 11
139.02828254033591
 21
68.192345086775617
 31
0.0
  0
LINE
  5
7883
  8
0
 10
135.85328234587581
 20
68.192345086775617
 30
0.0
 11
134.32928261575071
 21
66.668344658158617
 31
0.0
  0
LINE
  5
7884
  8
0
 10
134.32928261575071
 20
66.668344658158617
 30
0.0
 11
132.80528218713371
 21
68.192345086775617
 31
0.0
  0
LINE
  5
7885
  8
0
 10
132.80528218713371
 20
68.192345086775617
 30
0.0
 11
132.6782821514156
 21
68.192345086775617
 31
0.0
  0
LINE
  5
7886
  8
0
 10
139.02828254033591
 20
68.192345086775617
 30
0.0
 11
137.5042825773802
 21
66.668344658158617
 31
0.0
  0
LINE
  5
7887
  8
0
 10
137.5042825773802
 20
66.668344658158617
 30
0.0
 11
135.98028214876319
 21
68.192345086775617
 31
0.0
  0
LINE
  5
7888
  8
0
 10
135.98028214876319
 20
68.192345086775617
 30
0.0
 11
135.85328234587581
 21
68.192345086775617
 31
0.0
  0
LINE
  5
7889
  8
0
 10
143.65428284038569
 20
66.868345249734716
 30
0.0
 11
142.33028207202219
 21
68.192345086775617
 31
0.0
  0
LINE
  5
788A
  8
0
 10
142.2032822691348
 20
68.192345086775617
 30
0.0
 11
140.67928277184041
 21
66.668344658158617
 31
0.0
  0
LINE
  5
788B
  8
0
 10
140.67928277184041
 20
66.668344658158617
 30
0.0
 11
139.1552823432234
 21
68.192345086775617
 31
0.0
  0
LINE
  5
788C
  8
0
 10
142.33028207202219
 20
68.192345086775617
 30
0.0
 11
142.2032822691348
 21
68.192345086775617
 31
0.0
  0
LINE
  5
7890
  8
0
 10
140.4542828403857
 20
43.192344714246588
 30
0.0
 11
143.65428284038569
 21
46.392344714246569
 31
0.0
  0
LINE
  5
7891
  8
0
 10
140.24386229152049
 20
43.700344857118921
 30
0.0
 11
140.4542828403857
 21
43.192344714246588
 31
0.0
  0
LINE
  5
7892
  8
0
 10
143.1462826975133
 20
46.602765263111849
 30
0.0
 11
143.65428284038569
 21
46.392344714246569
 31
0.0
  0
LINE
  5
78D8
  8
0
 10
143.14628269751341
 20
46.602841417116622
 30
0.0
 11
143.14628269751341
 21
66.868345249734716
 31
0.0
  0
LINE
  5
78DB
  8
0
 10
122.06477917072669
 20
43.700344857118921
 30
0.0
 11
140.24378613751571
 21
43.700344857118921
 31
0.0
  0
LINE
  5
78DE
  8
0
 10
119.1770763273087
 20
46.58804770053694
 30
0.0
 11
119.1770763273087
 21
66.868345249734716
 31
0.0
  0
LINE
  5
78DF
  8
0
 10
140.24378613751571
 20
43.700344857118921
 30
0.0
 11
143.14628269751341
 21
46.602841417116622
 31
0.0
  0
LINE
  5
78E0
  8
0
 10
122.06477917072669
 20
43.700344857118921
 30
0.0
 11
119.1770763273087
 21
46.58804770053694
 31
0.0
  0
LINE
  5
78E1
  8
0
 10
118.6542824678567
 20
46.392344714246569
 30
0.0
 11
119.1770763273087
 21
46.58804770053694
 31
0.0
  0
LINE
  5
7E4C
  8
3
 10
121.27928313095831
 20
108.0184387158869
 30
0.0
 11
120.1052830391075
 21
106.8444386240361
 31
0.0
  0
LINE
  5
7E50
  8
3
 10
120.1052830391075
 20
100.4944387007771
 30
0.0
 11
123.1532820336964
 21
103.54243862668849
 31
0.0
  0
LINE
  5
7E51
  8
3
 10
123.153282266527
 20
106.7174388211487
 30
0.0
 11
120.1052830391075
 21
103.66943866240661
 31
0.0
  0
LINE
  5
7E54
  8
0
 10
118.6542824678566
 20
107.76443864445071
 30
0.0
 11
143.65428284038569
 21
107.76443864445071
 31
0.0
  0
LINE
  5
7E5A
  8
0
 10
118.9082830049541
 20
108.0184387158869
 30
0.0
 11
143.40028276894949
 21
108.0184387158869
 31
0.0
  0
LINE
  5
7E5D
  8
3
 10
121.27928313095831
 20
96.018438611578816
 30
0.0
 11
120.1052830391075
 21
97.192438703429573
 31
0.0
  0
LINE
  5
7E5E
  8
0
 10
143.65428284038569
 20
96.526438754451135
 30
0.0
 11
118.6542824678566
 21
96.526438754451135
 31
0.0
  0
LINE
  5
7E60
  8
3
 10
120.1052830391075
 20
97.319438506317013
 30
0.0
 11
123.1532818008658
 21
100.367438665059
 31
0.0
  0
LINE
  5
7E77
  8
3
 10
143.65428284038569
 20
102.21843860047269
 30
0.0
 11
142.33028207202219
 21
103.54243862668849
 31
0.0
  0
LINE
  5
7E7C
  8
1
 10
131.15428265412109
 20
93.518438611578787
 30
0.0
 11
131.1542826541212
 21
110.5184387158869
 31
0.0
  0
LINE
  5
7E7D
  8
3
 10
142.20328226913469
 20
100.367438665059
 30
0.0
 11
142.33028207202219
 21
100.367438665059
 31
0.0
  0
LINE
  5
7E7E
  8
3
 10
142.33028207202219
 20
100.4944387007771
 30
0.0
 11
142.20328226913469
 21
100.4944387007771
 31
0.0
  0
LINE
  5
7E7F
  8
3
 10
143.65428284038569
 20
98.84343870210337
 30
0.0
 11
118.6542824678566
 21
98.84343870210337
 31
0.0
  0
LINE
  5
7E80
  8
3
 10
143.65428284038569
 20
102.01843866373279
 30
0.0
 11
118.6542824678566
 21
102.01843866373289
 31
0.0
  0
LINE
  5
7E81
  8
3
 10
142.33028207202219
 20
97.319438506317013
 30
0.0
 11
142.20328226913469
 21
97.319438506317013
 31
0.0
  0
LINE
  5
7E82
  8
3
 10
142.20328226913469
 20
97.192438703429573
 30
0.0
 11
142.33028207202219
 21
97.192438703429573
 31
0.0
  0
LINE
  5
7E85
  8
3
 10
142.33028207202219
 20
100.367438665059
 30
0.0
 11
143.65428284038569
 21
99.043438595187524
 31
0.0
  0
LINE
  5
7E87
  8
3
 10
143.65428284038569
 20
98.643438809019202
 30
0.0
 11
142.33028207202219
 21
97.319438506317013
 31
0.0
  0
LINE
  5
7E88
  8
0
 10
143.65428284038569
 20
107.76443864445071
 30
0.0
 11
143.65428284038569
 21
96.526438754451135
 31
0.0
  0
LINE
  5
7E89
  8
3
 10
142.33028207202219
 20
97.192438703429573
 30
0.0
 11
142.33028207202219
 21
97.319438506317013
 31
0.0
  0
LINE
  5
7E8B
  8
3
 10
142.33028207202219
 20
97.192438703429573
 30
0.0
 11
143.32528289635439
 21
96.197438810419911
 31
0.0
  0
LINE
  5
7E8C
  8
0
 10
143.14628269751341
 20
96.018438611578844
 30
0.0
 11
143.65428284038569
 21
96.526438754451135
 31
0.0
  0
LINE
  5
7E8F
  8
3
 10
143.65428284038569
 20
101.81843872699289
 30
0.0
 11
142.33028207202219
 21
100.4944387007771
 31
0.0
  0
LINE
  5
7E90
  8
3
 10
142.33028207202219
 20
100.367438665059
 30
0.0
 11
142.33028207202219
 21
100.4944387007771
 31
0.0
  0
LINE
  5
7E96
  8
3
 10
132.6782821514156
 20
100.4944387007771
 30
0.0
 11
129.63028315682669
 21
103.54243862668849
 31
0.0
  0
LINE
  5
7E9B
  8
3
 10
132.6782821514156
 20
97.319438506317013
 30
0.0
 11
129.63028338965719
 21
100.367438665059
 31
0.0
  0
LINE
  5
7E9D
  8
3
 10
139.0282830059972
 20
103.54243862668859
 30
0.0
 11
135.98028214876319
 21
100.4944387007771
 31
0.0
  0
LINE
  5
7EA1
  8
3
 10
135.98028214876319
 20
97.192438703429573
 30
0.0
 11
137.15428270627521
 21
96.018438611578816
 31
0.0
  0
LINE
  5
7EA3
  8
3
 10
139.0282827731665
 20
100.367438665059
 30
0.0
 11
135.98028214876319
 21
97.319438506317013
 31
0.0
  0
LINE
  5
7EAA
  8
3
 10
139.15528234322329
 20
97.192438703429573
 30
0.0
 11
140.32928243507411
 21
96.018438611578816
 31
0.0
  0
LINE
  5
7EAC
  8
3
 10
142.20328296762659
 20
100.367438665059
 30
0.0
 11
139.15528234322329
 21
97.319438506317013
 31
0.0
  0
LINE
  5
7EAE
  8
3
 10
142.20328226913469
 20
97.319438506317013
 30
0.0
 11
139.1552835073764
 21
100.367438665059
 31
0.0
  0
LINE
  5
7EB1
  8
3
 10
142.20328226913469
 20
97.319438506317013
 30
0.0
 11
142.20328226913469
 21
97.192438703429573
 31
0.0
  0
LINE
  5
7EB2
  8
3
 10
141.02928217728399
 20
96.018438611578816
 30
0.0
 11
142.20328226913469
 21
97.192438703429573
 31
0.0
  0
LINE
  5
7EB4
  8
3
 10
139.02828254033591
 20
97.319438506317013
 30
0.0
 11
135.9802828472551
 21
100.367438665059
 31
0.0
  0
LINE
  5
7EB8
  8
3
 10
139.15528234322329
 20
97.319438506317013
 30
0.0
 11
139.02828254033591
 21
97.319438506317013
 31
0.0
  0
LINE
  5
7EB9
  8
3
 10
139.15528234322329
 20
97.192438703429573
 30
0.0
 11
139.15528234322329
 21
97.319438506317013
 31
0.0
  0
LINE
  5
7EBA
  8
3
 10
139.02828254033591
 20
97.192438703429573
 30
0.0
 11
139.15528234322329
 21
97.192438703429573
 31
0.0
  0
LINE
  5
7EBB
  8
3
 10
139.02828254033591
 20
97.319438506317013
 30
0.0
 11
139.02828254033591
 21
97.192438703429573
 31
0.0
  0
LINE
  5
7EBC
  8
3
 10
137.85428244848509
 20
96.018438611578816
 30
0.0
 11
139.02828254033591
 21
97.192438703429573
 31
0.0
  0
LINE
  5
7EBE
  8
3
 10
142.20328320045729
 20
103.54243862668859
 30
0.0
 11
139.15528234322329
 21
100.4944387007771
 31
0.0
  0
LINE
  5
7EBF
  8
3
 10
142.20328226913469
 20
100.4944387007771
 30
0.0
 11
139.15528327454589
 21
103.54243862668859
 31
0.0
  0
LINE
  5
7EC0
  8
3
 10
142.20328226913469
 20
100.4944387007771
 30
0.0
 11
142.20328226913469
 21
100.367438665059
 31
0.0
  0
LINE
  5
7EC1
  8
3
 10
139.02828254033591
 20
100.4944387007771
 30
0.0
 11
135.9802826144244
 21
103.54243862668859
 31
0.0
  0
LINE
  5
7EC2
  8
3
 10
139.02828254033591
 20
100.4944387007771
 30
0.0
 11
139.02828254033591
 21
100.367438665059
 31
0.0
  0
LINE
  5
7EC3
  8
3
 10
139.02828254033591
 20
100.367438665059
 30
0.0
 11
139.15528234322329
 21
100.367438665059
 31
0.0
  0
LINE
  5
7EC4
  8
3
 10
139.15528234322329
 20
100.4944387007771
 30
0.0
 11
139.02828254033591
 21
100.4944387007771
 31
0.0
  0
LINE
  5
7EC5
  8
3
 10
139.15528234322329
 20
100.367438665059
 30
0.0
 11
139.15528234322329
 21
100.4944387007771
 31
0.0
  0
LINE
  5
7ECB
  8
3
 10
135.85328281153701
 20
100.367438665059
 30
0.0
 11
132.8052821871336
 21
97.319438506317013
 31
0.0
  0
LINE
  5
7ECD
  8
3
 10
135.8532823458757
 20
97.319438506317013
 30
0.0
 11
132.8052831184562
 21
100.367438665059
 31
0.0
  0
LINE
  5
7ECF
  8
3
 10
135.8532823458757
 20
97.192438703429573
 30
0.0
 11
135.98028214876319
 21
97.192438703429573
 31
0.0
  0
LINE
  5
7ED0
  8
3
 10
135.98028214876319
 20
97.192438703429573
 30
0.0
 11
135.98028214876319
 21
97.319438506317013
 31
0.0
  0
LINE
  5
7ED1
  8
3
 10
135.98028214876319
 20
97.319438506317013
 30
0.0
 11
135.8532823458757
 21
97.319438506317013
 31
0.0
  0
LINE
  5
7ED2
  8
3
 10
135.8532823458757
 20
97.319438506317013
 30
0.0
 11
135.8532823458757
 21
97.192438703429573
 31
0.0
  0
LINE
  5
7ED3
  8
3
 10
134.67928248685561
 20
96.018438611578816
 30
0.0
 11
135.8532823458757
 21
97.192438703429573
 31
0.0
  0
LINE
  5
7ED4
  8
3
 10
132.6782821514156
 20
97.319438506317013
 30
0.0
 11
132.6782821514156
 21
97.192438703429573
 31
0.0
  0
LINE
  5
7ED5
  8
3
 10
131.5042825543299
 20
96.018438611578816
 30
0.0
 11
132.6782821514156
 21
97.192438703429573
 31
0.0
  0
LINE
  5
7ED6
  8
3
 10
132.8052821871336
 20
97.192438703429573
 30
0.0
 11
132.8052821871336
 21
97.319438506317013
 31
0.0
  0
LINE
  5
7ED7
  8
3
 10
132.8052821871336
 20
97.192438703429573
 30
0.0
 11
133.97928251181509
 21
96.018438611578816
 31
0.0
  0
LINE
  5
7ED8
  8
3
 10
132.8052821871336
 20
97.319438506317013
 30
0.0
 11
132.6782821514156
 21
97.319438506317013
 31
0.0
  0
LINE
  5
7ED9
  8
3
 10
132.6782821514156
 20
97.192438703429573
 30
0.0
 11
132.8052821871336
 21
97.192438703429573
 31
0.0
  0
LINE
  5
7EDB
  8
3
 10
135.8532830443676
 20
103.54243862668859
 30
0.0
 11
132.8052821871336
 21
100.4944387007771
 31
0.0
  0
LINE
  5
7EDC
  8
3
 10
135.8532823458757
 20
100.4944387007771
 30
0.0
 11
132.80528288562559
 21
103.54243862668859
 31
0.0
  0
LINE
  5
7EDD
  8
3
 10
135.8532823458757
 20
100.367438665059
 30
0.0
 11
135.98028214876319
 21
100.367438665059
 31
0.0
  0
LINE
  5
7EDE
  8
3
 10
135.8532823458757
 20
100.4944387007771
 30
0.0
 11
135.8532823458757
 21
100.367438665059
 31
0.0
  0
LINE
  5
7EDF
  8
3
 10
135.98028214876319
 20
100.4944387007771
 30
0.0
 11
135.8532823458757
 21
100.4944387007771
 31
0.0
  0
LINE
  5
7EE0
  8
3
 10
135.98028214876319
 20
100.367438665059
 30
0.0
 11
135.98028214876319
 21
100.4944387007771
 31
0.0
  0
LINE
  5
7EE1
  8
3
 10
132.6782821514156
 20
100.4944387007771
 30
0.0
 11
132.6782821514156
 21
100.367438665059
 31
0.0
  0
LINE
  5
7EE2
  8
3
 10
132.8052821871336
 20
100.367438665059
 30
0.0
 11
132.8052821871336
 21
100.4944387007771
 31
0.0
  0
LINE
  5
7EE3
  8
3
 10
132.6782821514156
 20
100.367438665059
 30
0.0
 11
132.8052821871336
 21
100.367438665059
 31
0.0
  0
LINE
  5
7EE4
  8
3
 10
132.8052821871336
 20
100.4944387007771
 30
0.0
 11
132.6782821514156
 21
100.4944387007771
 31
0.0
  0
LINE
  5
7EE8
  8
3
 10
123.2802823022451
 20
103.54243862668849
 30
0.0
 11
126.3282831594791
 21
100.4944387007771
 31
0.0
  0
LINE
  5
7EE9
  8
3
 10
126.3282831594791
 20
97.192438703429573
 30
0.0
 11
125.1542826019671
 21
96.018438611578816
 31
0.0
  0
LINE
  5
7EEA
  8
0
 10
143.14628269751341
 20
96.01843861157883
 30
0.0
 11
119.16228261072889
 21
96.018438611578787
 31
0.0
  0
LINE
  5
7EEB
  8
3
 10
123.2802825350758
 20
100.367438665059
 30
0.0
 11
126.3282831594791
 21
97.319438506317013
 31
0.0
  0
LINE
  5
7EF2
  8
3
 10
129.50328312110861
 20
97.192438703429573
 30
0.0
 11
128.32928279642721
 21
96.018438611578816
 31
0.0
  0
LINE
  5
7EF4
  8
3
 10
126.45528249670529
 20
100.367438665059
 30
0.0
 11
129.50328312110861
 21
97.319438506317013
 31
0.0
  0
LINE
  5
7EF6
  8
3
 10
129.63028315682669
 20
97.319438506317013
 30
0.0
 11
132.67828191858499
 21
100.367438665059
 31
0.0
  0
LINE
  5
7EF7
  8
3
 10
129.63028315682669
 20
97.319438506317013
 30
0.0
 11
129.50328312110861
 21
97.319438506317013
 31
0.0
  0
LINE
  5
7EF8
  8
3
 10
129.50328312110861
 20
97.192438703429573
 30
0.0
 11
129.63028315682669
 21
97.192438703429573
 31
0.0
  0
LINE
  5
7EF9
  8
3
 10
129.50328312110861
 20
97.192438703429573
 30
0.0
 11
129.50328312110861
 21
97.319438506317013
 31
0.0
  0
LINE
  5
7EFA
  8
3
 10
129.63028315682669
 20
97.319438506317013
 30
0.0
 11
129.63028315682669
 21
97.192438703429573
 31
0.0
  0
LINE
  5
7EFC
  8
3
 10
130.80428275391239
 20
96.018438611578816
 30
0.0
 11
129.63028315682669
 21
97.192438703429573
 31
0.0
  0
LINE
  5
7EFD
  8
3
 10
126.4552829623666
 20
97.319438506317013
 30
0.0
 11
129.50328218978609
 21
100.367438665059
 31
0.0
  0
LINE
  5
7EFE
  8
3
 10
127.97928269249169
 20
108.0184387158869
 30
0.0
 11
127.97928269249159
 21
96.018438611578816
 31
0.0
  0
LINE
  5
7EFF
  8
3
 10
126.4552829623666
 20
97.319438506317013
 30
0.0
 11
126.3282831594791
 21
97.319438506317013
 31
0.0
  0
LINE
  5
7F00
  8
3
 10
126.4552829623666
 20
97.319438506317013
 30
0.0
 11
126.4552829623666
 21
97.192438703429573
 31
0.0
  0
LINE
  5
7F01
  8
3
 10
126.3282831594791
 20
97.192438703429573
 30
0.0
 11
126.4552829623666
 21
97.192438703429573
 31
0.0
  0
LINE
  5
7F02
  8
3
 10
126.3282831594791
 20
97.192438703429573
 30
0.0
 11
126.3282831594791
 21
97.319438506317013
 31
0.0
  0
LINE
  5
7F05
  8
3
 10
127.6292828213867
 20
96.018438611578816
 30
0.0
 11
126.4552829623666
 21
97.192438703429573
 31
0.0
  0
LINE
  5
7F06
  8
3
 10
126.45528226387469
 20
103.54243862668849
 30
0.0
 11
129.50328312110861
 21
100.4944387007771
 31
0.0
  0
LINE
  5
7F08
  8
3
 10
129.63028315682669
 20
100.4944387007771
 30
0.0
 11
132.6782821514156
 21
103.54243862668859
 31
0.0
  0
LINE
  5
7F09
  8
3
 10
129.50328312110861
 20
100.367438665059
 30
0.0
 11
129.63028315682669
 21
100.367438665059
 31
0.0
  0
LINE
  5
7F0A
  8
3
 10
129.50328312110861
 20
100.367438665059
 30
0.0
 11
129.50328312110861
 21
100.4944387007771
 31
0.0
  0
LINE
  5
7F0B
  8
3
 10
129.63028315682669
 20
100.4944387007771
 30
0.0
 11
129.63028315682669
 21
100.367438665059
 31
0.0
  0
LINE
  5
7F0C
  8
3
 10
129.63028315682669
 20
100.4944387007771
 30
0.0
 11
129.50328312110861
 21
100.4944387007771
 31
0.0
  0
LINE
  5
7F0D
  8
3
 10
126.4552829623666
 20
100.4944387007771
 30
0.0
 11
129.50328242261671
 21
103.54243862668849
 31
0.0
  0
LINE
  5
7F0E
  8
3
 10
126.3282831594791
 20
100.367438665059
 30
0.0
 11
126.4552829623666
 21
100.367438665059
 31
0.0
  0
LINE
  5
7F0F
  8
3
 10
126.3282831594791
 20
100.367438665059
 30
0.0
 11
126.3282831594791
 21
100.4944387007771
 31
0.0
  0
LINE
  5
7F10
  8
3
 10
126.4552829623666
 20
100.4944387007771
 30
0.0
 11
126.3282831594791
 21
100.4944387007771
 31
0.0
  0
LINE
  5
7F11
  8
3
 10
126.4552829623666
 20
100.4944387007771
 30
0.0
 11
126.4552829623666
 21
100.367438665059
 31
0.0
  0
LINE
  5
7F19
  8
3
 10
123.2802827679064
 20
97.319438506317013
 30
0.0
 11
123.153282965019
 21
97.319438506317013
 31
0.0
  0
LINE
  5
7F1A
  8
3
 10
123.153282965019
 20
97.192438703429573
 30
0.0
 11
123.2802827679064
 21
97.192438703429573
 31
0.0
  0
LINE
  5
7F1B
  8
3
 10
123.2802827679064
 20
97.319438506317013
 30
0.0
 11
126.3282824609872
 21
100.367438665059
 31
0.0
  0
LINE
  5
7F1C
  8
3
 10
124.8042827308622
 20
108.0184387158869
 30
0.0
 11
124.8042827308621
 21
96.018438611578816
 31
0.0
  0
LINE
  5
7F1D
  8
3
 10
123.2802827679064
 20
97.319438506317013
 30
0.0
 11
123.2802827679064
 21
97.192438703429573
 31
0.0
  0
LINE
  5
7F1E
  8
3
 10
124.4542828597572
 20
96.018438611578816
 30
0.0
 11
123.2802827679064
 21
97.192438703429573
 31
0.0
  0
LINE
  5
7F22
  8
3
 10
121.629282536402
 20
108.0184387158869
 30
0.0
 11
121.629282536402
 21
96.018438611578816
 31
0.0
  0
LINE
  5
7F23
  8
3
 10
120.1052823406157
 20
100.367438665059
 30
0.0
 11
123.153282965019
 21
97.319438506317013
 31
0.0
  0
LINE
  5
7F25
  8
3
 10
123.153282965019
 20
97.192438703429573
 30
0.0
 11
123.153282965019
 21
97.319438506317013
 31
0.0
  0
LINE
  5
7F26
  8
3
 10
123.153282965019
 20
97.192438703429573
 30
0.0
 11
121.9792828731682
 21
96.018438611578816
 31
0.0
  0
LINE
  5
7F29
  8
3
 10
123.153282965019
 20
100.367438665059
 30
0.0
 11
123.2802827679064
 21
100.367438665059
 31
0.0
  0
LINE
  5
7F2A
  8
3
 10
123.2802827679064
 20
100.4944387007771
 30
0.0
 11
123.153282965019
 21
100.4944387007771
 31
0.0
  0
LINE
  5
7F2C
  8
3
 10
123.2802827679064
 20
100.4944387007771
 30
0.0
 11
126.3282826938178
 21
103.54243862668849
 31
0.0
  0
LINE
  5
7F2D
  8
3
 10
123.2802827679064
 20
100.4944387007771
 30
0.0
 11
123.2802827679064
 21
100.367438665059
 31
0.0
  0
LINE
  5
7F2E
  8
3
 10
120.105282107785
 20
103.54243862668849
 30
0.0
 11
123.153282965019
 21
100.4944387007771
 31
0.0
  0
LINE
  5
7F2F
  8
3
 10
123.153282965019
 20
100.367438665059
 30
0.0
 11
123.153282965019
 21
100.4944387007771
 31
0.0
  0
LINE
  5
7F4C
  8
3
 10
142.20328226913469
 20
106.8444386240361
 30
0.0
 11
142.33028207202219
 21
106.8444386240361
 31
0.0
  0
LINE
  5
7F4E
  8
3
 10
142.33028207202219
 20
106.7174388211487
 30
0.0
 11
142.20328226913469
 21
106.7174388211487
 31
0.0
  0
LINE
  5
7F4F
  8
3
 10
142.20328226913469
 20
103.66943866240661
 30
0.0
 11
142.33028207202219
 21
103.66943866240661
 31
0.0
  0
LINE
  5
7F50
  8
3
 10
142.33028207202219
 20
103.54243862668849
 30
0.0
 11
142.20328226913469
 21
103.54243862668849
 31
0.0
  0
LINE
  5
7F51
  8
3
 10
143.65428284038569
 20
105.1934386253623
 30
0.0
 11
118.6542824678566
 21
105.1934386253623
 31
0.0
  0
LINE
  5
7F53
  8
3
 10
142.33028207202219
 20
106.8444386240361
 30
0.0
 11
143.45228269924189
 21
107.96643878559451
 31
0.0
  0
LINE
  5
7F56
  8
3
 10
142.33028207202219
 20
103.54243862668849
 30
0.0
 11
142.33028207202219
 21
103.66943866240661
 31
0.0
  0
LINE
  5
7F57
  8
3
 10
142.33028207202219
 20
103.66943866240661
 30
0.0
 11
143.65428284038569
 21
104.99343873227819
 31
0.0
  0
LINE
  5
7F58
  8
3
 10
142.33028207202219
 20
106.7174388211487
 30
0.0
 11
142.33028207202219
 21
106.8444386240361
 31
0.0
  0
LINE
  5
7F5A
  8
3
 10
143.65428284038569
 20
105.3934385184465
 30
0.0
 11
142.33028207202219
 21
106.7174388211487
 31
0.0
  0
LINE
  5
7F5C
  8
0
 10
143.65428284038569
 20
107.76443864445071
 30
0.0
 11
143.40028276894949
 21
108.0184387158869
 31
0.0
  0
LINE
  5
7F60
  8
3
 10
129.63028315682669
 20
106.7174385883181
 30
0.0
 11
132.6782821514156
 21
103.66943866240661
 31
0.0
  0
LINE
  5
7F63
  8
3
 10
135.98028214876319
 20
106.8444386240361
 30
0.0
 11
137.15428270627521
 21
108.0184387158869
 31
0.0
  0
LINE
  5
7F67
  8
3
 10
135.98028214876319
 20
103.66943866240661
 30
0.0
 11
139.0282832388279
 21
106.7174388211487
 31
0.0
  0
LINE
  5
7F69
  8
3
 10
139.15528234322329
 20
106.8444386240361
 30
0.0
 11
140.32928243507411
 21
108.0184387158869
 31
0.0
  0
LINE
  5
7F6B
  8
3
 10
137.85428244848509
 20
108.0184387158869
 30
0.0
 11
139.02828254033591
 21
106.8444386240361
 31
0.0
  0
LINE
  5
7F6C
  8
3
 10
141.02928217728399
 20
108.0184387158869
 30
0.0
 11
142.20328226913469
 21
106.8444386240361
 31
0.0
  0
LINE
  5
7F6F
  8
3
 10
139.15528234322329
 20
103.66943866240661
 30
0.0
 11
142.20328343328799
 21
106.7174388211487
 31
0.0
  0
LINE
  5
7F70
  8
3
 10
139.15528304171531
 20
106.7174388211487
 30
0.0
 11
142.20328226913469
 21
103.66943866240661
 31
0.0
  0
LINE
  5
7F71
  8
3
 10
142.20328226913469
 20
103.66943866240661
 30
0.0
 11
142.20328226913469
 21
103.54243862668849
 31
0.0
  0
LINE
  5
7F72
  8
3
 10
142.20328226913469
 20
106.8444386240361
 30
0.0
 11
142.20328226913469
 21
106.7174388211487
 31
0.0
  0
LINE
  5
7F74
  8
3
 10
135.98028238159381
 20
106.7174388211487
 30
0.0
 11
139.02828254033591
 21
103.66943866240661
 31
0.0
  0
LINE
  5
7F75
  8
3
 10
139.02828254033591
 20
103.66943866240661
 30
0.0
 11
139.15528234322329
 21
103.66943866240661
 31
0.0
  0
LINE
  5
7F76
  8
3
 10
139.15528234322329
 20
103.54243862668849
 30
0.0
 11
139.02828254033591
 21
103.54243862668849
 31
0.0
  0
LINE
  5
7F77
  8
3
 10
139.02828254033591
 20
103.66943866240661
 30
0.0
 11
139.02828254033591
 21
103.54243862668849
 31
0.0
  0
LINE
  5
7F78
  8
3
 10
139.15528234322329
 20
103.54243862668849
 30
0.0
 11
139.15528234322329
 21
103.66943866240661
 31
0.0
  0
LINE
  5
7F79
  8
3
 10
139.02828254033591
 20
106.8444386240361
 30
0.0
 11
139.02828254033591
 21
106.7174388211487
 31
0.0
  0
LINE
  5
7F7A
  8
3
 10
139.15528234322329
 20
106.7174388211487
 30
0.0
 11
139.15528234322329
 21
106.8444386240361
 31
0.0
  0
LINE
  5
7F7B
  8
3
 10
139.15528234322329
 20
106.7174388211487
 30
0.0
 11
139.02828254033591
 21
106.7174388211487
 31
0.0
  0
LINE
  5
7F7C
  8
3
 10
139.02828254033591
 20
106.8444386240361
 30
0.0
 11
139.15528234322329
 21
106.8444386240361
 31
0.0
  0
LINE
  5
7F85
  8
3
 10
131.5042825543299
 20
108.0184387158869
 30
0.0
 11
132.6782821514156
 21
106.8444386240361
 31
0.0
  0
LINE
  5
7F86
  8
3
 10
132.8052821871336
 20
106.8444386240361
 30
0.0
 11
133.97928251181509
 21
108.0184387158869
 31
0.0
  0
LINE
  5
7F88
  8
3
 10
134.67928248685561
 20
108.0184387158869
 30
0.0
 11
135.8532823458757
 21
106.8444386240361
 31
0.0
  0
LINE
  5
7F8A
  8
3
 10
132.8052821871336
 20
103.66943866240661
 30
0.0
 11
135.85328327719839
 21
106.7174388211487
 31
0.0
  0
LINE
  5
7F8B
  8
3
 10
132.805282652795
 20
106.7174388211487
 30
0.0
 11
135.8532823458757
 21
103.66943866240661
 31
0.0
  0
LINE
  5
7F8C
  8
3
 10
135.98028214876319
 20
103.54243862668849
 30
0.0
 11
135.8532823458757
 21
103.54243862668849
 31
0.0
  0
LINE
  5
7F8D
  8
3
 10
135.8532823458757
 20
103.66943866240661
 30
0.0
 11
135.98028214876319
 21
103.66943866240661
 31
0.0
  0
LINE
  5
7F8E
  8
3
 10
135.98028214876319
 20
103.54243862668849
 30
0.0
 11
135.98028214876319
 21
103.66943866240661
 31
0.0
  0
LINE
  5
7F8F
  8
3
 10
135.8532823458757
 20
103.66943866240661
 30
0.0
 11
135.8532823458757
 21
103.54243862668849
 31
0.0
  0
LINE
  5
7F90
  8
3
 10
135.8532823458757
 20
106.8444386240361
 30
0.0
 11
135.8532823458757
 21
106.7174388211487
 31
0.0
  0
LINE
  5
7F91
  8
3
 10
135.8532823458757
 20
106.8444386240361
 30
0.0
 11
135.98028214876319
 21
106.8444386240361
 31
0.0
  0
LINE
  5
7F92
  8
3
 10
135.98028214876319
 20
106.7174388211487
 30
0.0
 11
135.98028214876319
 21
106.8444386240361
 31
0.0
  0
LINE
  5
7F93
  8
3
 10
135.98028214876319
 20
106.7174388211487
 30
0.0
 11
135.8532823458757
 21
106.7174388211487
 31
0.0
  0
LINE
  5
7F95
  8
3
 10
132.6782821514156
 20
103.66943866240661
 30
0.0
 11
132.6782821514156
 21
103.54243862668849
 31
0.0
  0
LINE
  5
7F96
  8
3
 10
132.8052821871336
 20
103.54243862668849
 30
0.0
 11
132.8052821871336
 21
103.66943866240661
 31
0.0
  0
LINE
  5
7F97
  8
3
 10
132.6782821514156
 20
103.66943866240661
 30
0.0
 11
132.8052821871336
 21
103.66943866240661
 31
0.0
  0
LINE
  5
7F98
  8
3
 10
132.8052821871336
 20
103.54243862668849
 30
0.0
 11
132.6782821514156
 21
103.54243862668849
 31
0.0
  0
LINE
  5
7F99
  8
3
 10
132.6782821514156
 20
106.8444386240361
 30
0.0
 11
132.6782821514156
 21
106.7174388211487
 31
0.0
  0
LINE
  5
7F9A
  8
3
 10
132.8052821871336
 20
106.7174388211487
 30
0.0
 11
132.8052821871336
 21
106.8444386240361
 31
0.0
  0
LINE
  5
7F9B
  8
3
 10
132.6782821514156
 20
106.8444386240361
 30
0.0
 11
132.8052821871336
 21
106.8444386240361
 31
0.0
  0
LINE
  5
7F9C
  8
3
 10
132.8052821871336
 20
106.7174388211487
 30
0.0
 11
132.6782821514156
 21
106.7174388211487
 31
0.0
  0
LINE
  5
7FA0
  8
3
 10
126.3282831594791
 20
106.8444386240361
 30
0.0
 11
125.1542826019671
 21
108.0184387158869
 31
0.0
  0
LINE
  5
7FA4
  8
3
 10
126.3282831594791
 20
103.66943866240661
 30
0.0
 11
123.2802820694144
 21
106.7174388211487
 31
0.0
  0
LINE
  5
7FA5
  8
3
 10
129.50328312110861
 20
106.8444386240361
 30
0.0
 11
128.32928279642721
 21
108.0184387158869
 31
0.0
  0
LINE
  5
7FA7
  8
3
 10
127.6292828213867
 20
108.0184387158869
 30
0.0
 11
126.4552829623666
 21
106.8444386240361
 31
0.0
  0
LINE
  5
7FA9
  8
3
 10
130.80428275391239
 20
108.0184387158869
 30
0.0
 11
129.63028315682669
 21
106.8444386240361
 31
0.0
  0
LINE
  5
7FAB
  8
3
 10
129.63028315682681
 20
103.54243866549371
 30
0.0
 11
126.45528203104389
 21
106.7174388211487
 31
0.0
  0
LINE
  5
7FAD
  8
3
 10
132.67828238424619
 20
106.7174388211487
 30
0.0
 11
129.63028315682669
 21
103.66943866240661
 31
0.0
  0
LINE
  5
7FAE
  8
3
 10
129.50328312110861
 20
103.54243862668849
 30
0.0
 11
129.50328312110861
 21
103.66943866240661
 31
0.0
  0
LINE
  5
7FAF
  8
3
 10
129.50328312110861
 20
103.66943866240661
 30
0.0
 11
129.63028315682669
 21
103.66943866240661
 31
0.0
  0
LINE
  5
7FB0
  8
3
 10
129.63028315682669
 20
103.66943866240661
 30
0.0
 11
129.63028315682669
 21
103.54243862668849
 31
0.0
  0
LINE
  5
7FB1
  8
3
 10
129.63028315682669
 20
103.54243862668849
 30
0.0
 11
129.50328312110861
 21
103.54243862668849
 31
0.0
  0
LINE
  5
7FB2
  8
3
 10
129.50328312110861
 20
106.8444386240361
 30
0.0
 11
129.63028315682669
 21
106.8444386240361
 31
0.0
  0
LINE
  5
7FB3
  8
3
 10
129.50328312110861
 20
106.7174388211487
 30
0.0
 11
129.50328312110861
 21
106.8444386240361
 31
0.0
  0
LINE
  5
7FB4
  8
3
 10
129.63028315682669
 20
106.8444386240361
 30
0.0
 11
129.63028315682669
 21
106.7174388211487
 31
0.0
  0
LINE
  5
7FB5
  8
3
 10
129.63028315682669
 20
106.7174388211487
 30
0.0
 11
129.50328312110861
 21
106.7174388211487
 31
0.0
  0
LINE
  5
7FB7
  8
3
 10
129.50328312110869
 20
106.71743928681011
 30
0.0
 11
126.4552829623666
 21
103.66943866240661
 31
0.0
  0
LINE
  5
7FB8
  8
3
 10
126.3282831594791
 20
103.54243862668849
 30
0.0
 11
126.3282831594791
 21
103.66943866240661
 31
0.0
  0
LINE
  5
7FB9
  8
3
 10
126.3282831594791
 20
103.66943866240661
 30
0.0
 11
126.4552829623666
 21
103.66943866240661
 31
0.0
  0
LINE
  5
7FBA
  8
3
 10
126.4552829623666
 20
103.66943866240661
 30
0.0
 11
126.4552829623666
 21
103.54243862668849
 31
0.0
  0
LINE
  5
7FBB
  8
3
 10
126.4552829623666
 20
103.54243862668849
 30
0.0
 11
126.3282831594791
 21
103.54243862668849
 31
0.0
  0
LINE
  5
7FBC
  8
3
 10
126.3282831594791
 20
106.7174388211487
 30
0.0
 11
126.3282831594791
 21
106.8444386240361
 31
0.0
  0
LINE
  5
7FBD
  8
3
 10
126.3282831594791
 20
106.8444386240361
 30
0.0
 11
126.4552829623666
 21
106.8444386240361
 31
0.0
  0
LINE
  5
7FBE
  8
3
 10
126.4552829623666
 20
106.8444386240361
 30
0.0
 11
126.4552829623666
 21
106.7174388211487
 31
0.0
  0
LINE
  5
7FBF
  8
3
 10
126.4552829623666
 20
106.7174388211487
 30
0.0
 11
126.3282831594791
 21
106.7174388211487
 31
0.0
  0
LINE
  5
7FC6
  8
3
 10
123.153282965019
 20
106.8444386240361
 30
0.0
 11
121.9792828731682
 21
108.0184387158869
 31
0.0
  0
LINE
  5
7FC7
  8
3
 10
124.4542828597572
 20
108.0184387158869
 30
0.0
 11
123.2802827679064
 21
106.8444386240361
 31
0.0
  0
LINE
  5
7FC9
  8
3
 10
123.153282965019
 20
106.8444386240361
 30
0.0
 11
123.2802827679064
 21
106.8444386240361
 31
0.0
  0
LINE
  5
7FCA
  8
3
 10
123.2802827679064
 20
106.7174388211487
 30
0.0
 11
123.153282965019
 21
106.7174388211487
 31
0.0
  0
LINE
  5
7FCC
  8
3
 10
123.153282965019
 20
103.66943866240661
 30
0.0
 11
123.2802827679064
 21
103.66943866240661
 31
0.0
  0
LINE
  5
7FCD
  8
3
 10
123.2802827679064
 20
103.54243862668849
 30
0.0
 11
123.153282965019
 21
103.54243862668849
 31
0.0
  0
LINE
  5
7FCE
  8
3
 10
126.3282829266485
 20
106.7174388211487
 30
0.0
 11
123.2802827679064
 21
103.66943866240661
 31
0.0
  0
LINE
  5
7FCF
  8
3
 10
123.2802827679064
 20
103.66943866240661
 30
0.0
 11
123.2802827679064
 21
103.54243862668849
 31
0.0
  0
LINE
  5
7FD0
  8
3
 10
123.2802827679064
 20
106.8444386240361
 30
0.0
 11
123.2802827679064
 21
106.7174388211487
 31
0.0
  0
LINE
  5
7FD2
  8
3
 10
123.153282965019
 20
103.66943866240661
 30
0.0
 11
120.1052818749542
 21
106.7174388211487
 31
0.0
  0
LINE
  5
7FD3
  8
3
 10
123.153282965019
 20
103.54243862668849
 30
0.0
 11
123.153282965019
 21
103.66943866240661
 31
0.0
  0
LINE
  5
7FD4
  8
3
 10
123.153282965019
 20
106.7174388211487
 30
0.0
 11
123.153282965019
 21
106.8444386240361
 31
0.0
  0
LINE
  5
80B0
  8
0
 10
82.751547539444388
 20
104.99343873227819
 30
0.0
 11
82.751547539444388
 21
102.21843860047269
 31
0.0
  0
LINE
  5
80B2
  8
2
 10
80.568150331930937
 20
101.41843861157879
 30
0.0
 11
80.568150331930937
 21
107.63743866373279
 31
0.0
  0
LINE
  5
80B4
  8
0
 10
82.751547539444388
 20
102.21843860047269
 30
0.0
 11
84.075547376485304
 21
103.54243862668849
 31
0.0
  0
LINE
  5
80B5
  8
3
 10
118.6542824678566
 20
102.21843860047269
 30
0.0
 11
119.97828323622009
 21
103.54243862668849
 31
0.0
  0
LINE
  5
80B6
  8
1
 10
71.575547190220817
 20
93.518438611578787
 30
0.0
 11
71.575547190220789
 21
110.5184387158869
 31
0.0
  0
LINE
  5
80B7
  8
0
 10
59.075547003956267
 20
96.526438754451135
 30
0.0
 11
59.075547003956267
 21
107.76443864445071
 31
0.0
  0
LINE
  5
80B9
  8
2
 10
62.582944048510633
 20
101.41843861157879
 30
0.0
 11
80.568150331930937
 21
101.41843861157879
 31
0.0
  0
LINE
  5
80BA
  8
0
 10
82.901547284634546
 20
96.018438611578816
 30
0.0
 11
59.583547146828629
 21
96.018438611578787
 31
0.0
  0
LINE
  5
80BB
  8
0
 10
59.075547003956267
 20
96.526438754451135
 30
0.0
 11
82.751547539444388
 21
96.526438754451135
 31
0.0
  0
LINE
  5
80BC
  8
2
 10
77.075547190220846
 20
96.399438663732894
 30
0.0
 11
66.075547190220789
 21
96.399438663732894
 31
0.0
  0
LINE
  5
80BE
  8
3
 10
119.97828323622009
 20
100.367438665059
 30
0.0
 11
118.6542824678566
 21
99.043438595187524
 31
0.0
  0
LINE
  5
80BF
  8
3
 10
118.6542824678566
 20
98.643438809019202
 30
0.0
 11
119.97828323622009
 21
97.319438506317013
 31
0.0
  0
LINE
  5
80C0
  8
0
 10
118.6542824678566
 20
107.76443864445071
 30
0.0
 11
118.6542824678566
 21
96.526438754451135
 31
0.0
  0
LINE
  5
80C2
  8
0
 10
118.6542824678566
 20
96.526438754451135
 30
0.0
 11
119.16228261072889
 21
96.018438611578816
 31
0.0
  0
LINE
  5
80C3
  8
3
 10
120.1052830391075
 20
97.319438506317013
 30
0.0
 11
119.97828323622009
 21
97.319438506317013
 31
0.0
  0
LINE
  5
80C4
  8
3
 10
120.1052830391075
 20
97.319438506317013
 30
0.0
 11
120.1052830391075
 21
97.192438703429573
 31
0.0
  0
LINE
  5
80C5
  8
3
 10
119.97828323622009
 20
97.192438703429573
 30
0.0
 11
120.1052830391075
 21
97.192438703429573
 31
0.0
  0
LINE
  5
80C6
  8
3
 10
119.97828323622009
 20
97.192438703429573
 30
0.0
 11
119.97828323622009
 21
97.319438506317013
 31
0.0
  0
LINE
  5
80C7
  8
3
 10
119.97828323622009
 20
97.192438703429573
 30
0.0
 11
118.9832824118879
 21
96.197438810419911
 31
0.0
  0
LINE
  5
80CA
  8
3
 10
118.6542824678566
 20
101.81843872699289
 30
0.0
 11
119.97828323622009
 21
100.4944387007771
 31
0.0
  0
LINE
  5
80CB
  8
3
 10
119.97828323622009
 20
100.367438665059
 30
0.0
 11
120.1052830391075
 21
100.367438665059
 31
0.0
  0
LINE
  5
80CC
  8
3
 10
119.97828323622009
 20
100.367438665059
 30
0.0
 11
119.97828323622009
 21
100.4944387007771
 31
0.0
  0
LINE
  5
80CD
  8
3
 10
120.1052830391075
 20
100.4944387007771
 30
0.0
 11
119.97828323622009
 21
100.4944387007771
 31
0.0
  0
LINE
  5
80CE
  8
3
 10
120.1052830391075
 20
100.4944387007771
 30
0.0
 11
120.1052830391075
 21
100.367438665059
 31
0.0
  0
LINE
  5
80D1
  8
0
 10
82.751547539444388
 20
101.81843872699289
 30
0.0
 11
82.751547539444388
 21
99.043438595187524
 31
0.0
  0
LINE
  5
80D3
  8
0
 10
84.075547376485304
 20
100.367438665059
 30
0.0
 11
82.751547539444388
 21
99.043438595187524
 31
0.0
  0
LINE
  5
80D4
  8
0
 10
82.751547539444388
 20
99.043438595187524
 30
0.0
 11
82.551546947868289
 21
98.84343870210337
 31
0.0
  0
LINE
  5
80D5
  8
0
 10
82.551546947868289
 20
98.84343870210337
 30
0.0
 11
82.751547539444388
 21
98.643438809019202
 31
0.0
  0
LINE
  5
80D6
  8
0
 10
82.751547539444388
 20
98.643438809019202
 30
0.0
 11
82.751547539444388
 21
96.526438754451135
 31
0.0
  0
LINE
  5
80D7
  8
0
 10
82.751547539444388
 20
98.643438809019202
 30
0.0
 11
84.075547376485304
 21
97.319438506317013
 31
0.0
  0
LINE
  5
80D8
  8
0
 10
83.080547483475627
 20
96.197438810419911
 30
0.0
 11
82.901547284634546
 21
96.018438611578816
 31
0.0
  0
LINE
  5
80D9
  8
0
 10
82.751547539444388
 20
96.526438754451135
 30
0.0
 11
83.080547483475627
 21
96.197438810419911
 31
0.0
  0
LINE
  5
80DA
  8
0
 10
84.075547376485304
 20
97.192438703429573
 30
0.0
 11
84.075547376485304
 21
97.319438506317013
 31
0.0
  0
LINE
  5
80DB
  8
0
 10
84.075547376485304
 20
97.192438703429573
 30
0.0
 11
83.080547483475627
 21
96.197438810419911
 31
0.0
  0
LINE
  5
80DD
  8
0
 10
82.551546947868289
 20
102.01843866373279
 30
0.0
 11
82.751547539444388
 21
102.21843860047269
 31
0.0
  0
LINE
  5
80DE
  8
0
 10
82.551546947868289
 20
102.01843866373279
 30
0.0
 11
82.751547539444388
 21
101.81843872699289
 31
0.0
  0
LINE
  5
80DF
  8
0
 10
82.751547539444388
 20
101.81843872699289
 30
0.0
 11
84.075547376485304
 21
100.4944387007771
 31
0.0
  0
LINE
  5
80E0
  8
0
 10
84.075547376485304
 20
100.367438665059
 30
0.0
 11
84.075547376485304
 21
100.4944387007771
 31
0.0
  0
LINE
  5
80E1
  8
2
 10
77.075547190220846
 20
96.399438663732894
 30
0.0
 11
77.075547160394706
 21
101.41843861157879
 31
0.0
  0
LINE
  5
80E2
  8
2
 10
77.456547034742073
 20
96.018438611578816
 30
0.0
 11
77.075547190220846
 21
96.399438663732894
 31
0.0
  0
LINE
  5
80E3
  8
2
 10
66.075547220046872
 20
101.41843861157879
 30
0.0
 11
66.075547190220789
 21
96.399438663732894
 31
0.0
  0
LINE
  5
80E4
  8
2
 10
66.075547190220789
 20
96.399438663732894
 30
0.0
 11
65.694547345699505
 21
96.018438611578816
 31
0.0
  0
LINE
  5
80E7
  8
0
 10
62.275547003956277
 20
96.526438754451135
 30
0.0
 11
62.485968163819749
 21
96.018438611578816
 31
0.0
  0
LINE
  5
80E8
  8
0
 10
59.075547003956267
 20
96.526438754451135
 30
0.0
 11
59.583547146828607
 21
96.018438611578816
 31
0.0
  0
LINE
  5
80F2
  8
0
 10
82.751547539444388
 20
107.76443864445071
 30
0.0
 11
59.075547003956267
 21
107.76443864445071
 31
0.0
  0
LINE
  5
80F3
  8
0
 10
59.329547541053728
 20
108.0184387158869
 30
0.0
 11
82.901547284634546
 21
108.0184387158869
 31
0.0
  0
LINE
  5
80F4
  8
2
 10
62.582944048510633
 20
107.63743866373279
 30
0.0
 11
80.568150331930937
 21
107.63743866373279
 31
0.0
  0
LINE
  5
80F6
  8
3
 10
119.97828323622009
 20
106.8444386240361
 30
0.0
 11
118.8562826090004
 21
107.96643878559451
 31
0.0
  0
LINE
  5
80F8
  8
3
 10
119.97828323622009
 20
103.54243862668849
 30
0.0
 11
119.97828323622009
 21
103.66943866240661
 31
0.0
  0
LINE
  5
80F9
  8
3
 10
119.97828323622009
 20
103.66943866240661
 30
0.0
 11
120.1052830391075
 21
103.66943866240661
 31
0.0
  0
LINE
  5
80FA
  8
3
 10
120.1052830391075
 20
103.66943866240661
 30
0.0
 11
120.1052830391075
 21
103.54243862668849
 31
0.0
  0
LINE
  5
80FB
  8
3
 10
120.1052830391075
 20
103.54243862668849
 30
0.0
 11
119.97828323622009
 21
103.54243862668849
 31
0.0
  0
LINE
  5
80FC
  8
3
 10
119.97828323622009
 20
103.66943866240661
 30
0.0
 11
118.6542824678566
 21
104.99343873227819
 31
0.0
  0
LINE
  5
80FE
  8
3
 10
119.97828323622009
 20
106.7174388211487
 30
0.0
 11
119.97828323622009
 21
106.8444386240361
 31
0.0
  0
LINE
  5
80FF
  8
3
 10
119.97828323622009
 20
106.8444386240361
 30
0.0
 11
120.1052830391075
 21
106.8444386240361
 31
0.0
  0
LINE
  5
8100
  8
3
 10
120.1052830391075
 20
106.8444386240361
 30
0.0
 11
120.1052830391075
 21
106.7174388211487
 31
0.0
  0
LINE
  5
8101
  8
3
 10
120.1052830391075
 20
106.7174388211487
 30
0.0
 11
119.97828323622009
 21
106.7174388211487
 31
0.0
  0
LINE
  5
8102
  8
3
 10
118.6542824678566
 20
105.3934385184465
 30
0.0
 11
119.97828323622009
 21
106.7174388211487
 31
0.0
  0
LINE
  5
8103
  8
0
 10
118.9082825392928
 20
108.0184387158869
 30
0.0
 11
118.6542824678566
 21
107.76443864445071
 31
0.0
  0
LINE
  5
8105
  8
0
 10
82.751547539444388
 20
107.76443864445071
 30
0.0
 11
82.751547539444388
 21
105.3934385184465
 31
0.0
  0
LINE
  5
8107
  8
0
 10
84.075547376485304
 20
106.8444386240361
 30
0.0
 11
82.953546749265627
 21
107.96643878559451
 31
0.0
  0
LINE
  5
8108
  8
0
 10
82.551546947868289
 20
105.1934386253623
 30
0.0
 11
82.751547539444388
 21
105.3934385184465
 31
0.0
  0
LINE
  5
8109
  8
0
 10
82.751547539444388
 20
104.99343873227819
 30
0.0
 11
82.551546947868289
 21
105.1934386253623
 31
0.0
  0
LINE
  5
810A
  8
0
 10
84.075547376485304
 20
103.54243862668849
 30
0.0
 11
84.075547376485304
 21
103.66943866240661
 31
0.0
  0
LINE
  5
810B
  8
0
 10
84.075547376485304
 20
103.66943866240661
 30
0.0
 11
82.751547539444388
 21
104.99343873227819
 31
0.0
  0
LINE
  5
810C
  8
0
 10
84.075547376485304
 20
106.7174388211487
 30
0.0
 11
84.075547376485304
 21
106.8444386240361
 31
0.0
  0
LINE
  5
810D
  8
0
 10
82.751547539444388
 20
105.3934385184465
 30
0.0
 11
84.075547376485304
 21
106.7174388211487
 31
0.0
  0
LINE
  5
810E
  8
0
 10
82.953546749265627
 20
107.96643878559451
 30
0.0
 11
82.751547539444388
 21
107.76443864445071
 31
0.0
  0
LINE
  5
810F
  8
0
 10
82.901547284634546
 20
108.0184387158869
 30
0.0
 11
82.953546749265627
 21
107.96643878559451
 31
0.0
  0
LINE
  5
8110
  8
2
 10
80.568150331930937
 20
107.63743866373279
 30
0.0
 11
80.94915017872313
 21
108.0184387158869
 31
0.0
  0
LINE
  5
8114
  8
0
 10
62.380757583888013
 20
108.0184387158869
 30
0.0
 11
62.275547003956277
 21
107.76443864445071
 31
0.0
  0
LINE
  5
8115
  8
0
 10
59.329547541053728
 20
108.0184387158869
 30
0.0
 11
59.075547003956267
 21
107.76443864445071
 31
0.0
  0
LINE
  5
8376
  8
3
 10
137.50428281021081
 20
108.0184387158869
 30
0.0
 11
137.50428281021081
 21
96.01843861157883
 31
0.0
  0
LINE
  5
8377
  8
3
 10
134.3292828485813
 20
108.0184387158869
 30
0.0
 11
134.3292828485813
 21
96.01843861157883
 31
0.0
  0
LINE
  5
8378
  8
3
 10
131.15428265412109
 20
108.0184387158869
 30
0.0
 11
131.15428265412109
 21
96.01843861157883
 31
0.0
  0
LINE
  5
8379
  8
3
 10
140.67928277184029
 20
108.018438715887
 30
0.0
 11
140.67928277184029
 21
96.018438611578887
 31
0.0
  0
LINE
  5
83B7
  8
0
 10
62.275547003956277
 20
96.526438754451135
 30
0.0
 11
62.275547003956277
 21
107.76443864445071
 31
0.0
  0
LINE
  5
83EB
  8
2
 10
62.582944048510633
 20
101.41843861157879
 30
0.0
 11
62.582944048510633
 21
107.63743866373279
 31
0.0
  0
LINE
  5
83EC
  8
2
 10
62.582944048510633
 20
107.63743866373279
 30
0.0
 11
62.201944201718447
 21
108.0184387158869
 31
0.0
  0
LINE
  5
83ED
  8
0
 10
200.0330183042862
 20
96.526438754451135
 30
0.0
 11
200.0330183042862
 21
107.76443864445071
 31
0.0
  0
LINE
  5
83EE
  8
2
 10
196.23301808819551
 20
101.41843861157879
 30
0.0
 11
196.23301811802159
 21
96.399438663732894
 31
0.0
  0
LINE
  5
83EF
  8
2
 10
185.2330181180215
 20
96.399438663732894
 30
0.0
 11
185.2330181478477
 21
101.41843861157879
 31
0.0
  0
LINE
  5
83F0
  8
0
 10
178.2330179317571
 20
100.367438665059
 30
0.0
 11
179.557017768798
 21
99.043438595187524
 31
0.0
  0
LINE
  5
83F1
  8
0
 10
179.557017768798
 20
101.81843872699289
 30
0.0
 11
179.557017768798
 21
99.043438595187524
 31
0.0
  0
LINE
  5
83F2
  8
0
 10
203.23301830428611
 20
96.526438754451135
 30
0.0
 11
203.23301830428611
 21
107.76443864445071
 31
0.0
  0
LINE
  5
83F3
  8
1
 10
190.73301811802159
 20
93.518438611578787
 30
0.0
 11
190.73301811802159
 21
110.5184387158869
 31
0.0
  0
LINE
  5
83F4
  8
0
 10
203.23301830428611
 20
96.526438754451135
 30
0.0
 11
179.557017768798
 21
96.526438754451135
 31
0.0
  0
LINE
  5
83F5
  8
0
 10
179.4070180236078
 20
96.018438611578816
 30
0.0
 11
202.7250181614138
 21
96.018438611578787
 31
0.0
  0
LINE
  5
83F6
  8
0
 10
203.23301830428611
 20
96.526438754451135
 30
0.0
 11
202.7250181614138
 21
96.018438611578816
 31
0.0
  0
LINE
  5
83F7
  8
0
 10
200.0330183042862
 20
96.526438754451135
 30
0.0
 11
199.82259714442259
 21
96.018438611578816
 31
0.0
  0
LINE
  5
83F8
  8
2
 10
185.2330181180215
 20
96.399438663732894
 30
0.0
 11
196.23301811802159
 21
96.399438663732894
 31
0.0
  0
LINE
  5
83F9
  8
2
 10
196.23301811802159
 20
96.399438663732894
 30
0.0
 11
196.6140179625429
 21
96.018438611578816
 31
0.0
  0
LINE
  5
83FA
  8
2
 10
184.85201827350031
 20
96.018438611578816
 30
0.0
 11
185.2330181180215
 21
96.399438663732894
 31
0.0
  0
LINE
  5
83FB
  8
0
 10
178.2330179317571
 20
97.192438703429573
 30
0.0
 11
179.22801782476671
 21
96.197438810419911
 31
0.0
  0
LINE
  5
83FC
  8
0
 10
179.557017768798
 20
98.643438809019202
 30
0.0
 11
178.2330179317571
 21
97.319438506317013
 31
0.0
  0
LINE
  5
83FD
  8
0
 10
179.557017768798
 20
98.643438809019202
 30
0.0
 11
179.557017768798
 21
96.526438754451135
 31
0.0
  0
LINE
  5
83FE
  8
0
 10
179.557017768798
 20
96.526438754451135
 30
0.0
 11
179.22801782476671
 21
96.197438810419911
 31
0.0
  0
LINE
  5
83FF
  8
0
 10
179.22801782476671
 20
96.197438810419911
 30
0.0
 11
179.4070180236078
 21
96.018438611578816
 31
0.0
  0
LINE
  5
8400
  8
0
 10
179.7570183603741
 20
98.84343870210337
 30
0.0
 11
179.557017768798
 21
98.643438809019202
 31
0.0
  0
LINE
  5
8401
  8
0
 10
179.557017768798
 20
99.043438595187524
 30
0.0
 11
179.7570183603741
 21
98.84343870210337
 31
0.0
  0
LINE
  5
8402
  8
0
 10
178.2330179317571
 20
97.192438703429573
 30
0.0
 11
178.2330179317571
 21
97.319438506317013
 31
0.0
  0
LINE
  5
8403
  8
2
 10
199.72562125973181
 20
107.63743866373279
 30
0.0
 11
181.7404149763114
 21
107.63743866373279
 31
0.0
  0
LINE
  5
8404
  8
2
 10
199.72562125973181
 20
101.41843861157879
 30
0.0
 11
181.7404149763114
 21
101.41843861157879
 31
0.0
  0
LINE
  5
8405
  8
0
 10
202.97901776718871
 20
108.0184387158869
 30
0.0
 11
179.4070180236078
 21
108.0184387158869
 31
0.0
  0
LINE
  5
8406
  8
0
 10
179.557017768798
 20
107.76443864445071
 30
0.0
 11
203.23301830428611
 21
107.76443864445071
 31
0.0
  0
LINE
  5
8407
  8
2
 10
199.72562125973181
 20
101.41843861157879
 30
0.0
 11
199.72562125973181
 21
107.63743866373279
 31
0.0
  0
LINE
  5
8408
  8
0
 10
202.97901776718871
 20
108.0184387158869
 30
0.0
 11
203.23301830428611
 21
107.76443864445071
 31
0.0
  0
LINE
  5
8409
  8
2
 10
199.72562125973181
 20
107.63743866373279
 30
0.0
 11
200.10662110652399
 21
108.0184387158869
 31
0.0
  0
LINE
  5
840A
  8
0
 10
199.92780772435441
 20
108.0184387158869
 30
0.0
 11
200.0330183042862
 21
107.76443864445071
 31
0.0
  0
LINE
  5
840B
  8
2
 10
181.7404149763114
 20
101.41843861157879
 30
0.0
 11
181.7404149763114
 21
107.63743866373279
 31
0.0
  0
LINE
  5
840C
  8
0
 10
178.2330179317571
 20
103.66943866240661
 30
0.0
 11
179.557017768798
 21
104.99343873227819
 31
0.0
  0
LINE
  5
840D
  8
0
 10
179.557017768798
 20
104.99343873227819
 30
0.0
 11
179.557017768798
 21
102.21843860047269
 31
0.0
  0
LINE
  5
840E
  8
0
 10
179.557017768798
 20
101.81843872699289
 30
0.0
 11
178.2330179317571
 21
100.4944387007771
 31
0.0
  0
LINE
  5
840F
  8
0
 10
179.557017768798
 20
102.21843860047269
 30
0.0
 11
178.2330179317571
 21
103.54243862668849
 31
0.0
  0
LINE
  5
8410
  8
0
 10
179.7570183603741
 20
102.01843866373279
 30
0.0
 11
179.557017768798
 21
102.21843860047269
 31
0.0
  0
LINE
  5
8411
  8
0
 10
179.7570183603741
 20
102.01843866373279
 30
0.0
 11
179.557017768798
 21
101.81843872699289
 31
0.0
  0
LINE
  5
8412
  8
0
 10
178.2330179317571
 20
100.367438665059
 30
0.0
 11
178.2330179317571
 21
100.4944387007771
 31
0.0
  0
LINE
  5
8413
  8
0
 10
178.2330179317571
 20
103.54243862668849
 30
0.0
 11
178.2330179317571
 21
103.66943866240661
 31
0.0
  0
LINE
  5
8414
  8
0
 10
179.557017768798
 20
105.3934385184465
 30
0.0
 11
178.2330179317571
 21
106.7174388211487
 31
0.0
  0
LINE
  5
8415
  8
0
 10
178.2330179317571
 20
106.8444386240361
 30
0.0
 11
179.35501855897681
 21
107.96643878559451
 31
0.0
  0
LINE
  5
8416
  8
2
 10
181.7404149763114
 20
107.63743866373279
 30
0.0
 11
181.35941512951931
 21
108.0184387158869
 31
0.0
  0
LINE
  5
8417
  8
0
 10
179.557017768798
 20
107.76443864445071
 30
0.0
 11
179.557017768798
 21
105.3934385184465
 31
0.0
  0
LINE
  5
8418
  8
0
 10
179.557017768798
 20
104.99343873227819
 30
0.0
 11
179.7570183603741
 21
105.1934386253623
 31
0.0
  0
LINE
  5
8419
  8
0
 10
179.7570183603741
 20
105.1934386253623
 30
0.0
 11
179.557017768798
 21
105.3934385184465
 31
0.0
  0
LINE
  5
841A
  8
0
 10
179.4070180236078
 20
108.0184387158869
 30
0.0
 11
179.35501855897681
 21
107.96643878559451
 31
0.0
  0
LINE
  5
841B
  8
0
 10
179.35501855897681
 20
107.96643878559451
 30
0.0
 11
179.557017768798
 21
107.76443864445071
 31
0.0
  0
LINE
  5
841C
  8
0
 10
178.2330179317571
 20
106.7174388211487
 30
0.0
 11
178.2330179317571
 21
106.8444386240361
 31
0.0
  0
LINE
  5
844F
  8
0
 10
118.9082830049541
 20
137.45527092532799
 30
0.0
 11
118.8562818197674
 21
137.403271460697
 31
0.0
  0
LINE
  5
8450
  8
0
 10
143.40028230328829
 20
137.45527092532799
 30
0.0
 11
143.45228348847499
 21
137.403271460697
 31
0.0
  0
LINE
  5
8452
  8
0
 10
121.2792824135223
 20
137.45527092532799
 30
0.0
 11
118.9082830049541
 21
137.45527092532799
 31
0.0
  0
LINE
  5
8453
  8
0
 10
124.4542825010392
 20
137.45527092532811
 30
0.0
 11
121.9792828731682
 21
137.45527092532799
 31
0.0
  0
LINE
  5
8454
  8
0
 10
127.62928251614041
 20
137.45527092532811
 30
0.0
 11
125.1542830676284
 21
137.45527092532811
 31
0.0
  0
LINE
  5
8455
  8
0
 10
130.80428253124151
 20
137.45527092532799
 30
0.0
 11
128.32928302925791
 21
137.45527092532799
 31
0.0
  0
LINE
  5
8456
  8
0
 10
133.97928227898441
 20
137.45527092532799
 30
0.0
 11
131.5042827770009
 21
137.45527092532799
 31
0.0
  0
LINE
  5
8457
  8
0
 10
137.15428224061401
 20
137.45527092532799
 30
0.0
 11
134.67928279210199
 21
137.45527092532799
 31
0.0
  0
LINE
  5
8458
  8
0
 10
140.32928243507411
 20
137.45527092532799
 30
0.0
 11
137.85428280720319
 21
137.45527092532799
 31
0.0
  0
LINE
  5
848C
  8
0
 10
118.6542824678567
 20
66.868345249734716
 30
0.0
 11
121.429282067047
 21
66.868345249734716
 31
0.0
  0
LINE
  5
848E
  8
0
 10
119.1770763273087
 20
66.868345249734716
 30
0.0
 11
118.8562818197674
 21
67.07034445955594
 31
0.0
  0
LINE
  5
848F
  8
0
 10
121.8292831279781
 20
66.868345249734702
 30
0.0
 11
124.6042822003966
 21
66.868345249734688
 31
0.0
  0
LINE
  5
8490
  8
0
 10
125.0042833224382
 20
66.868345249734716
 30
0.0
 11
127.77928219258141
 21
66.868345249734702
 31
0.0
  0
LINE
  5
8491
  8
0
 10
128.17928328406771
 20
66.868345249734702
 30
0.0
 11
134.12928202417461
 21
66.868345249734702
 31
0.0
  0
LINE
  5
8492
  8
0
 10
134.52928311566089
 20
66.868345249734688
 30
0.0
 11
137.3042819858041
 21
66.868345249734688
 31
0.0
  0
LINE
  5
8493
  8
0
 10
137.7042831078457
 20
66.868345249734688
 30
0.0
 11
140.47928218026431
 21
66.868345249734688
 31
0.0
  0
LINE
  5
8494
  8
0
 10
140.87928324119531
 20
66.868345249734688
 30
0.0
 11
143.65428284038569
 21
66.868345249734716
 31
0.0
  0
LINE
  5
8495
  8
0
 10
143.1462826975133
 20
66.868345249734716
 30
0.0
 11
143.46707720505469
 21
67.07034445955594
 31
0.0
  0
TEXT
  5
8547
  8
0
 62
     3
 10
0.0
 20
0.0
 30
0.0
 40
5.0
  1
HSE-9252
  7
STANDARD1
  0
ENDSEC
  0
EOF
