  0
SECTION
  2
HEADER
  9
$ACADVER
  1
AC1009
  9
$INSBASE
 10
0.0
 20
0.0
 30
0.0
  9
$EXTMIN
 10
0.0
 20
-2.960436562073669
 30
0.0
  9
$EXTMAX
 10
97.080491132332881
 20
198.49997813099219
 30
0.0
  9
$LIMMIN
 10
0.0
 20
0.0
  9
$LIMMAX
 10
375.0
 20
270.0
  9
$ORTHOMODE
 70
     1
  9
$REGENMODE
 70
     1
  9
$FILLMODE
 70
     1
  9
$QTEXTMODE
 70
     0
  9
$MIRRTEXT
 70
     0
  9
$DRAGMODE
 70
     2
  9
$LTSCALE
 40
6.0
  9
$OSMODE
 70
    37
  9
$ATTMODE
 70
     1
  9
$TEXTSIZE
 40
0.2
  9
$TRACEWID
 40
0.05
  9
$TEXTSTYLE
  7
STANDARD
  9
$CLAYER
  8
0
  9
$CELTYPE
  6
BYLAYER
  9
$CECOLOR
 62
   256
  9
$DIMSCALE
 40
1.0
  9
$DIMASZ
 40
3.0
  9
$DIMEXO
 40
1.0
  9
$DIMDLI
 40
6.0
  9
$DIMRND
 40
0.0
  9
$DIMDLE
 40
0.0
  9
$DIMEXE
 40
1.0
  9
$DIMTP
 40
495.0
  9
$DIMTM
 40
0.0
  9
$DIMTXT
 40
3.0
  9
$DIMCEN
 40
0.0
  9
$DIMTSZ
 40
0.0
  9
$DIMTOL
 70
     0
  9
$DIMLIM
 70
     0
  9
$DIMTIH
 70
     0
  9
$DIMTOH
 70
     0
  9
$DIMSE1
 70
     0
  9
$DIMSE2
 70
     0
  9
$DIMTAD
 70
     1
  9
$DIMZIN
 70
     0
  9
$DIMBLK
  1

  9
$DIMASO
 70
     0
  9
$DIMSHO
 70
     0
  9
$DIMPOST
  1

  9
$DIMAPOST
  1

  9
$DIMALT
 70
     0
  9
$DIMALTD
 70
     2
  9
$DIMALTF
 40
25.399999999999999
  9
$DIMLFAC
 40
1.0
  9
$DIMTOFL
 70
     1
  9
$DIMTVP
 40
0.0
  9
$DIMTIX
 70
     1
  9
$DIMSOXD
 70
     0
  9
$DIMSAH
 70
     0
  9
$DIMBLK1
  1

  9
$DIMBLK2
  1

  9
$DIMSTYLE
  2
STANDARD
  9
$DIMCLRD
 70
     0
  9
$DIMCLRE
 70
     0
  9
$DIMCLRT
 70
     4
  9
$DIMTFAC
 40
1.0
  9
$DIMGAP
 40
1.0
  9
$LUNITS
 70
     2
  9
$LUPREC
 70
     1
  9
$SKETCHINC
 40
0.1
  9
$FILLETRAD
 40
2.0
  9
$AUNITS
 70
     0
  9
$AUPREC
 70
     1
  9
$MENU
  1
C:\R13\WIN\SUPPORT\ACAD-I
  9
$ELEVATION
 40
0.0
  9
$PELEVATION
 40
0.0
  9
$THICKNESS
 40
0.0
  9
$LIMCHECK
 70
     0
  9
$BLIPMODE
 70
     0
  9
$CHAMFERA
 40
0.0
  9
$CHAMFERB
 40
0.0
  9
$SKPOLY
 70
     0
  9
$TDCREATE
 40
2451962.4112634258
  9
$TDUPDATE
 40
2457032.6637895261
  9
$TDINDWG
 40
0.1596676273
  9
$TDUSRTIMER
 40
0.1596676273
  9
$USRTIMER
 70
     1
  9
$ANGBASE
 50
0.0
  9
$ANGDIR
 70
     0
  9
$PDMODE
 70
     0
  9
$PDSIZE
 40
0.0
  9
$PLINEWID
 40
0.0
  9
$COORDS
 70
     1
  9
$SPLFRAME
 70
     0
  9
$SPLINETYPE
 70
     6
  9
$SPLINESEGS
 70
     8
  9
$ATTDIA
 70
     0
  9
$ATTREQ
 70
     1
  9
$HANDLING
 70
     1
  9
$HANDSEED
  5
50F1
  9
$SURFTAB1
 70
     6
  9
$SURFTAB2
 70
     6
  9
$SURFTYPE
 70
     6
  9
$SURFU
 70
     6
  9
$SURFV
 70
     6
  9
$UCSNAME
  2

  9
$UCSORG
 10
0.0
 20
0.0
 30
0.0
  9
$UCSXDIR
 10
1.0
 20
0.0
 30
0.0
  9
$UCSYDIR
 10
0.0
 20
1.0
 30
0.0
  9
$PUCSNAME
  2

  9
$PUCSORG
 10
0.0
 20
0.0
 30
0.0
  9
$PUCSXDIR
 10
1.0
 20
0.0
 30
0.0
  9
$PUCSYDIR
 10
0.0
 20
1.0
 30
0.0
  9
$USERI1
 70
     4
  9
$USERI2
 70
     1
  9
$USERI3
 70
     0
  9
$USERI4
 70
     0
  9
$USERI5
 70
     0
  9
$USERR1
 40
1.0
  9
$USERR2
 40
3.0
  9
$USERR3
 40
3.0
  9
$USERR4
 40
3.0
  9
$USERR5
 40
10.0
  9
$WORLDVIEW
 70
     1
  9
$SHADEDGE
 70
     3
  9
$SHADEDIF
 70
    70
  9
$TILEMODE
 70
     1
  9
$MAXACTVP
 70
    16
  9
$PLIMCHECK
 70
     0
  9
$PEXTMIN
 10
1.0000000000000000E+020
 20
1.0000000000000000E+020
 30
1.0000000000000000E+020
  9
$PEXTMAX
 10
-1.0000000000000000E+020
 20
-1.0000000000000000E+020
 30
-1.0000000000000000E+020
  9
$PLIMMIN
 10
0.0
 20
0.0
  9
$PLIMMAX
 10
12.0
 20
9.0
  9
$UNITMODE
 70
     0
  9
$VISRETAIN
 70
     0
  9
$PLINEGEN
 70
     0
  9
$PSLTSCALE
 70
     0
  0
ENDSEC
  0
SECTION
  2
TABLES
  0
TABLE
  2
VPORT
 70
     1
  0
VPORT
  2
*ACTIVE
 70
     0
 10
0.0
 20
0.0
 11
1.0
 21
1.0
 12
349.095966620306
 22
200.0
 13
0.0
 23
0.0
 14
10.0
 24
10.0
 15
10.0
 25
10.0
 16
0.0
 26
0.0
 36
1.0
 17
0.0
 27
0.0
 37
0.0
 40
400.0
 41
1.7454798331015291
 42
50.0
 43
0.0
 44
0.0
 50
0.0
 51
0.0
 71
     0
 72
   100
 73
     1
 74
     0
 75
     0
 76
     0
 77
     0
 78
     0
  0
ENDTAB
  0
TABLE
  2
LTYPE
 70
     3
  0
LTYPE
  2
CONTINUOUS
 70
     0
  3
Solid Line
 72
    65
 73
     0
 40
0.0
  0
LTYPE
  2
CENTER
 70
     0
  3
____ _ ____ _ ____ _ ____ _ ____ _ ____ _ ____
 72
    65
 73
     4
 40
2.0
 49
1.25
 49
-0.25
 49
0.25
 49
-0.25
  0
LTYPE
  2
PHANTOM2
 70
     0
  3
___ _ _ ___ _ _ ___ _ _ ___ _ _
 72
    65
 73
     6
 40
1.25
 49
0.625
 49
-0.125
 49
0.125
 49
-0.125
 49
0.125
 49
-0.125
  0
ENDTAB
  0
TABLE
  2
LAYER
 70
     4
  0
LAYER
  2
0
 70
     0
 62
     7
  6
CONTINUOUS
  0
LAYER
  2
1
 70
     0
 62
     1
  6
CENTER
  0
LAYER
  2
3
 70
     0
 62
     3
  6
CONTINUOUS
  0
LAYER
  2
DEFPOINTS
 70
     0
 62
     7
  6
CONTINUOUS
  0
ENDTAB
  0
TABLE
  2
STYLE
 70
     2
  0
STYLE
  2
STANDARD
 70
     0
 40
0.0
 41
1.0
 50
0.0
 71
     0
 42
0.2
  3
SIMPLEX
  4
BIGFONT
  0
STYLE
  2
STANDARD1
 70
     0
 40
0.0
 41
1.0
 50
0.0
 71
     0
 42
3.0
  3
txt
  4

  0
ENDTAB
  0
TABLE
  2
VIEW
 70
     1
  0
VIEW
  2
OLE1
 70
     0
 40
23.205456353438649
 10
338.59170241122831
 20
147.26976484028091
 41
37.128730165501842
 11
0.0
 21
0.0
 31
1.0
 12
0.0
 22
0.0
 32
0.0
 42
50.0
 43
0.0
 44
0.0
 50
0.0
 71
     0
  0
ENDTAB
  0
TABLE
  2
UCS
 70
     0
  0
ENDTAB
  0
TABLE
  2
APPID
 70
    29
  0
APPID
  2
ACAD
 70
     0
  0
APPID
  2
GENIUS_GENOREF_13
 70
     0
  0
APPID
  2
GENIUS_GENOENT_13
 70
     0
  0
APPID
  2
GENIUS_GENBH_13
 70
     0
  0
APPID
  2
GENIUS_GENOBJ_13
 70
     0
  0
APPID
  2
GENIUS_GENODEF_13
 70
     0
  0
APPID
  2
GENIUS_GENOLIS_13
 70
     0
  0
APPID
  2
GENIUS_GENOBJ-NBEHI-BHF_13
 70
     0
  0
APPID
  2
GENIUS_GENOBJ-NBEHI-BHB_13
 70
     0
  0
APPID
  2
GENIUS_GENOBJ-F-PART_13
 70
     0
  0
APPID
  2
GENIUS_GEFSTDP_13
 70
     0
  0
APPID
  2
GENIUS_GENOBJ-N-RSSYM_13
 70
     0
  0
APPID
  2
GENIUS_GENSYMENT_13
 70
     0
  0
APPID
  2
GENIUS_GENOBJ-N-TIT_13
 70
     0
  0
APPID
  2
GENIUS_GENTITLE_13
 70
     0
  0
APPID
  2
GENIUS_GENZVEED_13
 70
     0
  0
APPID
  2
GENIUS_GENOBJ-N-LEADER_13
 70
     0
  0
APPID
  2
GENIUS_GENOBJ-N-FIL_13
 70
     0
  0
APPID
  2
GENIUS_GENOBJ-N-SEC_13
 70
     0
  0
APPID
  2
GENIUS_GENOBJ-N-CRS_13
 70
     0
  0
APPID
  2
GENIUS_GENOBJ-N-ZOO_13
 70
     0
  0
APPID
  2
GENIUS_GENZOO_13
 70
     0
  0
APPID
  2
GENIUS_GENOBJ-F-TOL_13
 70
     0
  0
APPID
  2
GENIUS_GENFIL_13
 70
     0
  0
APPID
  2
GENIUS_GENOBJ-N-CHA_13
 70
     0
  0
APPID
  2
GENIUS_GENOBJ-N-CEN_13
 70
     0
  0
APPID
  2
ACAD_MLEADERVER
 70
     0
  0
APPID
  2
ACAD_EXEMPT_FROM_CAD_STANDARDS
 70
     0
  0
APPID
  2
ACAD_NAV_VCDISPLAY
 70
     0
  0
ENDTAB
  0
TABLE
  2
DIMSTYLE
 70
     1
  0
DIMSTYLE
  2
STANDARD
 70
     0
  3

  4

  5

  6

  7

 40
1.0
 41
0.18
 42
0.0625
 43
0.38
 44
0.18
 45
0.0
 46
0.0
 47
0.0
 48
0.0
140
0.18
141
0.09
142
0.0
143
25.399999999999999
144
1.0
145
0.0
146
1.0
147
0.09
 71
     0
 72
     0
 73
     1
 74
     1
 75
     0
 76
     0
 77
     0
 78
     0
170
     0
171
     2
172
     0
173
     0
174
     0
175
     0
176
     0
177
     0
178
     0
  0
ENDTAB
  0
ENDSEC
  0
SECTION
  2
BLOCKS
  0
BLOCK
  8
0
  2
$MODEL_SPACE
 70
     0
 10
0.0
 20
0.0
 30
0.0
  3
$MODEL_SPACE
  1

  0
ENDBLK
  5
4119
  8
0
  0
BLOCK
 67
     1
  8
0
  2
$PAPER_SPACE
 70
     0
 10
0.0
 20
0.0
 30
0.0
  3
$PAPER_SPACE
  1

  0
ENDBLK
  5
4117
 67
     1
  8
0
  0
ENDSEC
  0
SECTION
  2
ENTITIES
  0
TEXT
  5
4A34
  8
0
 62
     3
 10
0.0
 20
0.0
 30
0.0
 40
10.0
  1
KA40-08X060R
  7
STANDARD1
  0
LINE
  5
4E57
  8
3
 10
46.669999999999838
 20
70.999999999999901
 30
0.0
 11
46.00000000021646
 21
69.839525959303927
 31
0.0
  0
LINE
  5
4E58
  8
3
 10
53.99999999999995
 20
69.839525958928647
 30
0.0
 11
53.329999999999927
 21
70.999999999999901
 31
0.0
  0
LINE
  5
4F06
  8
1
 10
49.999999999999943
 20
133.4999781309923
 30
0.0
 11
50.0
 21
45.0
 31
0.0
  0
ARC
  5
4F07
  8
0
 10
55.598999617257441
 20
65.106630958068678
 30
0.0
 40
2.107083210256774
 50
208.81287925776641
 51
334.80051040584237
  0
LINE
  5
4F08
  8
0
 10
53.752776749955672
 20
68.5
 30
0.0
 11
53.752776749955672
 21
64.091120850193079
 31
0.0
  0
LINE
  5
4F09
  8
0
 10
42.494446500757981
 20
68.5
 30
0.0
 11
42.494446500757981
 21
64.075545816474914
 31
0.0
  0
LINE
  5
4F0A
  8
0
 10
46.247223250490428
 20
68.5
 30
0.0
 11
46.247223250490428
 21
64.095422994396074
 31
0.0
  0
ARC
  5
4F0B
  8
0
 10
44.365119408452919
 20
65.164554703992195
 30
0.0
 40
2.1645686601898171
 50
210.20574804139889
 51
330.4011986700126
  0
LINE
  5
4F0C
  8
0
 10
30.0
 20
54.0
 30
0.0
 11
70.000000000000114
 21
54.0
 31
0.0
  0
LINE
  5
4F0D
  8
0
 10
31.0
 20
62.0
 30
0.0
 11
69.0
 21
62.0
 31
0.0
  0
LINE
  5
4F0E
  8
0
 10
67.899999999999977
 20
50.0
 30
0.0
 11
32.099999999999973
 21
50.0
 31
0.0
  0
LINE
  5
4F0F
  8
0
 10
59.999999999999943
 20
63.0
 30
0.0
 11
39.99999999999995
 21
63.0
 31
0.0
  0
LINE
  5
4F11
  8
0
 10
32.099999999999973
 20
50.0
 30
0.0
 11
32.099999999999973
 21
54.0
 31
0.0
  0
LINE
  5
4F12
  8
0
 10
30.0
 20
54.0
 30
0.0
 11
30.0
 21
61.0
 31
0.0
  0
LINE
  5
4F13
  8
0
 10
31.0
 20
62.0
 30
0.0
 11
30.0
 21
61.0
 31
0.0
  0
LINE
  5
4F14
  8
0
 10
39.99999999999995
 20
63.0
 30
0.0
 11
39.99999999999995
 21
62.0
 31
0.0
  0
ARC
  5
4F15
  8
0
 10
50.003378568958219
 20
69.987548634950997
 30
0.0
 40
6.9875494517415619
 50
237.48300641124041
 51
302.45131031071202
  0
LINE
  5
4F17
  8
0
 10
59.999999999999943
 20
62.0
 30
0.0
 11
59.999999999999943
 21
63.0
 31
0.0
  0
LINE
  5
4F18
  8
0
 10
67.899999999999977
 20
54.0
 30
0.0
 11
67.899999999999977
 21
50.0
 31
0.0
  0
LINE
  5
4F19
  8
0
 10
70.000000000000114
 20
61.0
 30
0.0
 11
70.000000000000114
 21
54.0
 31
0.0
  0
LINE
  5
4F1A
  8
0
 10
69.0
 20
62.0
 30
0.0
 11
70.000000000000114
 21
61.0
 31
0.0
  0
CIRCLE
  5
4F1B
  8
0
 10
49.999999999999943
 20
173.49997813099219
 30
0.0
 40
20.0
  0
LINE
  5
4F1C
  8
1
 10
49.999999999999943
 20
198.49997813099219
 30
0.0
 11
49.999999999999943
 21
148.49997813099219
 31
0.0
  0
LINE
  5
4F1D
  8
3
 10
53.330000000000041
 20
98.499989065496152
 30
0.0
 11
53.329999999999927
 21
128.1699781309924
 31
0.0
  0
LINE
  5
4F1E
  8
3
 10
46.669999999999959
 20
128.1699781309924
 30
0.0
 11
46.669999999999959
 21
98.499989065496152
 31
0.0
  0
LINE
  5
4F1F
  8
0
 10
46.00000000000005
 20
98.499989065496152
 30
0.0
 11
45.999999999999943
 21
127.4999781309924
 31
0.0
  0
LINE
  5
4F20
  8
0
 10
53.99999999999995
 20
127.4999781309924
 30
0.0
 11
54.00000000000005
 21
98.499989065496152
 31
0.0
  0
LINE
  5
4F24
  8
0
 10
57.50555349968829
 20
68.5
 30
0.0
 11
42.494446500757981
 21
68.5
 31
0.0
  0
LINE
  5
4F2A
  8
3
 10
53.329999999999927
 20
71.0
 30
0.0
 11
53.330000000000041
 21
91.999989065496138
 31
0.0
  0
LINE
  5
4F2B
  8
3
 10
46.669999999999959
 20
91.999989065496138
 30
0.0
 11
46.669999999999838
 21
71.0
 31
0.0
  0
LINE
  5
4F2C
  8
0
 10
54.00000000000005
 20
91.999989065496138
 30
0.0
 11
53.99999999999995
 21
68.5
 31
0.0
  0
LINE
  5
4F2E
  8
0
 10
46.00000000019633
 20
91.999989065496138
 30
0.0
 11
46.00000000022316
 21
68.500000000472596
 31
0.0
  0
LINE
  5
4F2F
  8
0
 10
45.999999999999943
 20
71.0
 30
0.0
 11
53.99999999999995
 21
71.0
 31
0.0
  0
LINE
  5
4F33
  8
0
 10
57.50555349968829
 20
64.209495545583991
 30
0.0
 11
57.50555349968829
 21
68.5
 31
0.0
  0
LINE
  5
4F35
  8
1
 10
24.99999999999995
 20
173.49997813099219
 30
0.0
 11
74.999999999999943
 21
173.49997813099219
 31
0.0
  0
CIRCLE
  5
4F36
  8
0
 10
49.999999999999943
 20
173.49997813099219
 30
0.0
 40
10.0
  0
LINE
  5
4F38
  8
0
 10
45.999999999999943
 20
127.4999781309924
 30
0.0
 11
53.99999999999995
 21
127.4999781309924
 31
0.0
  0
LINE
  5
4F39
  8
0
 10
52.999999999999943
 20
128.49997813099219
 30
0.0
 11
46.999999999999943
 21
128.49997813099219
 31
0.0
  0
LINE
  5
4F3A
  8
0
 10
46.999999999999943
 20
128.49997813099219
 30
0.0
 11
45.999999999999943
 21
127.4999781309924
 31
0.0
  0
LINE
  5
4F3B
  8
0
 10
53.99999999999995
 20
127.4999781309924
 30
0.0
 11
52.999999999999943
 21
128.49997813099219
 31
0.0
  0
CIRCLE
  5
4F3C
  8
3
 10
49.999999999999943
 20
173.49997813099219
 30
0.0
 40
3.3300000000000121
  0
CIRCLE
  5
4F3D
  8
0
 10
49.999999999999943
 20
173.49997813099219
 30
0.0
 40
4.0
  0
LINE
  5
4F44
  8
0
 10
53.752776749732611
 20
166.9999781309923
 30
0.0
 11
57.505553499464952
 21
173.49997813099219
 31
0.0
  0
LINE
  5
4F45
  8
0
 10
57.505553499464952
 20
173.49997813099219
 30
0.0
 11
53.752776749732611
 21
179.9999781309923
 31
0.0
  0
LINE
  5
4F46
  8
0
 10
53.752776749732611
 20
179.9999781309923
 30
0.0
 11
46.247223250267439
 21
179.9999781309923
 31
0.0
  0
LINE
  5
4F47
  8
0
 10
46.247223250267439
 20
179.9999781309923
 30
0.0
 11
42.494446500534757
 21
173.49997813099219
 31
0.0
  0
LINE
  5
4F48
  8
0
 10
42.494446500534757
 20
173.49997813099219
 30
0.0
 11
46.247223250267439
 21
166.9999781309923
 31
0.0
  0
LINE
  5
4F49
  8
0
 10
46.247223250267439
 20
166.9999781309923
 30
0.0
 11
53.752776749732611
 21
166.9999781309923
 31
0.0
  0
LINE
  5
4FFD
  8
0
 10
57.505553499464867
 20
98.499989065496152
 30
0.0
 11
42.494446500535069
 21
98.499989065496152
 31
0.0
  0
LINE
  5
4FFE
  8
0
 10
56.249999999999751
 20
91.999989065496138
 30
0.0
 11
43.750000000001563
 21
91.999989065496138
 31
0.0
  0
ARC
  5
4FFF
  8
0
 10
44.370834875401407
 20
95.466896205744206
 30
0.0
 40
3.3225695729499738
 50
244.38424746782431
 51
304.38424746804048
  0
LINE
  5
5000
  8
0
 10
42.494446500535069
 20
92.724883216394986
 30
0.0
 11
43.750000000001343
 21
91.999989065496138
 31
0.0
  0
LINE
  5
5001
  8
0
 10
42.494446500535069
 20
92.724883216394986
 30
0.0
 11
42.494446500535069
 21
98.499989065496152
 31
0.0
  0
LINE
  5
5002
  8
0
 10
46.247223250269343
 20
92.724883216394986
 30
0.0
 11
46.247223250266359
 21
98.499989065496152
 31
0.0
  0
LINE
  5
5003
  8
0
 10
53.7527767497306
 20
92.724883216394986
 30
0.0
 11
53.752776749733549
 21
98.499989065496152
 31
0.0
  0
LINE
  5
5004
  8
0
 10
57.505553499464867
 20
92.724883216394986
 30
0.0
 11
57.505553499464867
 21
98.499989065496152
 31
0.0
  0
LINE
  5
5005
  8
0
 10
57.505553499464867
 20
92.724883216394986
 30
0.0
 11
56.249999999998607
 21
91.999989065496138
 31
0.0
  0
ARC
  5
5006
  8
0
 10
49.999999999999062
 20
104.5637700491866
 30
0.0
 40
12.41944341639239
 50
252.4120462260021
 51
287.58795377400799
  0
ARC
  5
5007
  8
0
 10
55.629165124598529
 20
95.466896205744206
 30
0.0
 40
3.3225695729499738
 50
235.61575253195949
 51
295.61575253217569
  0
ENDSEC
  0
EOF
