  0
SECTION
  2
HEADER
  9
$ACADVER
  1
AC1009
  9
$INSBASE
 10
0.0
 20
0.0
 30
0.0
  9
$EXTMIN
 10
0.0
 20
-2.960436562073669
 30
0.0
  9
$EXTMAX
 10
97.080491132332881
 20
223.00000000000011
 30
0.0
  9
$LIMMIN
 10
0.0
 20
0.0
  9
$LIMMAX
 10
375.0
 20
270.0
  9
$ORTHOMODE
 70
     1
  9
$REGENMODE
 70
     1
  9
$FILLMODE
 70
     1
  9
$QTEXTMODE
 70
     0
  9
$MIRRTEXT
 70
     0
  9
$DRAGMODE
 70
     2
  9
$LTSCALE
 40
6.0
  9
$OSMODE
 70
    37
  9
$ATTMODE
 70
     1
  9
$TEXTSIZE
 40
0.2
  9
$TRACEWID
 40
0.05
  9
$TEXTSTYLE
  7
STANDARD
  9
$CLAYER
  8
0
  9
$CELTYPE
  6
BYLAYER
  9
$CECOLOR
 62
   256
  9
$DIMSCALE
 40
1.0
  9
$DIMASZ
 40
3.0
  9
$DIMEXO
 40
1.0
  9
$DIMDLI
 40
6.0
  9
$DIMRND
 40
0.0
  9
$DIMDLE
 40
0.0
  9
$DIMEXE
 40
1.0
  9
$DIMTP
 40
495.0
  9
$DIMTM
 40
0.0
  9
$DIMTXT
 40
3.0
  9
$DIMCEN
 40
0.0
  9
$DIMTSZ
 40
0.0
  9
$DIMTOL
 70
     0
  9
$DIMLIM
 70
     0
  9
$DIMTIH
 70
     0
  9
$DIMTOH
 70
     0
  9
$DIMSE1
 70
     0
  9
$DIMSE2
 70
     0
  9
$DIMTAD
 70
     1
  9
$DIMZIN
 70
     0
  9
$DIMBLK
  1

  9
$DIMASO
 70
     0
  9
$DIMSHO
 70
     0
  9
$DIMPOST
  1

  9
$DIMAPOST
  1

  9
$DIMALT
 70
     0
  9
$DIMALTD
 70
     2
  9
$DIMALTF
 40
25.399999999999999
  9
$DIMLFAC
 40
1.0
  9
$DIMTOFL
 70
     1
  9
$DIMTVP
 40
0.0
  9
$DIMTIX
 70
     1
  9
$DIMSOXD
 70
     0
  9
$DIMSAH
 70
     0
  9
$DIMBLK1
  1

  9
$DIMBLK2
  1

  9
$DIMSTYLE
  2
STANDARD
  9
$DIMCLRD
 70
     0
  9
$DIMCLRE
 70
     0
  9
$DIMCLRT
 70
     4
  9
$DIMTFAC
 40
1.0
  9
$DIMGAP
 40
1.0
  9
$LUNITS
 70
     2
  9
$LUPREC
 70
     1
  9
$SKETCHINC
 40
0.1
  9
$FILLETRAD
 40
2.0
  9
$AUNITS
 70
     0
  9
$AUPREC
 70
     1
  9
$MENU
  1
C:\R13\WIN\SUPPORT\ACAD-I
  9
$ELEVATION
 40
0.0
  9
$PELEVATION
 40
0.0
  9
$THICKNESS
 40
0.0
  9
$LIMCHECK
 70
     0
  9
$BLIPMODE
 70
     0
  9
$CHAMFERA
 40
0.0
  9
$CHAMFERB
 40
0.0
  9
$SKPOLY
 70
     0
  9
$TDCREATE
 40
2451962.4112634258
  9
$TDUPDATE
 40
2457032.6638073958
  9
$TDINDWG
 40
0.1961305903
  9
$TDUSRTIMER
 40
0.1961305903
  9
$USRTIMER
 70
     1
  9
$ANGBASE
 50
0.0
  9
$ANGDIR
 70
     0
  9
$PDMODE
 70
     0
  9
$PDSIZE
 40
0.0
  9
$PLINEWID
 40
0.0
  9
$COORDS
 70
     1
  9
$SPLFRAME
 70
     0
  9
$SPLINETYPE
 70
     6
  9
$SPLINESEGS
 70
     8
  9
$ATTDIA
 70
     0
  9
$ATTREQ
 70
     1
  9
$HANDLING
 70
     1
  9
$HANDSEED
  5
531B
  9
$SURFTAB1
 70
     6
  9
$SURFTAB2
 70
     6
  9
$SURFTYPE
 70
     6
  9
$SURFU
 70
     6
  9
$SURFV
 70
     6
  9
$UCSNAME
  2

  9
$UCSORG
 10
0.0
 20
0.0
 30
0.0
  9
$UCSXDIR
 10
1.0
 20
0.0
 30
0.0
  9
$UCSYDIR
 10
0.0
 20
1.0
 30
0.0
  9
$PUCSNAME
  2

  9
$PUCSORG
 10
0.0
 20
0.0
 30
0.0
  9
$PUCSXDIR
 10
1.0
 20
0.0
 30
0.0
  9
$PUCSYDIR
 10
0.0
 20
1.0
 30
0.0
  9
$USERI1
 70
     4
  9
$USERI2
 70
     1
  9
$USERI3
 70
     0
  9
$USERI4
 70
     0
  9
$USERI5
 70
     0
  9
$USERR1
 40
1.0
  9
$USERR2
 40
3.0
  9
$USERR3
 40
3.0
  9
$USERR4
 40
3.0
  9
$USERR5
 40
10.0
  9
$WORLDVIEW
 70
     1
  9
$SHADEDGE
 70
     3
  9
$SHADEDIF
 70
    70
  9
$TILEMODE
 70
     1
  9
$MAXACTVP
 70
    16
  9
$PLIMCHECK
 70
     0
  9
$PEXTMIN
 10
1.0000000000000000E+020
 20
1.0000000000000000E+020
 30
1.0000000000000000E+020
  9
$PEXTMAX
 10
-1.0000000000000000E+020
 20
-1.0000000000000000E+020
 30
-1.0000000000000000E+020
  9
$PLIMMIN
 10
0.0
 20
0.0
  9
$PLIMMAX
 10
12.0
 20
9.0
  9
$UNITMODE
 70
     0
  9
$VISRETAIN
 70
     0
  9
$PLINEGEN
 70
     0
  9
$PSLTSCALE
 70
     0
  0
ENDSEC
  0
SECTION
  2
TABLES
  0
TABLE
  2
VPORT
 70
     1
  0
VPORT
  2
*ACTIVE
 70
     0
 10
0.0
 20
0.0
 11
1.0
 21
1.0
 12
349.095966620306
 22
200.0
 13
0.0
 23
0.0
 14
10.0
 24
10.0
 15
10.0
 25
10.0
 16
0.0
 26
0.0
 36
1.0
 17
0.0
 27
0.0
 37
0.0
 40
400.0
 41
1.7454798331015291
 42
50.0
 43
0.0
 44
0.0
 50
0.0
 51
0.0
 71
     0
 72
   100
 73
     1
 74
     0
 75
     0
 76
     0
 77
     0
 78
     0
  0
ENDTAB
  0
TABLE
  2
LTYPE
 70
     3
  0
LTYPE
  2
CONTINUOUS
 70
     0
  3
Solid Line
 72
    65
 73
     0
 40
0.0
  0
LTYPE
  2
CENTER
 70
     0
  3
____ _ ____ _ ____ _ ____ _ ____ _ ____ _ ____
 72
    65
 73
     4
 40
2.0
 49
1.25
 49
-0.25
 49
0.25
 49
-0.25
  0
LTYPE
  2
PHANTOM2
 70
     0
  3
___ _ _ ___ _ _ ___ _ _ ___ _ _
 72
    65
 73
     6
 40
1.25
 49
0.625
 49
-0.125
 49
0.125
 49
-0.125
 49
0.125
 49
-0.125
  0
ENDTAB
  0
TABLE
  2
LAYER
 70
     4
  0
LAYER
  2
0
 70
     0
 62
     7
  6
CONTINUOUS
  0
LAYER
  2
1
 70
     0
 62
     1
  6
CENTER
  0
LAYER
  2
3
 70
     0
 62
     3
  6
CONTINUOUS
  0
LAYER
  2
DEFPOINTS
 70
     0
 62
     7
  6
CONTINUOUS
  0
ENDTAB
  0
TABLE
  2
STYLE
 70
     2
  0
STYLE
  2
STANDARD
 70
     0
 40
0.0
 41
1.0
 50
0.0
 71
     0
 42
0.2
  3
SIMPLEX
  4
BIGFONT
  0
STYLE
  2
STANDARD1
 70
     0
 40
0.0
 41
1.0
 50
0.0
 71
     0
 42
3.0
  3
txt
  4

  0
ENDTAB
  0
TABLE
  2
VIEW
 70
     1
  0
VIEW
  2
OLE1
 70
     0
 40
23.205456353438649
 10
338.59170241122831
 20
147.26976484028091
 41
37.128730165501842
 11
0.0
 21
0.0
 31
1.0
 12
0.0
 22
0.0
 32
0.0
 42
50.0
 43
0.0
 44
0.0
 50
0.0
 71
     0
  0
ENDTAB
  0
TABLE
  2
UCS
 70
     0
  0
ENDTAB
  0
TABLE
  2
APPID
 70
    29
  0
APPID
  2
ACAD
 70
     0
  0
APPID
  2
GENIUS_GENOREF_13
 70
     0
  0
APPID
  2
GENIUS_GENOENT_13
 70
     0
  0
APPID
  2
GENIUS_GENBH_13
 70
     0
  0
APPID
  2
GENIUS_GENOBJ_13
 70
     0
  0
APPID
  2
GENIUS_GENODEF_13
 70
     0
  0
APPID
  2
GENIUS_GENOLIS_13
 70
     0
  0
APPID
  2
GENIUS_GENOBJ-NBEHI-BHF_13
 70
     0
  0
APPID
  2
GENIUS_GENOBJ-NBEHI-BHB_13
 70
     0
  0
APPID
  2
GENIUS_GENOBJ-F-PART_13
 70
     0
  0
APPID
  2
GENIUS_GEFSTDP_13
 70
     0
  0
APPID
  2
GENIUS_GENOBJ-N-RSSYM_13
 70
     0
  0
APPID
  2
GENIUS_GENSYMENT_13
 70
     0
  0
APPID
  2
GENIUS_GENOBJ-N-TIT_13
 70
     0
  0
APPID
  2
GENIUS_GENTITLE_13
 70
     0
  0
APPID
  2
GENIUS_GENZVEED_13
 70
     0
  0
APPID
  2
GENIUS_GENOBJ-N-LEADER_13
 70
     0
  0
APPID
  2
GENIUS_GENOBJ-N-FIL_13
 70
     0
  0
APPID
  2
GENIUS_GENOBJ-N-SEC_13
 70
     0
  0
APPID
  2
GENIUS_GENOBJ-N-CRS_13
 70
     0
  0
APPID
  2
GENIUS_GENOBJ-N-ZOO_13
 70
     0
  0
APPID
  2
GENIUS_GENZOO_13
 70
     0
  0
APPID
  2
GENIUS_GENOBJ-F-TOL_13
 70
     0
  0
APPID
  2
GENIUS_GENFIL_13
 70
     0
  0
APPID
  2
GENIUS_GENOBJ-N-CHA_13
 70
     0
  0
APPID
  2
GENIUS_GENOBJ-N-CEN_13
 70
     0
  0
APPID
  2
ACAD_MLEADERVER
 70
     0
  0
APPID
  2
ACAD_EXEMPT_FROM_CAD_STANDARDS
 70
     0
  0
APPID
  2
ACAD_NAV_VCDISPLAY
 70
     0
  0
ENDTAB
  0
TABLE
  2
DIMSTYLE
 70
     1
  0
DIMSTYLE
  2
STANDARD
 70
     0
  3

  4

  5

  6

  7

 40
1.0
 41
0.18
 42
0.0625
 43
0.38
 44
0.18
 45
0.0
 46
0.0
 47
0.0
 48
0.0
140
0.18
141
0.09
142
0.0
143
25.399999999999999
144
1.0
145
0.0
146
1.0
147
0.09
 71
     0
 72
     0
 73
     1
 74
     1
 75
     0
 76
     0
 77
     0
 78
     0
170
     0
171
     2
172
     0
173
     0
174
     0
175
     0
176
     0
177
     0
178
     0
  0
ENDTAB
  0
ENDSEC
  0
SECTION
  2
BLOCKS
  0
BLOCK
  8
0
  2
$MODEL_SPACE
 70
     0
 10
0.0
 20
0.0
 30
0.0
  3
$MODEL_SPACE
  1

  0
ENDBLK
  5
4119
  8
0
  0
BLOCK
 67
     1
  8
0
  2
$PAPER_SPACE
 70
     0
 10
0.0
 20
0.0
 30
0.0
  3
$PAPER_SPACE
  1

  0
ENDBLK
  5
4117
 67
     1
  8
0
  0
ENDSEC
  0
SECTION
  2
ENTITIES
  0
TEXT
  5
4A34
  8
0
 62
     3
 10
0.0
 20
0.0
 30
0.0
 40
10.0
  1
KA50-12X070R
  7
STANDARD1
  0
LINE
  5
5138
  8
3
 10
55.049999999999947
 20
108.0
 30
0.0
 11
55.049999999999947
 21
141.9500000000001
 31
0.0
  0
LINE
  5
5139
  8
3
 10
44.949999999999989
 20
141.9500000000001
 30
0.0
 11
44.949999999999989
 21
108.0
 31
0.0
  0
LINE
  5
513A
  8
0
 10
43.999999999999943
 20
141.00000000000011
 30
0.0
 11
43.999999999999943
 21
108.0
 31
0.0
  0
LINE
  5
513B
  8
0
 10
55.999999999999943
 20
141.00000000000011
 30
0.0
 11
55.999999999999943
 21
108.0
 31
0.0
  0
LINE
  5
513C
  8
1
 10
49.999999999999943
 20
148.00000000000011
 30
0.0
 11
49.999999999999943
 21
45.0
 31
0.0
  0
LINE
  5
5140
  8
0
 10
37.999999999999943
 20
65.0
 30
0.0
 11
61.999999999999943
 21
65.0
 31
0.0
  0
LINE
  5
5141
  8
0
 10
60.969655114602858
 20
73.0
 30
0.0
 11
39.030344885397092
 21
73.0
 31
0.0
  0
ARC
  5
5142
  8
0
 10
49.999999999999943
 20
75.297748359679986
 30
0.0
 40
10.29774835968
 50
237.8170824214925
 51
302.1829175785075
  0
LINE
  5
5143
  8
0
 10
43.999999999999943
 20
76.5
 30
0.0
 11
55.999999999999943
 21
76.5
 31
0.0
  0
LINE
  5
5144
  8
0
 10
27.099999999999969
 20
50.0
 30
0.0
 11
72.899999999999977
 21
50.0
 31
0.0
  0
LINE
  5
5145
  8
0
 10
24.99999999999995
 20
54.0
 30
0.0
 11
74.999999999999943
 21
54.0
 31
0.0
  0
LINE
  5
5146
  8
0
 10
27.99999999999994
 20
64.0
 30
0.0
 11
71.999999999999886
 21
64.0
 31
0.0
  0
LINE
  5
5147
  8
0
 10
37.999999999999943
 20
64.0
 30
0.0
 11
37.999999999999943
 21
65.0
 31
0.0
  0
LINE
  5
5148
  8
0
 10
27.099999999999969
 20
54.0
 30
0.0
 11
27.099999999999969
 21
50.0
 31
0.0
  0
LINE
  5
5149
  8
0
 10
24.99999999999995
 20
54.0
 30
0.0
 11
24.99999999999995
 21
61.0
 31
0.0
  0
ARC
  5
514A
  8
0
 10
27.99999999999994
 20
61.0
 30
0.0
 40
3.0
 50
90.0
 51
180.0
  0
LINE
  5
514B
  8
3
 10
44.949999999999989
 20
98.000000000000057
 30
0.0
 11
44.949999999999989
 21
76.500000000000085
 31
0.0
  0
LINE
  5
514C
  8
0
 10
43.999999999999943
 20
98.000000000000057
 30
0.0
 11
43.999999999999943
 21
73.0
 31
0.0
  0
LINE
  5
514D
  8
0
 10
39.030344885397092
 20
73.0
 30
0.0
 11
39.030344885397092
 21
66.582228412714102
 31
0.0
  0
LINE
  5
514E
  8
0
 10
44.515172442698713
 20
73.0
 30
0.0
 11
44.515172442698713
 21
66.582228412714102
 31
0.0
  0
ARC
  5
514F
  8
0
 10
41.772758664047899
 20
68.167770903510075
 30
0.0
 40
3.1677718231357361
 50
210.03460398151029
 51
329.96539601848968
  0
LINE
  5
5154
  8
0
 10
61.999999999999943
 20
65.0
 30
0.0
 11
61.999999999999943
 21
64.0
 31
0.0
  0
LINE
  5
5155
  8
0
 10
72.899999999999977
 20
50.0
 30
0.0
 11
72.899999999999977
 21
54.0
 31
0.0
  0
ARC
  5
5156
  8
0
 10
71.999999999999886
 20
61.0
 30
0.0
 40
3.0
 50
0.0
 51
90.0
  0
LINE
  5
5157
  8
0
 10
74.999999999999943
 20
61.0
 30
0.0
 11
74.999999999999943
 21
54.0
 31
0.0
  0
LINE
  5
5158
  8
3
 10
55.049999999999947
 20
76.5
 30
0.0
 11
55.049999999999947
 21
98.000000000000057
 31
0.0
  0
LINE
  5
5159
  8
0
 10
55.999999999999943
 20
98.000000000000057
 30
0.0
 11
55.999999999999943
 21
73.0
 31
0.0
  0
ARC
  5
515B
  8
0
 10
58.227241335952222
 20
68.167770903510416
 30
0.0
 40
3.167771823135852
 50
210.03460398151029
 51
329.96539601848832
  0
LINE
  5
515C
  8
0
 10
55.484827557301401
 20
73.0
 30
0.0
 11
55.484827557301401
 21
66.582228412714102
 31
0.0
  0
LINE
  5
515D
  8
0
 10
60.969655114602858
 20
73.0
 30
0.0
 11
60.969655114602858
 21
66.582228412714102
 31
0.0
  0
CIRCLE
  5
5161
  8
0
 10
49.999999999999943
 20
193.00000000000011
 30
0.0
 40
12.0
  0
CIRCLE
  5
5163
  8
0
 10
49.999999999999943
 20
193.00000000000011
 30
0.0
 40
25.0
  0
LINE
  5
5164
  8
1
 10
49.999999999999943
 20
223.00000000000011
 30
0.0
 11
49.999999999999943
 21
163.00000000000011
 31
0.0
  0
LINE
  5
5165
  8
0
 10
43.999999999999943
 20
141.00000000000011
 30
0.0
 11
55.999999999999943
 21
141.00000000000011
 31
0.0
  0
LINE
  5
5166
  8
0
 10
53.99999999999995
 20
143.00000000000011
 30
0.0
 11
45.999999999999943
 21
143.00000000000011
 31
0.0
  0
LINE
  5
5167
  8
0
 10
45.999999999999943
 20
143.00000000000011
 30
0.0
 11
43.999999999999943
 21
141.00000000000011
 31
0.0
  0
LINE
  5
5168
  8
0
 10
55.999999999999943
 20
141.00000000000011
 30
0.0
 11
53.99999999999995
 21
143.00000000000011
 31
0.0
  0
CIRCLE
  5
5169
  8
3
 10
49.999999999999943
 20
193.00000000000011
 30
0.0
 40
5.0500000000000123
  0
CIRCLE
  5
516A
  8
0
 10
49.999999999999943
 20
193.00000000000011
 30
0.0
 40
6.0
  0
LINE
  5
516B
  8
1
 10
19.99999999999994
 20
193.00000000000011
 30
0.0
 11
79.999999999999943
 21
193.00000000000011
 31
0.0
  0
LINE
  5
516C
  8
0
 10
44.515172442698713
 20
202.50000000000011
 30
0.0
 11
39.030344885397092
 21
193.00000000000011
 31
0.0
  0
LINE
  5
516D
  8
0
 10
39.030344885397092
 20
193.00000000000011
 30
0.0
 11
44.515172442698713
 21
183.50000000000011
 31
0.0
  0
LINE
  5
516E
  8
0
 10
44.515172442698713
 20
183.50000000000011
 30
0.0
 11
55.484827557301401
 21
183.50000000000011
 31
0.0
  0
LINE
  5
516F
  8
0
 10
55.484827557301401
 20
183.50000000000011
 30
0.0
 11
60.969655114602858
 21
193.00000000000011
 31
0.0
  0
LINE
  5
5170
  8
0
 10
60.969655114602858
 20
193.00000000000011
 30
0.0
 11
55.484827557301521
 21
202.50000000000011
 31
0.0
  0
LINE
  5
5171
  8
0
 10
55.484827557301521
 20
202.50000000000011
 30
0.0
 11
44.515172442698713
 21
202.50000000000011
 31
0.0
  0
LINE
  5
518A
  8
3
 10
44.949999999999932
 20
76.499999999999986
 30
0.0
 11
43.999999999999943
 21
74.854551732809625
 31
0.0
  0
LINE
  5
518B
  8
3
 10
55.999999999999943
 20
74.854551732809526
 30
0.0
 11
55.049999999999947
 21
76.5
 31
0.0
  0
LINE
  5
5227
  8
0
 10
60.969655114602908
 20
108.0
 30
0.0
 11
39.030344885396858
 21
108.0
 31
0.0
  0
LINE
  5
5228
  8
0
 10
44.515172442702692
 20
99.137180910625887
 30
0.0
 11
44.515172442695018
 21
108.0
 31
0.0
  0
LINE
  5
5229
  8
0
 10
39.030344885396858
 20
99.137180910625915
 30
0.0
 11
39.030344885396858
 21
108.0
 31
0.0
  0
LINE
  5
522A
  8
0
 10
55.484827557297081
 20
99.137180910625887
 30
0.0
 11
55.484827557304783
 21
108.0
 31
0.0
  0
LINE
  5
522B
  8
0
 10
60.969655114602908
 20
99.137180910625887
 30
0.0
 11
60.969655114602908
 21
108.0
 31
0.0
  0
LINE
  5
522C
  8
0
 10
59.000000000001251
 20
98.000000000000057
 30
0.0
 11
40.999999999998522
 21
98.000000000000071
 31
0.0
  0
LINE
  5
522D
  8
0
 10
39.030344885396858
 20
99.137180910625915
 30
0.0
 11
40.999999999998522
 21
98.000000000000071
 31
0.0
  0
ARC
  5
522E
  8
0
 10
41.772758664047501
 20
103.1447383566033
 30
0.0
 40
4.8560632220084576
 50
244.38424746808431
 51
304.38424746800661
  0
ARC
  5
522F
  8
0
 10
49.999999999999893
 20
116.44016935858031
 30
0.0
 40
18.15149422398537
 50
252.4120462260245
 51
287.58795377397553
  0
ARC
  5
5230
  8
0
 10
58.227241335952272
 20
103.1447383566033
 30
0.0
 40
4.8560632220084576
 50
235.61575253199339
 51
295.61575253191569
  0
LINE
  5
5231
  8
0
 10
60.969655114602908
 20
99.137180910625887
 30
0.0
 11
59.000000000001251
 21
98.000000000000057
 31
0.0
  0
ENDSEC
  0
EOF
