  0
SECTION
  2
HEADER
  9
$ACADVER
  1
AC1009
  9
$INSBASE
 10
0.0
 20
0.0
 30
0.0
  9
$EXTMIN
 10
0.0
 20
-2.960436562073669
 30
0.0
  9
$EXTMAX
 10
86.991814461118693
 20
214.99999999999989
 30
0.0
  9
$LIMMIN
 10
0.0
 20
0.0
  9
$LIMMAX
 10
375.0
 20
270.0
  9
$ORTHOMODE
 70
     1
  9
$REGENMODE
 70
     1
  9
$FILLMODE
 70
     1
  9
$QTEXTMODE
 70
     0
  9
$MIRRTEXT
 70
     0
  9
$DRAGMODE
 70
     2
  9
$LTSCALE
 40
6.0
  9
$OSMODE
 70
    37
  9
$ATTMODE
 70
     1
  9
$TEXTSIZE
 40
0.2
  9
$TRACEWID
 40
0.05
  9
$TEXTSTYLE
  7
STANDARD
  9
$CLAYER
  8
0
  9
$CELTYPE
  6
BYLAYER
  9
$CECOLOR
 62
   256
  9
$DIMSCALE
 40
1.0
  9
$DIMASZ
 40
3.0
  9
$DIMEXO
 40
1.0
  9
$DIMDLI
 40
6.0
  9
$DIMRND
 40
0.0
  9
$DIMDLE
 40
0.0
  9
$DIMEXE
 40
1.0
  9
$DIMTP
 40
495.0
  9
$DIMTM
 40
0.0
  9
$DIMTXT
 40
3.0
  9
$DIMCEN
 40
0.0
  9
$DIMTSZ
 40
0.0
  9
$DIMTOL
 70
     0
  9
$DIMLIM
 70
     0
  9
$DIMTIH
 70
     0
  9
$DIMTOH
 70
     0
  9
$DIMSE1
 70
     0
  9
$DIMSE2
 70
     0
  9
$DIMTAD
 70
     1
  9
$DIMZIN
 70
     0
  9
$DIMBLK
  1

  9
$DIMASO
 70
     0
  9
$DIMSHO
 70
     0
  9
$DIMPOST
  1

  9
$DIMAPOST
  1

  9
$DIMALT
 70
     0
  9
$DIMALTD
 70
     2
  9
$DIMALTF
 40
25.399999999999999
  9
$DIMLFAC
 40
1.0
  9
$DIMTOFL
 70
     1
  9
$DIMTVP
 40
0.0
  9
$DIMTIX
 70
     1
  9
$DIMSOXD
 70
     0
  9
$DIMSAH
 70
     0
  9
$DIMBLK1
  1

  9
$DIMBLK2
  1

  9
$DIMSTYLE
  2
STANDARD
  9
$DIMCLRD
 70
     0
  9
$DIMCLRE
 70
     0
  9
$DIMCLRT
 70
     4
  9
$DIMTFAC
 40
1.0
  9
$DIMGAP
 40
1.0
  9
$LUNITS
 70
     2
  9
$LUPREC
 70
     1
  9
$SKETCHINC
 40
0.1
  9
$FILLETRAD
 40
2.0
  9
$AUNITS
 70
     0
  9
$AUPREC
 70
     1
  9
$MENU
  1
C:\R13\WIN\SUPPORT\ACAD-I
  9
$ELEVATION
 40
0.0
  9
$PELEVATION
 40
0.0
  9
$THICKNESS
 40
0.0
  9
$LIMCHECK
 70
     0
  9
$BLIPMODE
 70
     0
  9
$CHAMFERA
 40
0.0
  9
$CHAMFERB
 40
0.0
  9
$SKPOLY
 70
     0
  9
$TDCREATE
 40
2451962.4112634258
  9
$TDUPDATE
 40
2457032.4436775348
  9
$TDINDWG
 40
0.1282852662
  9
$TDUSRTIMER
 40
0.1282852662
  9
$USRTIMER
 70
     1
  9
$ANGBASE
 50
0.0
  9
$ANGDIR
 70
     0
  9
$PDMODE
 70
     0
  9
$PDSIZE
 40
0.0
  9
$PLINEWID
 40
0.0
  9
$COORDS
 70
     1
  9
$SPLFRAME
 70
     0
  9
$SPLINETYPE
 70
     6
  9
$SPLINESEGS
 70
     8
  9
$ATTDIA
 70
     0
  9
$ATTREQ
 70
     1
  9
$HANDLING
 70
     1
  9
$HANDSEED
  5
4EE2
  9
$SURFTAB1
 70
     6
  9
$SURFTAB2
 70
     6
  9
$SURFTYPE
 70
     6
  9
$SURFU
 70
     6
  9
$SURFV
 70
     6
  9
$UCSNAME
  2

  9
$UCSORG
 10
0.0
 20
0.0
 30
0.0
  9
$UCSXDIR
 10
1.0
 20
0.0
 30
0.0
  9
$UCSYDIR
 10
0.0
 20
1.0
 30
0.0
  9
$PUCSNAME
  2

  9
$PUCSORG
 10
0.0
 20
0.0
 30
0.0
  9
$PUCSXDIR
 10
1.0
 20
0.0
 30
0.0
  9
$PUCSYDIR
 10
0.0
 20
1.0
 30
0.0
  9
$USERI1
 70
     4
  9
$USERI2
 70
     1
  9
$USERI3
 70
     0
  9
$USERI4
 70
     0
  9
$USERI5
 70
     0
  9
$USERR1
 40
1.0
  9
$USERR2
 40
3.0
  9
$USERR3
 40
3.0
  9
$USERR4
 40
3.0
  9
$USERR5
 40
10.0
  9
$WORLDVIEW
 70
     1
  9
$SHADEDGE
 70
     3
  9
$SHADEDIF
 70
    70
  9
$TILEMODE
 70
     1
  9
$MAXACTVP
 70
    16
  9
$PLIMCHECK
 70
     0
  9
$PEXTMIN
 10
1.0000000000000000E+020
 20
1.0000000000000000E+020
 30
1.0000000000000000E+020
  9
$PEXTMAX
 10
-1.0000000000000000E+020
 20
-1.0000000000000000E+020
 30
-1.0000000000000000E+020
  9
$PLIMMIN
 10
0.0
 20
0.0
  9
$PLIMMAX
 10
12.0
 20
9.0
  9
$UNITMODE
 70
     0
  9
$VISRETAIN
 70
     0
  9
$PLINEGEN
 70
     0
  9
$PSLTSCALE
 70
     0
  0
ENDSEC
  0
SECTION
  2
TABLES
  0
TABLE
  2
VPORT
 70
     1
  0
VPORT
  2
*ACTIVE
 70
     0
 10
0.0
 20
0.0
 11
1.0
 21
1.0
 12
349.095966620306
 22
200.0
 13
0.0
 23
0.0
 14
10.0
 24
10.0
 15
10.0
 25
10.0
 16
0.0
 26
0.0
 36
1.0
 17
0.0
 27
0.0
 37
0.0
 40
400.0
 41
1.7454798331015291
 42
50.0
 43
0.0
 44
0.0
 50
0.0
 51
0.0
 71
     0
 72
   100
 73
     1
 74
     0
 75
     0
 76
     0
 77
     0
 78
     0
  0
ENDTAB
  0
TABLE
  2
LTYPE
 70
     3
  0
LTYPE
  2
CONTINUOUS
 70
     0
  3
Solid Line
 72
    65
 73
     0
 40
0.0
  0
LTYPE
  2
CENTER
 70
     0
  3
____ _ ____ _ ____ _ ____ _ ____ _ ____ _ ____
 72
    65
 73
     4
 40
2.0
 49
1.25
 49
-0.25
 49
0.25
 49
-0.25
  0
LTYPE
  2
PHANTOM2
 70
     0
  3
___ _ _ ___ _ _ ___ _ _ ___ _ _
 72
    65
 73
     6
 40
1.25
 49
0.625
 49
-0.125
 49
0.125
 49
-0.125
 49
0.125
 49
-0.125
  0
ENDTAB
  0
TABLE
  2
LAYER
 70
     3
  0
LAYER
  2
0
 70
     0
 62
     7
  6
CONTINUOUS
  0
LAYER
  2
1
 70
     0
 62
     1
  6
CENTER
  0
LAYER
  2
3
 70
     0
 62
     3
  6
CONTINUOUS
  0
ENDTAB
  0
TABLE
  2
STYLE
 70
     2
  0
STYLE
  2
STANDARD
 70
     0
 40
0.0
 41
1.0
 50
0.0
 71
     0
 42
0.2
  3
SIMPLEX
  4
BIGFONT
  0
STYLE
  2
STANDARD1
 70
     0
 40
0.0
 41
1.0
 50
0.0
 71
     0
 42
3.0
  3
txt
  4

  0
ENDTAB
  0
TABLE
  2
VIEW
 70
     1
  0
VIEW
  2
OLE1
 70
     0
 40
23.205456353438649
 10
338.59170241122831
 20
147.26976484028091
 41
37.128730165501842
 11
0.0
 21
0.0
 31
1.0
 12
0.0
 22
0.0
 32
0.0
 42
50.0
 43
0.0
 44
0.0
 50
0.0
 71
     0
  0
ENDTAB
  0
TABLE
  2
UCS
 70
     0
  0
ENDTAB
  0
TABLE
  2
APPID
 70
    29
  0
APPID
  2
ACAD
 70
     0
  0
APPID
  2
GENIUS_GENOREF_13
 70
     0
  0
APPID
  2
GENIUS_GENOENT_13
 70
     0
  0
APPID
  2
GENIUS_GENBH_13
 70
     0
  0
APPID
  2
GENIUS_GENOBJ_13
 70
     0
  0
APPID
  2
GENIUS_GENODEF_13
 70
     0
  0
APPID
  2
GENIUS_GENOLIS_13
 70
     0
  0
APPID
  2
GENIUS_GENOBJ-NBEHI-BHF_13
 70
     0
  0
APPID
  2
GENIUS_GENOBJ-NBEHI-BHB_13
 70
     0
  0
APPID
  2
GENIUS_GENOBJ-F-PART_13
 70
     0
  0
APPID
  2
GENIUS_GEFSTDP_13
 70
     0
  0
APPID
  2
GENIUS_GENOBJ-N-RSSYM_13
 70
     0
  0
APPID
  2
GENIUS_GENSYMENT_13
 70
     0
  0
APPID
  2
GENIUS_GENOBJ-N-TIT_13
 70
     0
  0
APPID
  2
GENIUS_GENTITLE_13
 70
     0
  0
APPID
  2
GENIUS_GENZVEED_13
 70
     0
  0
APPID
  2
GENIUS_GENOBJ-N-LEADER_13
 70
     0
  0
APPID
  2
GENIUS_GENOBJ-N-FIL_13
 70
     0
  0
APPID
  2
GENIUS_GENOBJ-N-SEC_13
 70
     0
  0
APPID
  2
GENIUS_GENOBJ-N-CRS_13
 70
     0
  0
APPID
  2
GENIUS_GENOBJ-N-ZOO_13
 70
     0
  0
APPID
  2
GENIUS_GENZOO_13
 70
     0
  0
APPID
  2
GENIUS_GENOBJ-F-TOL_13
 70
     0
  0
APPID
  2
GENIUS_GENFIL_13
 70
     0
  0
APPID
  2
GENIUS_GENOBJ-N-CHA_13
 70
     0
  0
APPID
  2
GENIUS_GENOBJ-N-CEN_13
 70
     0
  0
APPID
  2
ACAD_MLEADERVER
 70
     0
  0
APPID
  2
ACAD_EXEMPT_FROM_CAD_STANDARDS
 70
     0
  0
APPID
  2
ACAD_NAV_VCDISPLAY
 70
     0
  0
ENDTAB
  0
TABLE
  2
DIMSTYLE
 70
     1
  0
DIMSTYLE
  2
STANDARD
 70
     0
  3

  4

  5

  6

  7

 40
1.0
 41
0.18
 42
0.0625
 43
0.38
 44
0.18
 45
0.0
 46
0.0
 47
0.0
 48
0.0
140
0.18
141
0.09
142
0.0
143
25.399999999999999
144
1.0
145
0.0
146
1.0
147
0.09
 71
     0
 72
     0
 73
     1
 74
     1
 75
     0
 76
     0
 77
     0
 78
     0
170
     0
171
     2
172
     0
173
     0
174
     0
175
     0
176
     0
177
     0
178
     0
  0
ENDTAB
  0
ENDSEC
  0
SECTION
  2
BLOCKS
  0
BLOCK
  8
0
  2
$MODEL_SPACE
 70
     0
 10
0.0
 20
0.0
 30
0.0
  3
$MODEL_SPACE
  1

  0
ENDBLK
  5
4119
  8
0
  0
BLOCK
 67
     1
  8
0
  2
$PAPER_SPACE
 70
     0
 10
0.0
 20
0.0
 30
0.0
  3
$PAPER_SPACE
  1

  0
ENDBLK
  5
4117
 67
     1
  8
0
  0
ENDSEC
  0
SECTION
  2
ENTITIES
  0
TEXT
  5
4A34
  8
0
 62
     3
 10
0.0
 20
0.0
 30
0.0
 40
10.0
  1
KA60-12X050
  7
STANDARD1
  0
LINE
  5
4CB2
  8
3
 10
55.050000000000061
 20
99.999999999999915
 30
0.0
 11
55.050000000000061
 21
123.9499999999998
 31
0.0
  0
LINE
  5
4CB3
  8
3
 10
44.949999999999989
 20
123.9499999999998
 30
0.0
 11
44.949999999999989
 21
99.999999999999915
 31
0.0
  0
LINE
  5
4CB4
  8
0
 10
56.0
 20
122.9999999999999
 30
0.0
 11
56.0
 21
99.999999999999915
 31
0.0
  0
LINE
  5
4CB5
  8
0
 10
44.00000000000005
 20
122.9999999999999
 30
0.0
 11
44.00000000000005
 21
99.999999999999915
 31
0.0
  0
LINE
  5
4CB6
  8
1
 10
50.000000000000057
 20
129.99999999999989
 30
0.0
 11
50.000000000000107
 21
45.0
 31
0.0
  0
LINE
  5
4CB7
  8
0
 10
30.00000000000006
 20
66.999999999999943
 30
0.0
 11
20.0
 21
58.609003688227148
 31
0.0
  0
LINE
  5
4CB8
  8
0
 10
20.0
 20
58.609003688227148
 30
0.0
 11
80.000000000000057
 21
58.609003688227233
 31
0.0
  0
LINE
  5
4CB9
  8
0
 10
20.0
 20
50.0
 30
0.0
 11
80.000000000000057
 21
50.0
 31
0.0
  0
LINE
  5
4CBA
  8
0
 10
20.0
 20
58.609003688227148
 30
0.0
 11
20.0
 21
50.0
 31
0.0
  0
LINE
  5
4CBB
  8
0
 10
80.000000000000057
 20
58.609003688227148
 30
0.0
 11
70.0
 21
66.999999999999943
 31
0.0
  0
LINE
  5
4CBC
  8
0
 10
80.000000000000057
 20
50.0
 30
0.0
 11
80.000000000000057
 21
58.609003688227148
 31
0.0
  0
LINE
  5
4CC0
  8
0
 10
60.969655114602972
 20
74.999999999999943
 30
0.0
 11
39.030344885397028
 21
74.999999999999943
 31
0.0
  0
LINE
  5
4CC1
  8
0
 10
70.0
 20
66.999999999999943
 30
0.0
 11
30.00000000000006
 21
66.999999999999943
 31
0.0
  0
ARC
  5
4CC2
  8
0
 10
58.227241335952151
 20
70.167770903510032
 30
0.0
 40
3.1677718231357779
 50
210.0346039815112
 51
329.96539601848889
  0
LINE
  5
4CC8
  8
0
 10
56.0
 20
89.999999999999943
 30
0.0
 11
56.0
 21
74.999999999999943
 31
0.0
  0
LINE
  5
4CC9
  8
0
 10
44.00000000000005
 20
90.000000000000014
 30
0.0
 11
44.00000000000005
 21
74.999999999999943
 31
0.0
  0
ARC
  5
4CCC
  8
0
 10
50.000000000000057
 20
77.297748359680355
 30
0.0
 40
10.2977483596804
 50
237.81708242149631
 51
302.18291757850369
  0
LINE
  5
4CCD
  8
0
 10
44.515172442698479
 20
74.999999999999943
 30
0.0
 11
44.515172442698479
 21
68.582228412714144
 31
0.0
  0
LINE
  5
4CCE
  8
0
 10
39.030344885397028
 20
74.999999999999943
 30
0.0
 11
39.030344885397028
 21
68.582228412714144
 31
0.0
  0
LINE
  5
4CD0
  8
0
 10
55.484827557301337
 20
74.999999999999943
 30
0.0
 11
55.484827557301337
 21
68.582228412714144
 31
0.0
  0
LINE
  5
4CD1
  8
0
 10
44.00000000000005
 20
78.499999999999943
 30
0.0
 11
56.0
 21
78.499999999999943
 31
0.0
  0
LINE
  5
4CD4
  8
3
 10
44.949999999999989
 20
90.000000000000014
 30
0.0
 11
44.949999999999989
 21
78.499999999999943
 31
0.0
  0
LINE
  5
4CD5
  8
3
 10
55.050000000000061
 20
90.000000000000014
 30
0.0
 11
55.050000000000061
 21
78.499999999999943
 31
0.0
  0
LINE
  5
4CD7
  8
0
 10
60.969655114602972
 20
74.999999999999943
 30
0.0
 11
60.969655114602972
 21
68.582228412714144
 31
0.0
  0
CIRCLE
  5
4CD8
  8
0
 10
50.000000000000057
 20
179.99999999999989
 30
0.0
 40
20.0
  0
LINE
  5
4CD9
  8
1
 10
50.000000000000057
 20
214.99999999999989
 30
0.0
 11
50.000000000000057
 21
144.99999999999989
 31
0.0
  0
CIRCLE
  5
4CDA
  8
0
 10
50.000000000000057
 20
179.99999999999989
 30
0.0
 40
30.0
  0
LINE
  5
4CDB
  8
0
 10
54.0
 20
124.9999999999999
 30
0.0
 11
56.0
 21
122.9999999999999
 31
0.0
  0
LINE
  5
4CDC
  8
0
 10
44.00000000000005
 20
122.9999999999999
 30
0.0
 11
46.00000000000005
 21
124.9999999999999
 31
0.0
  0
LINE
  5
4CDD
  8
0
 10
44.00000000000005
 20
122.9999999999999
 30
0.0
 11
56.0
 21
122.9999999999999
 31
0.0
  0
LINE
  5
4CDE
  8
0
 10
46.00000000000005
 20
124.9999999999999
 30
0.0
 11
54.0
 21
124.9999999999999
 31
0.0
  0
LINE
  5
4CDF
  8
1
 10
15.00000000000006
 20
179.99999999999989
 30
0.0
 11
85.000000000000057
 21
179.99999999999989
 31
0.0
  0
CIRCLE
  5
4CE1
  8
3
 10
50.000000000000057
 20
179.99999999999989
 30
0.0
 40
5.0500000000000123
  0
CIRCLE
  5
4CE2
  8
0
 10
50.000000000000057
 20
179.99999999999989
 30
0.0
 40
6.0
  0
LINE
  5
4CE3
  8
0
 10
44.515172442698479
 20
189.49999999999989
 30
0.0
 11
39.030344885397028
 21
179.99999999999989
 31
0.0
  0
LINE
  5
4CE4
  8
0
 10
39.030344885397028
 20
179.99999999999989
 30
0.0
 11
44.515172442698479
 21
170.49999999999969
 31
0.0
  0
LINE
  5
4CE5
  8
0
 10
44.515172442698479
 20
170.49999999999969
 30
0.0
 11
55.484827557301337
 21
170.49999999999969
 31
0.0
  0
LINE
  5
4CE6
  8
0
 10
55.484827557301337
 20
170.49999999999969
 30
0.0
 11
60.969655114602972
 21
179.99999999999989
 31
0.0
  0
LINE
  5
4CE7
  8
0
 10
60.969655114602972
 20
179.99999999999989
 30
0.0
 11
55.48482755730145
 21
189.49999999999989
 31
0.0
  0
LINE
  5
4CE8
  8
0
 10
55.48482755730145
 20
189.49999999999989
 30
0.0
 11
44.515172442698479
 21
189.49999999999989
 31
0.0
  0
LINE
  5
4D3D
  8
3
 10
44.949999999999989
 20
78.499999999999943
 30
0.0
 11
44.00000000000005
 21
76.854551732809597
 31
0.0
  0
LINE
  5
4D3E
  8
3
 10
55.999999999999943
 20
76.854551732809583
 30
0.0
 11
55.050000000000061
 21
78.499999999999943
 31
0.0
  0
LINE
  5
4D9D
  8
0
 10
60.969655114603107
 20
99.999999999999915
 30
0.0
 11
39.030344885397056
 21
99.999999999999915
 31
0.0
  0
LINE
  5
4D9E
  8
0
 10
44.515172442702891
 20
91.137180910625759
 30
0.0
 11
44.51517244269521
 21
99.999999999999915
 31
0.0
  0
LINE
  5
4D9F
  8
0
 10
39.030344885397056
 20
91.137180910625787
 30
0.0
 11
39.030344885397056
 21
99.999999999999915
 31
0.0
  0
LINE
  5
4DA0
  8
0
 10
55.48482755729728
 20
91.137180910625759
 30
0.0
 11
55.484827557304982
 21
99.999999999999915
 31
0.0
  0
LINE
  5
4DA1
  8
0
 10
60.969655114603107
 20
91.137180910625759
 30
0.0
 11
60.969655114603107
 21
99.999999999999915
 31
0.0
  0
LINE
  5
4DA2
  8
0
 10
59.00000000000145
 20
89.999999999999915
 30
0.0
 11
40.999999999998721
 21
89.999999999999943
 31
0.0
  0
LINE
  5
4DA3
  8
0
 10
39.030344885397056
 20
91.137180910625787
 30
0.0
 11
40.999999999998721
 21
89.999999999999943
 31
0.0
  0
ARC
  5
4DA4
  8
0
 10
41.772758664047693
 20
95.144738356603227
 30
0.0
 40
4.8560632220084576
 50
244.38424746808431
 51
304.38424746800661
  0
ARC
  5
4DA5
  8
0
 10
50.000000000000078
 20
108.44016935858021
 30
0.0
 40
18.15149422398537
 50
252.4120462260245
 51
287.58795377397553
  0
ARC
  5
4DA6
  8
0
 10
58.227241335952471
 20
95.144738356603213
 30
0.0
 40
4.8560632220084576
 50
235.61575253199339
 51
295.61575253191569
  0
LINE
  5
4DA7
  8
0
 10
60.969655114603107
 20
91.137180910625759
 30
0.0
 11
59.00000000000145
 21
89.999999999999915
 31
0.0
  0
ARC
  5
4DAF
  8
0
 10
41.77275866404802
 20
70.167770903509947
 30
0.0
 40
3.1677718231357779
 50
210.03460398151159
 51
329.96539601848929
  0
ENDSEC
  0
EOF
