  0
SECTION
  2
HEADER
  9
$ACADVER
  1
AC1009
  9
$INSBASE
 10
0.0
 20
0.0
 30
0.0
  9
$EXTMIN
 10
0.0
 20
-2.960436562073669
 30
0.0
  9
$EXTMAX
 10
86.991814461118693
 20
317.00007813099228
 30
0.0
  9
$LIMMIN
 10
0.0
 20
0.0
  9
$LIMMAX
 10
375.0
 20
270.0
  9
$ORTHOMODE
 70
     1
  9
$REGENMODE
 70
     1
  9
$FILLMODE
 70
     1
  9
$QTEXTMODE
 70
     0
  9
$MIRRTEXT
 70
     0
  9
$DRAGMODE
 70
     2
  9
$LTSCALE
 40
6.0
  9
$OSMODE
 70
    37
  9
$ATTMODE
 70
     1
  9
$TEXTSIZE
 40
0.2
  9
$TRACEWID
 40
0.05
  9
$TEXTSTYLE
  7
STANDARD
  9
$CLAYER
  8
0
  9
$CELTYPE
  6
BYLAYER
  9
$CECOLOR
 62
   256
  9
$DIMSCALE
 40
1.0
  9
$DIMASZ
 40
3.0
  9
$DIMEXO
 40
1.0
  9
$DIMDLI
 40
6.0
  9
$DIMRND
 40
0.0
  9
$DIMDLE
 40
0.0
  9
$DIMEXE
 40
1.0
  9
$DIMTP
 40
495.0
  9
$DIMTM
 40
0.0
  9
$DIMTXT
 40
3.0
  9
$DIMCEN
 40
0.0
  9
$DIMTSZ
 40
0.0
  9
$DIMTOL
 70
     0
  9
$DIMLIM
 70
     0
  9
$DIMTIH
 70
     0
  9
$DIMTOH
 70
     0
  9
$DIMSE1
 70
     0
  9
$DIMSE2
 70
     0
  9
$DIMTAD
 70
     1
  9
$DIMZIN
 70
     0
  9
$DIMBLK
  1

  9
$DIMASO
 70
     0
  9
$DIMSHO
 70
     0
  9
$DIMPOST
  1

  9
$DIMAPOST
  1

  9
$DIMALT
 70
     0
  9
$DIMALTD
 70
     2
  9
$DIMALTF
 40
25.399999999999999
  9
$DIMLFAC
 40
1.0
  9
$DIMTOFL
 70
     1
  9
$DIMTVP
 40
0.0
  9
$DIMTIX
 70
     1
  9
$DIMSOXD
 70
     0
  9
$DIMSAH
 70
     0
  9
$DIMBLK1
  1

  9
$DIMBLK2
  1

  9
$DIMSTYLE
  2
STANDARD
  9
$DIMCLRD
 70
     0
  9
$DIMCLRE
 70
     0
  9
$DIMCLRT
 70
     4
  9
$DIMTFAC
 40
1.0
  9
$DIMGAP
 40
1.0
  9
$LUNITS
 70
     2
  9
$LUPREC
 70
     1
  9
$SKETCHINC
 40
0.1
  9
$FILLETRAD
 40
2.0
  9
$AUNITS
 70
     0
  9
$AUPREC
 70
     1
  9
$MENU
  1
C:\R13\WIN\SUPPORT\ACAD-I
  9
$ELEVATION
 40
0.0
  9
$PELEVATION
 40
0.0
  9
$THICKNESS
 40
0.0
  9
$LIMCHECK
 70
     0
  9
$BLIPMODE
 70
     0
  9
$CHAMFERA
 40
0.0
  9
$CHAMFERB
 40
0.0
  9
$SKPOLY
 70
     0
  9
$TDCREATE
 40
2451962.4112634258
  9
$TDUPDATE
 40
2457032.4437338659
  9
$TDINDWG
 40
0.1347155208
  9
$TDUSRTIMER
 40
0.1347155208
  9
$USRTIMER
 70
     1
  9
$ANGBASE
 50
0.0
  9
$ANGDIR
 70
     0
  9
$PDMODE
 70
     0
  9
$PDSIZE
 40
0.0
  9
$PLINEWID
 40
0.0
  9
$COORDS
 70
     1
  9
$SPLFRAME
 70
     0
  9
$SPLINETYPE
 70
     6
  9
$SPLINESEGS
 70
     8
  9
$ATTDIA
 70
     0
  9
$ATTREQ
 70
     1
  9
$HANDLING
 70
     1
  9
$HANDSEED
  5
50B2
  9
$SURFTAB1
 70
     6
  9
$SURFTAB2
 70
     6
  9
$SURFTYPE
 70
     6
  9
$SURFU
 70
     6
  9
$SURFV
 70
     6
  9
$UCSNAME
  2

  9
$UCSORG
 10
0.0
 20
0.0
 30
0.0
  9
$UCSXDIR
 10
1.0
 20
0.0
 30
0.0
  9
$UCSYDIR
 10
0.0
 20
1.0
 30
0.0
  9
$PUCSNAME
  2

  9
$PUCSORG
 10
0.0
 20
0.0
 30
0.0
  9
$PUCSXDIR
 10
1.0
 20
0.0
 30
0.0
  9
$PUCSYDIR
 10
0.0
 20
1.0
 30
0.0
  9
$USERI1
 70
     4
  9
$USERI2
 70
     1
  9
$USERI3
 70
     0
  9
$USERI4
 70
     0
  9
$USERI5
 70
     0
  9
$USERR1
 40
1.0
  9
$USERR2
 40
3.0
  9
$USERR3
 40
3.0
  9
$USERR4
 40
3.0
  9
$USERR5
 40
10.0
  9
$WORLDVIEW
 70
     1
  9
$SHADEDGE
 70
     3
  9
$SHADEDIF
 70
    70
  9
$TILEMODE
 70
     1
  9
$MAXACTVP
 70
    16
  9
$PLIMCHECK
 70
     0
  9
$PEXTMIN
 10
1.0000000000000000E+020
 20
1.0000000000000000E+020
 30
1.0000000000000000E+020
  9
$PEXTMAX
 10
-1.0000000000000000E+020
 20
-1.0000000000000000E+020
 30
-1.0000000000000000E+020
  9
$PLIMMIN
 10
0.0
 20
0.0
  9
$PLIMMAX
 10
12.0
 20
9.0
  9
$UNITMODE
 70
     0
  9
$VISRETAIN
 70
     0
  9
$PLINEGEN
 70
     0
  9
$PSLTSCALE
 70
     0
  0
ENDSEC
  0
SECTION
  2
TABLES
  0
TABLE
  2
VPORT
 70
     1
  0
VPORT
  2
*ACTIVE
 70
     0
 10
0.0
 20
0.0
 11
1.0
 21
1.0
 12
349.095966620306
 22
200.0
 13
0.0
 23
0.0
 14
10.0
 24
10.0
 15
10.0
 25
10.0
 16
0.0
 26
0.0
 36
1.0
 17
0.0
 27
0.0
 37
0.0
 40
400.0
 41
1.7454798331015291
 42
50.0
 43
0.0
 44
0.0
 50
0.0
 51
0.0
 71
     0
 72
   100
 73
     1
 74
     0
 75
     0
 76
     0
 77
     0
 78
     0
  0
ENDTAB
  0
TABLE
  2
LTYPE
 70
     3
  0
LTYPE
  2
CONTINUOUS
 70
     0
  3
Solid Line
 72
    65
 73
     0
 40
0.0
  0
LTYPE
  2
CENTER
 70
     0
  3
____ _ ____ _ ____ _ ____ _ ____ _ ____ _ ____
 72
    65
 73
     4
 40
2.0
 49
1.25
 49
-0.25
 49
0.25
 49
-0.25
  0
LTYPE
  2
PHANTOM2
 70
     0
  3
___ _ _ ___ _ _ ___ _ _ ___ _ _
 72
    65
 73
     6
 40
1.25
 49
0.625
 49
-0.125
 49
0.125
 49
-0.125
 49
0.125
 49
-0.125
  0
ENDTAB
  0
TABLE
  2
LAYER
 70
     3
  0
LAYER
  2
0
 70
     0
 62
     7
  6
CONTINUOUS
  0
LAYER
  2
1
 70
     0
 62
     1
  6
CENTER
  0
LAYER
  2
3
 70
     0
 62
     3
  6
CONTINUOUS
  0
ENDTAB
  0
TABLE
  2
STYLE
 70
     2
  0
STYLE
  2
STANDARD
 70
     0
 40
0.0
 41
1.0
 50
0.0
 71
     0
 42
0.2
  3
SIMPLEX
  4
BIGFONT
  0
STYLE
  2
STANDARD1
 70
     0
 40
0.0
 41
1.0
 50
0.0
 71
     0
 42
3.0
  3
txt
  4

  0
ENDTAB
  0
TABLE
  2
VIEW
 70
     1
  0
VIEW
  2
OLE1
 70
     0
 40
23.205456353438649
 10
338.59170241122831
 20
147.26976484028091
 41
37.128730165501842
 11
0.0
 21
0.0
 31
1.0
 12
0.0
 22
0.0
 32
0.0
 42
50.0
 43
0.0
 44
0.0
 50
0.0
 71
     0
  0
ENDTAB
  0
TABLE
  2
UCS
 70
     0
  0
ENDTAB
  0
TABLE
  2
APPID
 70
    29
  0
APPID
  2
ACAD
 70
     0
  0
APPID
  2
GENIUS_GENOREF_13
 70
     0
  0
APPID
  2
GENIUS_GENOENT_13
 70
     0
  0
APPID
  2
GENIUS_GENBH_13
 70
     0
  0
APPID
  2
GENIUS_GENOBJ_13
 70
     0
  0
APPID
  2
GENIUS_GENODEF_13
 70
     0
  0
APPID
  2
GENIUS_GENOLIS_13
 70
     0
  0
APPID
  2
GENIUS_GENOBJ-NBEHI-BHF_13
 70
     0
  0
APPID
  2
GENIUS_GENOBJ-NBEHI-BHB_13
 70
     0
  0
APPID
  2
GENIUS_GENOBJ-F-PART_13
 70
     0
  0
APPID
  2
GENIUS_GEFSTDP_13
 70
     0
  0
APPID
  2
GENIUS_GENOBJ-N-RSSYM_13
 70
     0
  0
APPID
  2
GENIUS_GENSYMENT_13
 70
     0
  0
APPID
  2
GENIUS_GENOBJ-N-TIT_13
 70
     0
  0
APPID
  2
GENIUS_GENTITLE_13
 70
     0
  0
APPID
  2
GENIUS_GENZVEED_13
 70
     0
  0
APPID
  2
GENIUS_GENOBJ-N-LEADER_13
 70
     0
  0
APPID
  2
GENIUS_GENOBJ-N-FIL_13
 70
     0
  0
APPID
  2
GENIUS_GENOBJ-N-SEC_13
 70
     0
  0
APPID
  2
GENIUS_GENOBJ-N-CRS_13
 70
     0
  0
APPID
  2
GENIUS_GENOBJ-N-ZOO_13
 70
     0
  0
APPID
  2
GENIUS_GENZOO_13
 70
     0
  0
APPID
  2
GENIUS_GENOBJ-F-TOL_13
 70
     0
  0
APPID
  2
GENIUS_GENFIL_13
 70
     0
  0
APPID
  2
GENIUS_GENOBJ-N-CHA_13
 70
     0
  0
APPID
  2
GENIUS_GENOBJ-N-CEN_13
 70
     0
  0
APPID
  2
ACAD_MLEADERVER
 70
     0
  0
APPID
  2
ACAD_EXEMPT_FROM_CAD_STANDARDS
 70
     0
  0
APPID
  2
ACAD_NAV_VCDISPLAY
 70
     0
  0
ENDTAB
  0
TABLE
  2
DIMSTYLE
 70
     1
  0
DIMSTYLE
  2
STANDARD
 70
     0
  3

  4

  5

  6

  7

 40
1.0
 41
0.18
 42
0.0625
 43
0.38
 44
0.18
 45
0.0
 46
0.0
 47
0.0
 48
0.0
140
0.18
141
0.09
142
0.0
143
25.399999999999999
144
1.0
145
0.0
146
1.0
147
0.09
 71
     0
 72
     0
 73
     1
 74
     1
 75
     0
 76
     0
 77
     0
 78
     0
170
     0
171
     2
172
     0
173
     0
174
     0
175
     0
176
     0
177
     0
178
     0
  0
ENDTAB
  0
ENDSEC
  0
SECTION
  2
BLOCKS
  0
BLOCK
  8
0
  2
$MODEL_SPACE
 70
     0
 10
0.0
 20
0.0
 30
0.0
  3
$MODEL_SPACE
  1

  0
ENDBLK
  5
4119
  8
0
  0
BLOCK
 67
     1
  8
0
  2
$PAPER_SPACE
 70
     0
 10
0.0
 20
0.0
 30
0.0
  3
$PAPER_SPACE
  1

  0
ENDBLK
  5
4117
 67
     1
  8
0
  0
ENDSEC
  0
SECTION
  2
ENTITIES
  0
TEXT
  5
4A34
  8
0
 62
     3
 10
0.0
 20
0.0
 30
0.0
 40
10.0
  1
KA60-16X150
  7
STANDARD1
  0
LINE
  5
4DD3
  8
3
 10
56.920000000000037
 20
226.0800781309924
 30
0.0
 11
56.920000000000037
 21
152.00003906549611
 31
0.0
  0
LINE
  5
4DD4
  8
3
 10
43.080000000000062
 20
152.00003906549611
 30
0.0
 11
43.080000000000062
 21
226.08007813099229
 31
0.0
  0
LINE
  5
4DD5
  8
0
 10
42.000000000000192
 20
225.00007813099231
 30
0.0
 11
42.000000000000192
 21
152.00003906549611
 31
0.0
  0
LINE
  5
4DD6
  8
0
 10
58.000000000000028
 20
225.00007813099231
 30
0.0
 11
58.000000000000028
 21
152.00003906549611
 31
0.0
  0
LINE
  5
4DD7
  8
1
 10
50.000000000000028
 20
232.00007813099231
 30
0.0
 11
50.0
 21
45.0
 31
0.0
  0
LINE
  5
4DD8
  8
0
 10
80.000000000000185
 20
58.609003688227197
 30
0.0
 11
70.000000000000028
 21
66.999999999999915
 31
0.0
  0
LINE
  5
4DD9
  8
0
 10
30.000000000000028
 20
66.999999999999915
 30
0.0
 11
20.000000000000028
 21
58.609003688227197
 31
0.0
  0
LINE
  5
4DDA
  8
0
 10
20.000000000000028
 20
58.609003688227197
 30
0.0
 11
80.000000000000185
 21
58.609003688227197
 31
0.0
  0
LINE
  5
4DDB
  8
0
 10
20.000000000000028
 20
50.0
 30
0.0
 11
80.000000000000185
 21
50.0
 31
0.0
  0
LINE
  5
4DDC
  8
0
 10
20.000000000000028
 20
58.609003688227197
 30
0.0
 11
20.000000000000028
 21
50.0
 31
0.0
  0
LINE
  5
4DDD
  8
0
 10
80.000000000000185
 20
50.0
 30
0.0
 11
80.000000000000185
 21
58.609003688227197
 31
0.0
  0
LINE
  5
4DE2
  8
0
 10
42.000000000000021
 20
81.039999999999907
 30
0.0
 11
58.000000000000028
 21
81.039999999999907
 31
0.0
  0
ARC
  5
4DE3
  8
0
 10
50.000000000000028
 20
79.999994871251317
 30
0.0
 40
12.999994871251429
 50
237.795758259016
 51
302.20424174098389
  0
LINE
  5
4DE6
  8
0
 10
63.856406460551199
 20
77.0
 30
0.0
 11
36.143593539449199
 21
77.0
 31
0.0
  0
LINE
  5
4DE8
  8
0
 10
70.000000000000028
 20
66.999999999999915
 30
0.0
 11
30.000000000000028
 21
66.999999999999915
 31
0.0
  0
LINE
  5
4DEC
  8
0
 10
42.000000000000021
 20
139.00003906549611
 30
0.0
 11
42.000000000000021
 21
77.0
 31
0.0
  0
LINE
  5
4DED
  8
0
 10
36.143593539449199
 20
77.0
 30
0.0
 11
36.143593539449199
 21
68.999999067499715
 31
0.0
  0
LINE
  5
4DEE
  8
0
 10
43.071798384862198
 20
77.0
 30
0.0
 11
43.071797092752341
 21
69.000001492001203
 31
0.0
  0
ARC
  5
4DEF
  8
0
 10
39.607694616207567
 20
71.0
 30
0.0
 40
4.0000000000001492
 50
210.00001542342889
 51
330.00001542343051
  0
LINE
  5
4DF0
  8
3
 10
43.080000000000062
 20
139.00003906549611
 30
0.0
 11
43.080000000000062
 21
81.039999999999907
 31
0.0
  0
LINE
  5
4DF5
  8
0
 10
58.000000000000028
 20
139.00003906549611
 30
0.0
 11
58.000000000000028
 21
77.0
 31
0.0
  0
ARC
  5
4DF6
  8
0
 10
60.392305163546581
 20
71.000000381477321
 30
0.0
 40
4.0000003814776113
 50
209.999991096477
 51
329.9999814217814
  0
LINE
  5
4DF7
  8
0
 10
56.928201615138072
 20
77.0
 30
0.0
 11
56.92820290724805
 21
69.000000729045411
 31
0.0
  0
LINE
  5
4DF8
  8
0
 10
63.856406460551199
 20
68.999999067499715
 30
0.0
 11
63.856406460551199
 21
77.0
 31
0.0
  0
LINE
  5
4DFA
  8
3
 10
56.920000000000037
 20
139.00003906549611
 30
0.0
 11
56.920000000000037
 21
81.039999999999907
 31
0.0
  0
CIRCLE
  5
4DFB
  8
0
 10
50.000000000000028
 20
282.00007813099228
 30
0.0
 40
30.0
  0
CIRCLE
  5
4DFC
  8
0
 10
50.000000000000028
 20
282.00007813099228
 30
0.0
 40
20.0
  0
LINE
  5
4DFD
  8
1
 10
50.000000000000028
 20
317.00007813099228
 30
0.0
 11
50.000000000000028
 21
247.00007813099239
 31
0.0
  0
LINE
  5
4E00
  8
0
 10
44.000000000000192
 20
227.00007813099231
 30
0.0
 11
56.000000000000199
 21
227.00007813099231
 31
0.0
  0
LINE
  5
4E02
  8
0
 10
44.000000000000192
 20
227.00007813099231
 30
0.0
 11
42.000000000000192
 21
225.00007813099231
 31
0.0
  0
LINE
  5
4E03
  8
0
 10
42.000000000000192
 20
225.00007813099231
 30
0.0
 11
58.000000000000028
 21
225.00007813099231
 31
0.0
  0
LINE
  5
4E04
  8
0
 10
56.000000000000199
 20
227.00007813099231
 30
0.0
 11
58.000000000000028
 21
225.00007813099231
 31
0.0
  0
LINE
  5
4E05
  8
1
 10
15.00000000000003
 20
282.00007813099228
 30
0.0
 11
85.000000000000028
 21
282.00007813099228
 31
0.0
  0
CIRCLE
  5
4E06
  8
3
 10
50.000000000000028
 20
282.00007813099228
 30
0.0
 40
6.9199999999999857
  0
CIRCLE
  5
4E07
  8
0
 10
50.000000000000028
 20
282.00007813099228
 30
0.0
 40
8.0
  0
LINE
  5
4E0E
  8
0
 10
56.928203230275557
 20
270.00007813099239
 30
0.0
 11
63.856406460551028
 21
282.00007813099228
 31
0.0
  0
LINE
  5
4E0F
  8
0
 10
63.856406460551028
 20
282.00007813099228
 30
0.0
 11
56.928203230275557
 21
294.00007813099228
 31
0.0
  0
LINE
  5
4E10
  8
0
 10
56.928203230275557
 20
294.00007813099228
 30
0.0
 11
43.071796769724671
 21
294.00007813099228
 31
0.0
  0
LINE
  5
4E11
  8
0
 10
43.071796769724671
 20
294.00007813099228
 30
0.0
 11
36.143593539448908
 21
282.00007813099228
 31
0.0
  0
LINE
  5
4E12
  8
0
 10
36.143593539448908
 20
282.00007813099228
 30
0.0
 11
43.07179676972455
 21
270.00007813099239
 31
0.0
  0
LINE
  5
4E13
  8
0
 10
43.07179676972455
 20
270.00007813099239
 30
0.0
 11
56.928203230275557
 21
270.00007813099239
 31
0.0
  0
LINE
  5
4E73
  8
3
 10
43.080000000000062
 20
81.039999999999907
 30
0.0
 11
42.000000000000021
 21
79.169385127825393
 31
0.0
  0
LINE
  5
4E74
  8
3
 10
58.000000000000021
 20
79.169385127825393
 30
0.0
 11
56.920000000000037
 21
81.039999999999907
 31
0.0
  0
LINE
  5
4ECD
  8
0
 10
63.856406460551398
 20
152.00003906549611
 30
0.0
 11
36.143593539449029
 21
152.00003906549611
 31
0.0
  0
LINE
  5
4ECE
  8
0
 10
61.500000000000192
 20
139.00003906549611
 30
0.0
 11
38.500000000107981
 21
139.00003906549611
 31
0.0
  0
ARC
  5
4ECF
  8
0
 10
39.607695154586708
 20
145.42268879578191
 30
0.0
 40
6.1339745957208214
 50
244.38424746986149
 51
304.38424747120359
  0
LINE
  5
4ED0
  8
0
 10
36.143593539427201
 20
140.36051096989041
 30
0.0
 11
38.500000000107981
 21
139.00003906549611
 31
0.0
  0
LINE
  5
4ED1
  8
0
 10
36.143593539449029
 20
140.36051096989041
 30
0.0
 11
36.143593539449029
 21
152.00003906549611
 31
0.0
  0
LINE
  5
4ED2
  8
0
 10
43.071796769724827
 20
140.36051096989041
 30
0.0
 11
43.071796769724827
 21
152.00003906549611
 31
0.0
  0
LINE
  5
4ED3
  8
0
 10
56.928203230275557
 20
140.36051096989041
 30
0.0
 11
56.928203230275557
 21
152.00003906549611
 31
0.0
  0
LINE
  5
4ED4
  8
0
 10
63.856406460551362
 20
140.36051096989041
 30
0.0
 11
63.856406460551398
 21
152.00003906549611
 31
0.0
  0
LINE
  5
4ED5
  8
0
 10
63.856406460573197
 20
140.36051096989041
 30
0.0
 11
61.499999999892417
 21
139.00003906549611
 31
0.0
  0
ARC
  5
4ED6
  8
0
 10
60.39230484541369
 20
145.42268879578191
 30
0.0
 40
6.1339745957208214
 50
235.61575252879601
 51
295.61575253013848
  0
ARC
  5
4ED7
  8
0
 10
50.000000000000199
 20
162.2169174282007
 30
0.0
 40
22.928203228139491
 50
252.41204622431439
 51
287.58795377568561
  0
ENDSEC
  0
EOF
