  0
SECTION
  2
HEADER
  9
$ACADVER
  1
AC1009
  9
$INSBASE
 10
0.0
 20
0.0
 30
0.0
  9
$EXTMIN
 10
0.0
 20
-2.960436562073669
 30
0.0
  9
$EXTMAX
 10
97.080491132332881
 20
269.99999999999989
 30
0.0
  9
$LIMMIN
 10
0.0
 20
0.0
  9
$LIMMAX
 10
375.0
 20
270.0
  9
$ORTHOMODE
 70
     1
  9
$REGENMODE
 70
     1
  9
$FILLMODE
 70
     1
  9
$QTEXTMODE
 70
     0
  9
$MIRRTEXT
 70
     0
  9
$DRAGMODE
 70
     2
  9
$LTSCALE
 40
6.0
  9
$OSMODE
 70
    37
  9
$ATTMODE
 70
     1
  9
$TEXTSIZE
 40
0.2
  9
$TRACEWID
 40
0.05
  9
$TEXTSTYLE
  7
STANDARD
  9
$CLAYER
  8
0
  9
$CELTYPE
  6
BYLAYER
  9
$CECOLOR
 62
   256
  9
$DIMSCALE
 40
1.0
  9
$DIMASZ
 40
3.0
  9
$DIMEXO
 40
1.0
  9
$DIMDLI
 40
6.0
  9
$DIMRND
 40
0.0
  9
$DIMDLE
 40
0.0
  9
$DIMEXE
 40
1.0
  9
$DIMTP
 40
495.0
  9
$DIMTM
 40
0.0
  9
$DIMTXT
 40
3.0
  9
$DIMCEN
 40
0.0
  9
$DIMTSZ
 40
0.0
  9
$DIMTOL
 70
     0
  9
$DIMLIM
 70
     0
  9
$DIMTIH
 70
     0
  9
$DIMTOH
 70
     0
  9
$DIMSE1
 70
     0
  9
$DIMSE2
 70
     0
  9
$DIMTAD
 70
     1
  9
$DIMZIN
 70
     0
  9
$DIMBLK
  1

  9
$DIMASO
 70
     0
  9
$DIMSHO
 70
     0
  9
$DIMPOST
  1

  9
$DIMAPOST
  1

  9
$DIMALT
 70
     0
  9
$DIMALTD
 70
     2
  9
$DIMALTF
 40
25.399999999999999
  9
$DIMLFAC
 40
1.0
  9
$DIMTOFL
 70
     1
  9
$DIMTVP
 40
0.0
  9
$DIMTIX
 70
     1
  9
$DIMSOXD
 70
     0
  9
$DIMSAH
 70
     0
  9
$DIMBLK1
  1

  9
$DIMBLK2
  1

  9
$DIMSTYLE
  2
STANDARD
  9
$DIMCLRD
 70
     0
  9
$DIMCLRE
 70
     0
  9
$DIMCLRT
 70
     4
  9
$DIMTFAC
 40
1.0
  9
$DIMGAP
 40
1.0
  9
$LUNITS
 70
     2
  9
$LUPREC
 70
     1
  9
$SKETCHINC
 40
0.1
  9
$FILLETRAD
 40
2.0
  9
$AUNITS
 70
     0
  9
$AUPREC
 70
     1
  9
$MENU
  1
C:\R13\WIN\SUPPORT\ACAD-I
  9
$ELEVATION
 40
0.0
  9
$PELEVATION
 40
0.0
  9
$THICKNESS
 40
0.0
  9
$LIMCHECK
 70
     0
  9
$BLIPMODE
 70
     0
  9
$CHAMFERA
 40
0.0
  9
$CHAMFERB
 40
0.0
  9
$SKPOLY
 70
     0
  9
$TDCREATE
 40
2451962.4112634258
  9
$TDUPDATE
 40
2457032.6638243748
  9
$TDINDWG
 40
0.2767807407
  9
$TDUSRTIMER
 40
0.2767807407
  9
$USRTIMER
 70
     1
  9
$ANGBASE
 50
0.0
  9
$ANGDIR
 70
     0
  9
$PDMODE
 70
     0
  9
$PDSIZE
 40
0.0
  9
$PLINEWID
 40
0.0
  9
$COORDS
 70
     1
  9
$SPLFRAME
 70
     0
  9
$SPLINETYPE
 70
     6
  9
$SPLINESEGS
 70
     8
  9
$ATTDIA
 70
     0
  9
$ATTREQ
 70
     1
  9
$HANDLING
 70
     1
  9
$HANDSEED
  5
569E
  9
$SURFTAB1
 70
     6
  9
$SURFTAB2
 70
     6
  9
$SURFTYPE
 70
     6
  9
$SURFU
 70
     6
  9
$SURFV
 70
     6
  9
$UCSNAME
  2

  9
$UCSORG
 10
0.0
 20
0.0
 30
0.0
  9
$UCSXDIR
 10
1.0
 20
0.0
 30
0.0
  9
$UCSYDIR
 10
0.0
 20
1.0
 30
0.0
  9
$PUCSNAME
  2

  9
$PUCSORG
 10
0.0
 20
0.0
 30
0.0
  9
$PUCSXDIR
 10
1.0
 20
0.0
 30
0.0
  9
$PUCSYDIR
 10
0.0
 20
1.0
 30
0.0
  9
$USERI1
 70
     4
  9
$USERI2
 70
     1
  9
$USERI3
 70
     0
  9
$USERI4
 70
     0
  9
$USERI5
 70
     0
  9
$USERR1
 40
1.0
  9
$USERR2
 40
3.0
  9
$USERR3
 40
3.0
  9
$USERR4
 40
3.0
  9
$USERR5
 40
10.0
  9
$WORLDVIEW
 70
     1
  9
$SHADEDGE
 70
     3
  9
$SHADEDIF
 70
    70
  9
$TILEMODE
 70
     1
  9
$MAXACTVP
 70
    16
  9
$PLIMCHECK
 70
     0
  9
$PEXTMIN
 10
1.0000000000000000E+020
 20
1.0000000000000000E+020
 30
1.0000000000000000E+020
  9
$PEXTMAX
 10
-1.0000000000000000E+020
 20
-1.0000000000000000E+020
 30
-1.0000000000000000E+020
  9
$PLIMMIN
 10
0.0
 20
0.0
  9
$PLIMMAX
 10
12.0
 20
9.0
  9
$UNITMODE
 70
     0
  9
$VISRETAIN
 70
     0
  9
$PLINEGEN
 70
     0
  9
$PSLTSCALE
 70
     0
  0
ENDSEC
  0
SECTION
  2
TABLES
  0
TABLE
  2
VPORT
 70
     1
  0
VPORT
  2
*ACTIVE
 70
     0
 10
0.0
 20
0.0
 11
1.0
 21
1.0
 12
349.095966620306
 22
200.0
 13
0.0
 23
0.0
 14
10.0
 24
10.0
 15
10.0
 25
10.0
 16
0.0
 26
0.0
 36
1.0
 17
0.0
 27
0.0
 37
0.0
 40
400.0
 41
1.7454798331015291
 42
50.0
 43
0.0
 44
0.0
 50
0.0
 51
0.0
 71
     0
 72
   100
 73
     1
 74
     0
 75
     0
 76
     0
 77
     0
 78
     0
  0
ENDTAB
  0
TABLE
  2
LTYPE
 70
     3
  0
LTYPE
  2
CONTINUOUS
 70
     0
  3
Solid Line
 72
    65
 73
     0
 40
0.0
  0
LTYPE
  2
CENTER
 70
     0
  3
____ _ ____ _ ____ _ ____ _ ____ _ ____ _ ____
 72
    65
 73
     4
 40
2.0
 49
1.25
 49
-0.25
 49
0.25
 49
-0.25
  0
LTYPE
  2
PHANTOM2
 70
     0
  3
___ _ _ ___ _ _ ___ _ _ ___ _ _
 72
    65
 73
     6
 40
1.25
 49
0.625
 49
-0.125
 49
0.125
 49
-0.125
 49
0.125
 49
-0.125
  0
ENDTAB
  0
TABLE
  2
LAYER
 70
     4
  0
LAYER
  2
0
 70
     0
 62
     7
  6
CONTINUOUS
  0
LAYER
  2
1
 70
     0
 62
     1
  6
CENTER
  0
LAYER
  2
3
 70
     0
 62
     3
  6
CONTINUOUS
  0
LAYER
  2
DEFPOINTS
 70
     0
 62
     7
  6
CONTINUOUS
  0
ENDTAB
  0
TABLE
  2
STYLE
 70
     2
  0
STYLE
  2
STANDARD
 70
     0
 40
0.0
 41
1.0
 50
0.0
 71
     0
 42
0.2
  3
SIMPLEX
  4
BIGFONT
  0
STYLE
  2
STANDARD1
 70
     0
 40
0.0
 41
1.0
 50
0.0
 71
     0
 42
3.0
  3
txt
  4

  0
ENDTAB
  0
TABLE
  2
VIEW
 70
     1
  0
VIEW
  2
OLE1
 70
     0
 40
23.205456353438649
 10
338.59170241122831
 20
147.26976484028091
 41
37.128730165501842
 11
0.0
 21
0.0
 31
1.0
 12
0.0
 22
0.0
 32
0.0
 42
50.0
 43
0.0
 44
0.0
 50
0.0
 71
     0
  0
ENDTAB
  0
TABLE
  2
UCS
 70
     0
  0
ENDTAB
  0
TABLE
  2
APPID
 70
    29
  0
APPID
  2
ACAD
 70
     0
  0
APPID
  2
GENIUS_GENOREF_13
 70
     0
  0
APPID
  2
GENIUS_GENOENT_13
 70
     0
  0
APPID
  2
GENIUS_GENBH_13
 70
     0
  0
APPID
  2
GENIUS_GENOBJ_13
 70
     0
  0
APPID
  2
GENIUS_GENODEF_13
 70
     0
  0
APPID
  2
GENIUS_GENOLIS_13
 70
     0
  0
APPID
  2
GENIUS_GENOBJ-NBEHI-BHF_13
 70
     0
  0
APPID
  2
GENIUS_GENOBJ-NBEHI-BHB_13
 70
     0
  0
APPID
  2
GENIUS_GENOBJ-F-PART_13
 70
     0
  0
APPID
  2
GENIUS_GEFSTDP_13
 70
     0
  0
APPID
  2
GENIUS_GENOBJ-N-RSSYM_13
 70
     0
  0
APPID
  2
GENIUS_GENSYMENT_13
 70
     0
  0
APPID
  2
GENIUS_GENOBJ-N-TIT_13
 70
     0
  0
APPID
  2
GENIUS_GENTITLE_13
 70
     0
  0
APPID
  2
GENIUS_GENZVEED_13
 70
     0
  0
APPID
  2
GENIUS_GENOBJ-N-LEADER_13
 70
     0
  0
APPID
  2
GENIUS_GENOBJ-N-FIL_13
 70
     0
  0
APPID
  2
GENIUS_GENOBJ-N-SEC_13
 70
     0
  0
APPID
  2
GENIUS_GENOBJ-N-CRS_13
 70
     0
  0
APPID
  2
GENIUS_GENOBJ-N-ZOO_13
 70
     0
  0
APPID
  2
GENIUS_GENZOO_13
 70
     0
  0
APPID
  2
GENIUS_GENOBJ-F-TOL_13
 70
     0
  0
APPID
  2
GENIUS_GENFIL_13
 70
     0
  0
APPID
  2
GENIUS_GENOBJ-N-CHA_13
 70
     0
  0
APPID
  2
GENIUS_GENOBJ-N-CEN_13
 70
     0
  0
APPID
  2
ACAD_MLEADERVER
 70
     0
  0
APPID
  2
ACAD_EXEMPT_FROM_CAD_STANDARDS
 70
     0
  0
APPID
  2
ACAD_NAV_VCDISPLAY
 70
     0
  0
ENDTAB
  0
TABLE
  2
DIMSTYLE
 70
     1
  0
DIMSTYLE
  2
STANDARD
 70
     0
  3

  4

  5

  6

  7

 40
1.0
 41
0.18
 42
0.0625
 43
0.38
 44
0.18
 45
0.0
 46
0.0
 47
0.0
 48
0.0
140
0.18
141
0.09
142
0.0
143
25.399999999999999
144
1.0
145
0.0
146
1.0
147
0.09
 71
     0
 72
     0
 73
     1
 74
     1
 75
     0
 76
     0
 77
     0
 78
     0
170
     0
171
     2
172
     0
173
     0
174
     0
175
     0
176
     0
177
     0
178
     0
  0
ENDTAB
  0
ENDSEC
  0
SECTION
  2
BLOCKS
  0
BLOCK
  8
0
  2
$MODEL_SPACE
 70
     0
 10
0.0
 20
0.0
 30
0.0
  3
$MODEL_SPACE
  1

  0
ENDBLK
  5
4119
  8
0
  0
BLOCK
 67
     1
  8
0
  2
$PAPER_SPACE
 70
     0
 10
0.0
 20
0.0
 30
0.0
  3
$PAPER_SPACE
  1

  0
ENDBLK
  5
4117
 67
     1
  8
0
  0
ENDSEC
  0
SECTION
  2
ENTITIES
  0
TEXT
  5
4A34
  8
0
 62
     3
 10
0.0
 20
0.0
 30
0.0
 40
10.0
  1
KA60-20X100R
  7
STANDARD1
  0
LINE
  5
541D
  8
0
 10
39.999999999999893
 20
177.50000000000011
 30
0.0
 11
39.999999999997783
 21
129.99999999999989
 31
0.0
  0
LINE
  5
541E
  8
3
 10
41.349999999999788
 20
178.84999999999991
 30
0.0
 11
41.349999999999788
 21
129.99999999999989
 31
0.0
  0
LINE
  5
541F
  8
3
 10
58.6499999999997
 20
129.99999999999989
 30
0.0
 11
58.6499999999998
 21
178.84999999999999
 31
0.0
  0
LINE
  5
5420
  8
0
 10
59.999999999999893
 20
177.49999999999989
 30
0.0
 11
59.999999999999893
 21
129.99999999999989
 31
0.0
  0
LINE
  5
5421
  8
1
 10
49.999999999999943
 20
184.99999999999989
 30
0.0
 11
49.999999999999943
 21
45.0
 31
0.0
  0
LINE
  5
5422
  8
0
 10
72.499999999999773
 20
66.999999999999915
 30
0.0
 11
72.499999999999773
 21
65.999999999999915
 31
0.0
  0
LINE
  5
5423
  8
0
 10
27.499999999999769
 20
65.999999999999915
 30
0.0
 11
27.499999999999769
 21
66.999999999999915
 31
0.0
  0
LINE
  5
5424
  8
0
 10
77.899999999999807
 20
50.0
 30
0.0
 11
22.099999999999969
 21
50.0
 31
0.0
  0
LINE
  5
5425
  8
0
 10
19.999999999999709
 20
55.599999999999987
 30
0.0
 11
79.999999999999716
 21
55.599999999999987
 31
0.0
  0
LINE
  5
5426
  8
0
 10
20.999999999999719
 20
65.999999999999915
 30
0.0
 11
78.999999999999716
 21
65.999999999999801
 31
0.0
  0
LINE
  5
5428
  8
0
 10
22.099999999999969
 20
50.0
 30
0.0
 11
22.099999999999969
 21
55.599999999999987
 31
0.0
  0
LINE
  5
5429
  8
0
 10
19.999999999999709
 20
55.599999999999987
 30
0.0
 11
19.999999999999709
 21
64.999999999999915
 31
0.0
  0
LINE
  5
542A
  8
0
 10
20.999999999999719
 20
65.999999999999915
 30
0.0
 11
19.999999999999709
 21
64.999999999999915
 31
0.0
  0
LINE
  5
542B
  8
0
 10
77.899999999999807
 20
55.599999999999987
 30
0.0
 11
77.899999999999807
 21
50.0
 31
0.0
  0
LINE
  5
542C
  8
0
 10
79.999999999999716
 20
64.999999999999801
 30
0.0
 11
79.999999999999716
 21
55.599999999999987
 31
0.0
  0
LINE
  5
542D
  8
0
 10
78.999999999999716
 20
65.999999999999801
 30
0.0
 11
79.999999999999716
 21
64.999999999999801
 31
0.0
  0
LINE
  5
5432
  8
0
 10
39.999999999999893
 20
84.999999999999915
 30
0.0
 11
59.999999999999893
 21
84.999999999999915
 31
0.0
  0
LINE
  5
5435
  8
0
 10
27.499999999999769
 20
66.999999999999915
 30
0.0
 11
72.499999999999773
 21
66.999999999999915
 31
0.0
  0
LINE
  5
543A
  8
0
 10
39.999999999999893
 20
79.999999999999915
 30
0.0
 11
39.999999999999893
 21
113.9999999999999
 31
0.0
  0
LINE
  5
543C
  8
3
 10
41.349999999999788
 20
113.9999999999999
 30
0.0
 11
41.349999999999788
 21
84.999999999999915
 31
0.0
  0
LINE
  5
5440
  8
0
 10
59.999999999999893
 20
113.9999999999999
 30
0.0
 11
59.999999999999893
 21
79.999999999999915
 31
0.0
  0
LINE
  5
5442
  8
3
 10
58.6499999999997
 20
84.999999999999915
 30
0.0
 11
58.6499999999997
 21
113.9999999999999
 31
0.0
  0
LINE
  5
5443
  8
1
 10
50.000000000000171
 20
269.99999999999989
 30
0.0
 11
50.000000000000171
 21
199.99999999999989
 31
0.0
  0
CIRCLE
  5
5444
  8
0
 10
50.0
 20
234.99999999999989
 30
0.0
 40
30.0
  0
CIRCLE
  5
5445
  8
0
 10
50.0
 20
234.99999999999989
 30
0.0
 40
22.5
  0
LINE
  5
5447
  8
0
 10
39.999999999999773
 20
177.49999999999989
 30
0.0
 11
59.999999999999893
 21
177.49999999999989
 31
0.0
  0
LINE
  5
5448
  8
0
 10
57.499999999999709
 20
179.99999999999989
 30
0.0
 11
42.499999999999773
 21
179.99999999999989
 31
0.0
  0
LINE
  5
5449
  8
0
 10
42.499999999999773
 20
179.99999999999989
 30
0.0
 11
39.999999999999773
 21
177.49999999999989
 31
0.0
  0
LINE
  5
544A
  8
0
 10
59.999999999999893
 20
177.49999999999989
 30
0.0
 11
57.499999999999709
 21
179.99999999999989
 31
0.0
  0
LINE
  5
544B
  8
1
 10
15.0
 20
234.99999999999989
 30
0.0
 11
85.0
 21
234.99999999999989
 31
0.0
  0
CIRCLE
  5
544C
  8
3
 10
50.0
 20
234.99999999999989
 30
0.0
 40
8.6500000000000021
  0
CIRCLE
  5
544D
  8
0
 10
50.0
 20
234.99999999999989
 30
0.0
 40
10.0
  0
LINE
  5
544E
  8
0
 10
41.339745962155682
 20
249.99999999999989
 30
0.0
 11
32.679491924311208
 21
234.99999999999989
 31
0.0
  0
LINE
  5
544F
  8
0
 10
32.679491924311208
 20
234.99999999999989
 30
0.0
 11
41.339745962155511
 21
219.99999999999989
 31
0.0
  0
LINE
  5
5450
  8
0
 10
41.339745962155511
 20
219.99999999999989
 30
0.0
 11
58.660254037844368
 21
219.99999999999989
 31
0.0
  0
LINE
  5
5451
  8
0
 10
58.660254037844368
 20
219.99999999999989
 30
0.0
 11
67.320508075688792
 21
234.99999999999989
 31
0.0
  0
LINE
  5
5452
  8
0
 10
67.320508075688792
 20
234.99999999999989
 30
0.0
 11
58.660254037844368
 21
249.99999999999989
 31
0.0
  0
LINE
  5
5453
  8
0
 10
58.660254037844368
 20
249.99999999999989
 30
0.0
 11
41.339745962155682
 21
249.99999999999989
 31
0.0
  0
ARC
  5
5455
  8
0
 10
49.99999999999784
 20
83.250072975145429
 30
0.0
 40
16.25007297514551
 50
237.79593455379009
 51
302.20406544620988
  0
LINE
  5
5457
  8
0
 10
67.320508075686632
 20
79.999999999999901
 30
0.0
 11
32.679491924308991
 21
79.999999999999901
 31
0.0
  0
LINE
  5
5458
  8
0
 10
58.660254037842201
 20
79.999999999999901
 30
0.0
 11
58.660254037842201
 21
69.499986731868447
 31
0.0
  0
LINE
  5
5459
  8
0
 10
67.320508075686632
 20
69.500013268131468
 30
0.0
 11
67.320508075686632
 21
79.999999999999901
 31
0.0
  0
ARC
  5
545A
  8
0
 10
62.990373396405062
 20
72.000000000000014
 30
0.0
 40
5.000000000023511
 50
210.00017556250211
 51
330.00017556250202
  0
LINE
  5
545B
  8
0
 10
41.339745962153472
 20
79.999999999999901
 30
0.0
 11
41.339745962153408
 21
69.499986731868447
 31
0.0
  0
LINE
  5
545C
  8
0
 10
32.679491924308991
 20
79.999999999999901
 30
0.0
 11
32.679491924308991
 21
69.500013268131354
 31
0.0
  0
ARC
  5
545D
  8
0
 10
37.009626603590512
 20
72.000000000000014
 30
0.0
 40
5.0000000000235261
 50
209.99982443749801
 51
329.99982443749821
  0
LINE
  5
54B7
  8
3
 10
41.349999999999788
 20
84.999999999999915
 30
0.0
 11
39.999999999999893
 21
82.661731409782064
 31
0.0
  0
LINE
  5
54B8
  8
3
 10
59.999999999999829
 20
82.661731409781595
 30
0.0
 11
58.6499999999997
 21
84.999999999999915
 31
0.0
  0
LINE
  5
5565
  8
0
 10
67.320508076152578
 20
129.99999999999969
 30
0.0
 11
32.679491923842903
 21
130.0000000000002
 31
0.0
  0
LINE
  5
5566
  8
0
 10
64.499999999997755
 20
113.9999999999998
 30
0.0
 11
67.320508075686377
 21
115.6284210967502
 31
0.0
  0
ARC
  5
5567
  8
0
 10
62.990381056763937
 20
121.95614337987109
 30
0.0
 40
7.6674682452751783
 50
235.6157525319893
 51
295.61575252954628
  0
ARC
  5
5569
  8
0
 10
49.999999999924313
 20
142.94892917198851
 30
0.0
 40
28.6602540373928
 50
252.41204622587409
 51
287.58795377443329
  0
LINE
  5
556A
  8
0
 10
67.320508075686149
 20
115.6284210967502
 30
0.0
 11
67.320508076152578
 21
129.99999999999969
 31
0.0
  0
LINE
  5
556B
  8
0
 10
58.660254037941058
 20
129.9999999999998
 30
0.0
 11
58.660254037688013
 21
115.6284210967502
 31
0.0
  0
LINE
  5
556C
  8
0
 10
41.339745962054472
 20
130.00000000000011
 30
0.0
 11
41.339745962307489
 21
115.6284210967502
 31
0.0
  0
LINE
  5
556D
  8
0
 10
32.67949192430936
 20
115.6284210967502
 30
0.0
 11
32.679491923842903
 21
130.0000000000002
 31
0.0
  0
ARC
  5
556F
  8
0
 10
37.009618943231573
 20
121.95614337987109
 30
0.0
 40
7.6674682452751783
 50
244.38424747045369
 51
304.3842474680107
  0
LINE
  5
5570
  8
0
 10
35.499999999997762
 20
113.9999999999998
 30
0.0
 11
32.67949192430914
 21
115.6284210967502
 31
0.0
  0
LINE
  5
5571
  8
0
 10
64.499999999997755
 20
113.9999999999997
 30
0.0
 11
35.49999999999708
 21
114.0000000000002
 31
0.0
  0
ENDSEC
  0
EOF
