  0
SECTION
  2
HEADER
  9
$ACADVER
  1
AC1009
  9
$INSBASE
 10
0.0
 20
0.0
 30
0.0
  9
$EXTMIN
 10
0.0
 20
-1.4802182810368341
 30
0.0
  9
$EXTMAX
 10
45.758403297352572
 20
34.776791003573493
 30
0.0
  9
$LIMMIN
 10
0.0
 20
0.0
  9
$LIMMAX
 10
75.0
 20
54.0
  9
$ORTHOMODE
 70
     1
  9
$REGENMODE
 70
     1
  9
$FILLMODE
 70
     1
  9
$QTEXTMODE
 70
     0
  9
$MIRRTEXT
 70
     0
  9
$DRAGMODE
 70
     2
  9
$LTSCALE
 40
2.0
  9
$OSMODE
 70
  3071
  9
$ATTMODE
 70
     1
  9
$TEXTSIZE
 40
2.5000000000000488
  9
$TRACEWID
 40
0.05
  9
$TEXTSTYLE
  7
STANDARD
  9
$CLAYER
  8
0
  9
$CELTYPE
  6
BYLAYER
  9
$CECOLOR
 62
   256
  9
$DIMSCALE
 40
0.5
  9
$DIMASZ
 40
3.0
  9
$DIMEXO
 40
2.0
  9
$DIMDLI
 40
0.38
  9
$DIMRND
 40
0.0
  9
$DIMDLE
 40
0.0
  9
$DIMEXE
 40
2.0
  9
$DIMTP
 40
0.0
  9
$DIMTM
 40
0.0
  9
$DIMTXT
 40
3.0
  9
$DIMCEN
 40
0.0
  9
$DIMTSZ
 40
0.0
  9
$DIMTOL
 70
     0
  9
$DIMLIM
 70
     0
  9
$DIMTIH
 70
     0
  9
$DIMTOH
 70
     0
  9
$DIMSE1
 70
     0
  9
$DIMSE2
 70
     0
  9
$DIMTAD
 70
     1
  9
$DIMZIN
 70
     8
  9
$DIMBLK
  1

  9
$DIMASO
 70
     0
  9
$DIMSHO
 70
     0
  9
$DIMPOST
  1

  9
$DIMAPOST
  1

  9
$DIMALT
 70
     0
  9
$DIMALTD
 70
     2
  9
$DIMALTF
 40
25.399999999999999
  9
$DIMLFAC
 40
1.0
  9
$DIMTOFL
 70
     1
  9
$DIMTVP
 40
1.6000000000000001
  9
$DIMTIX
 70
     1
  9
$DIMSOXD
 70
     0
  9
$DIMSAH
 70
     0
  9
$DIMBLK1
  1

  9
$DIMBLK2
  1

  9
$DIMSTYLE
  2
STANDARD
  9
$DIMCLRD
 70
     0
  9
$DIMCLRE
 70
     0
  9
$DIMCLRT
 70
     0
  9
$DIMTFAC
 40
1.0
  9
$DIMGAP
 40
1.0
  9
$LUNITS
 70
     2
  9
$LUPREC
 70
     4
  9
$SKETCHINC
 40
0.1
  9
$FILLETRAD
 40
0.1
  9
$AUNITS
 70
     0
  9
$AUPREC
 70
     4
  9
$MENU
  1
E:\r13\win\SUPPORT\ACAD
  9
$ELEVATION
 40
0.0
  9
$PELEVATION
 40
0.0
  9
$THICKNESS
 40
0.0
  9
$LIMCHECK
 70
     0
  9
$BLIPMODE
 70
     0
  9
$CHAMFERA
 40
0.0
  9
$CHAMFERB
 40
0.0
  9
$SKPOLY
 70
     0
  9
$TDCREATE
 40
2449840.6522800932
  9
$TDUPDATE
 40
2456597.5472131828
  9
$TDINDWG
 40
0.0366963657
  9
$TDUSRTIMER
 40
0.0366963657
  9
$USRTIMER
 70
     1
  9
$ANGBASE
 50
0.0
  9
$ANGDIR
 70
     0
  9
$PDMODE
 70
     0
  9
$PDSIZE
 40
0.0
  9
$PLINEWID
 40
0.0
  9
$COORDS
 70
     1
  9
$SPLFRAME
 70
     0
  9
$SPLINETYPE
 70
     6
  9
$SPLINESEGS
 70
     8
  9
$ATTDIA
 70
     0
  9
$ATTREQ
 70
     1
  9
$HANDLING
 70
     1
  9
$HANDSEED
  5
200E
  9
$SURFTAB1
 70
     6
  9
$SURFTAB2
 70
     6
  9
$SURFTYPE
 70
     6
  9
$SURFU
 70
     6
  9
$SURFV
 70
     6
  9
$UCSNAME
  2

  9
$UCSORG
 10
0.0
 20
0.0
 30
0.0
  9
$UCSXDIR
 10
1.0
 20
0.0
 30
0.0
  9
$UCSYDIR
 10
0.0
 20
1.0
 30
0.0
  9
$PUCSNAME
  2

  9
$PUCSORG
 10
0.0
 20
0.0
 30
0.0
  9
$PUCSXDIR
 10
1.0
 20
0.0
 30
0.0
  9
$PUCSYDIR
 10
0.0
 20
1.0
 30
0.0
  9
$USERI1
 70
     0
  9
$USERI2
 70
     1
  9
$USERI3
 70
     1
  9
$USERI4
 70
     0
  9
$USERI5
 70
     0
  9
$USERR1
 40
0.0
  9
$USERR2
 40
0.0
  9
$USERR3
 40
0.0
  9
$USERR4
 40
0.0
  9
$USERR5
 40
0.0
  9
$WORLDVIEW
 70
     1
  9
$SHADEDGE
 70
     3
  9
$SHADEDIF
 70
    70
  9
$TILEMODE
 70
     1
  9
$MAXACTVP
 70
    16
  9
$PLIMCHECK
 70
     0
  9
$PEXTMIN
 10
1.0000000000000000E+020
 20
1.0000000000000000E+020
 30
1.0000000000000000E+020
  9
$PEXTMAX
 10
-1.0000000000000000E+020
 20
-1.0000000000000000E+020
 30
-1.0000000000000000E+020
  9
$PLIMMIN
 10
0.0
 20
0.0
  9
$PLIMMAX
 10
12.0
 20
9.0
  9
$UNITMODE
 70
     0
  9
$VISRETAIN
 70
     0
  9
$PLINEGEN
 70
     0
  9
$PSLTSCALE
 70
     0
  0
ENDSEC
  0
SECTION
  2
TABLES
  0
TABLE
  2
VPORT
 70
     1
  0
VPORT
  2
*ACTIVE
 70
     0
 10
0.0
 20
0.0
 11
1.0
 21
1.0
 12
37.498855678130482
 22
32.224675447272617
 13
0.0
 23
0.0
 14
2.0
 24
2.0
 15
2.0
 25
2.0
 16
0.0
 26
0.0
 36
1.0
 17
0.0
 27
0.0
 37
0.0
 40
68.048424383997698
 41
1.9089595375722539
 42
50.0
 43
0.0
 44
0.0
 50
0.0
 51
0.0
 71
     0
 72
   500
 73
     1
 74
     0
 75
     0
 76
     0
 77
     0
 78
     2
  0
ENDTAB
  0
TABLE
  2
LTYPE
 70
     3
  0
LTYPE
  2
CONTINUOUS
 70
     0
  3
Solid Line
 72
    65
 73
     0
 40
0.0
  0
LTYPE
  2
CENTER
 70
     0
  3
____ _ ____ _ ____ _ ____ _ ____ _ ____ _ ____
 72
    65
 73
     4
 40
2.0
 49
1.25
 49
-0.25
 49
0.25
 49
-0.25
  0
LTYPE
  2
PHANTOM2
 70
     0
  3
___ _ _ ___ _ _ ___ _ _ ___ _ _
 72
    65
 73
     6
 40
1.25
 49
0.625
 49
-0.125
 49
0.125
 49
-0.125
 49
0.125
 49
-0.125
  0
ENDTAB
  0
TABLE
  2
LAYER
 70
     3
  0
LAYER
  2
0
 70
     0
 62
     7
  6
CONTINUOUS
  0
LAYER
  2
1
 70
     0
 62
     1
  6
CENTER
  0
LAYER
  2
3
 70
     0
 62
     3
  6
CONTINUOUS
  0
ENDTAB
  0
TABLE
  2
STYLE
 70
     2
  0
STYLE
  2
STANDARD
 70
     0
 40
0.0
 41
1.0
 50
0.0
 71
     0
 42
2.5000000000000488
  3
TXT
  4
BIGFONT
  0
STYLE
  2
STANDARD1
 70
     0
 40
0.0
 41
1.0
 50
0.0
 71
     0
 42
3.0
  3
txt
  4

  0
ENDTAB
  0
TABLE
  2
VIEW
 70
     1
  0
VIEW
  2
ALL
 70
     0
 40
135.0
 10
110.4957983193277
 20
67.5
 41
0.0
 11
0.0
 21
0.0
 31
1.0
 12
0.0
 22
0.0
 32
0.0
 42
0.0
 43
0.0
 44
0.0
 50
0.0
 71
     0
  0
ENDTAB
  0
TABLE
  2
UCS
 70
     0
  0
ENDTAB
  0
TABLE
  2
APPID
 70
     5
  0
APPID
  2
ACAD
 70
     0
  0
APPID
  2
ACAD_MLEADERVER
 70
     0
  0
APPID
  2
ACAD_DSTYLE_DIMJAG
 70
     0
  0
APPID
  2
ACAD_DSTYLE_DIMTALN
 70
     0
  0
APPID
  2
ACAD_NAV_VCDISPLAY
 70
     0
  0
ENDTAB
  0
TABLE
  2
DIMSTYLE
 70
     1
  0
DIMSTYLE
  2
STANDARD
 70
     0
  3

  4

  5

  6

  7

 40
1.0
 41
0.18
 42
0.0625
 43
0.38
 44
0.18
 45
0.0
 46
0.0
 47
0.0
 48
0.0
140
0.18
141
0.09
142
0.0
143
25.399999999999999
144
1.0
145
0.0
146
1.0
147
0.09
 71
     0
 72
     0
 73
     1
 74
     1
 75
     0
 76
     0
 77
     0
 78
     0
170
     0
171
     2
172
     0
173
     0
174
     0
175
     0
176
     0
177
     0
178
     0
  0
ENDTAB
  0
ENDSEC
  0
SECTION
  2
BLOCKS
  0
BLOCK
  8
0
  2
$MODEL_SPACE
 70
     0
 10
0.0
 20
0.0
 30
0.0
  3
$MODEL_SPACE
  1

  0
ENDBLK
  5
8F
  8
0
  0
BLOCK
 67
     1
  8
0
  2
$PAPER_SPACE
 70
     0
 10
0.0
 20
0.0
 30
0.0
  3
$PAPER_SPACE
  1

  0
ENDBLK
  5
8D
 67
     1
  8
0
  0
ENDSEC
  0
SECTION
  2
ENTITIES
  0
LINE
  5
F93
  8
0
 10
43.258403297352572
 20
27.476791003573808
 30
0.0
 11
31.758403297352569
 21
27.476791003573808
 31
0.0
  0
LINE
  5
F94
  8
0
 10
43.258403297352572
 20
27.276791003573539
 30
0.0
 11
31.758403297352569
 21
27.276791003573539
 31
0.0
  0
LINE
  5
F95
  8
0
 10
43.258403297352572
 20
32.076791003572957
 30
0.0
 11
31.758403297352569
 21
32.076791003572957
 31
0.0
  0
LINE
  5
F96
  8
0
 10
43.258403297352572
 20
32.276791003573479
 30
0.0
 11
31.758403297352569
 21
32.276791003573479
 31
0.0
  0
ARC
  5
F98
  8
0
 10
35.258403297352629
 20
6.802866381802672
 30
0.0
 40
2.499999999999666
 50
55.51304436425994
 51
124.4869556357412
  0
ARC
  5
F99
  8
0
 10
35.258403297352572
 20
9.313504180129982
 30
0.0
 40
1.25
 50
194.91779605012411
 51
345.082203949877
  0
LINE
  5
F9A
  8
0
 10
31.758403297352569
 20
12.86350418012996
 30
0.0
 11
43.258403297352572
 21
12.86350418012996
 31
0.0
  0
LINE
  5
F9B
  8
0
 10
31.758403297352569
 20
8.8635041801299295
 30
0.0
 11
31.758403297352569
 21
13.36350418012996
 31
0.0
  0
LINE
  5
F9C
  8
0
 10
31.758403297352569
 20
8.8635041801299295
 30
0.0
 11
33.842856807793439
 21
8.8635041801299295
 31
0.0
  0
LINE
  5
F9D
  8
1
 10
35.258403297352572
 20
15.36350418012999
 30
0.0
 11
35.258403297352601
 21
6.3635041801299934
 31
0.0
  0
LINE
  5
F9E
  8
1
 10
40.258403297352572
 20
15.36350418012999
 30
0.0
 11
40.258403297352601
 21
6.3635041801299934
 31
0.0
  0
LINE
  5
F9F
  8
0
 10
43.258403297352572
 20
8.8635041801299295
 30
0.0
 11
43.258403297352572
 21
13.36350418012996
 31
0.0
  0
ARC
  5
FA0
  8
0
 10
40.258403297352572
 20
6.997701046493205
 30
0.0
 40
2.4716112828453829
 50
49.016059310774999
 51
130.98394068922499
  0
LINE
  5
FA1
  8
0
 10
36.673949786911813
 20
8.8635041801299295
 30
0.0
 11
38.637403297352563
 21
8.8635041801299295
 31
0.0
  0
LINE
  5
FA2
  8
0
 10
41.879403297352567
 20
8.8635041801299224
 30
0.0
 11
43.258403297352572
 21
8.8635041801299295
 31
0.0
  0
LINE
  5
FA3
  8
0
 10
31.758403297352569
 20
12.863504180129979
 30
0.0
 11
43.258403297352572
 21
12.863504180129979
 31
0.0
  0
LINE
  5
FA4
  8
0
 10
31.758403297352569
 20
13.36350418012996
 30
0.0
 11
43.258403297352572
 21
13.36350418012996
 31
0.0
  0
LINE
  5
FB3
  8
1
 10
6.0989616877981936
 20
10.86350418012994
 30
0.0
 11
17.585028611302469
 21
10.863504180129929
 31
0.0
  0
LINE
  5
FB4
  8
1
 10
11.9127508944163
 20
15.363504180129929
 30
0.0
 11
11.9127508944163
 21
6.3635041801299286
 31
0.0
  0
LINE
  5
FB7
  8
0
 10
43.258403297352572
 20
33.776791003573479
 30
0.0
 11
43.258403297352572
 21
25.776791003573479
 31
0.0
  0
LINE
  5
FB8
  8
1
 10
40.258403297352572
 20
34.776791003573493
 30
0.0
 11
40.258403297352572
 21
24.776791003573489
 31
0.0
  0
LINE
  5
FB9
  8
0
 10
31.758403297352569
 20
33.776791003573507
 30
0.0
 11
31.758403297352569
 21
25.776791003573511
 31
0.0
  0
LINE
  5
FBA
  8
0
 10
31.758403297352569
 20
33.776791003573507
 30
0.0
 11
43.258403297352572
 21
33.776791003573507
 31
0.0
  0
LINE
  5
FBB
  8
0
 10
31.758403297352569
 20
25.776791003573511
 30
0.0
 11
43.258403297352572
 21
25.776791003573511
 31
0.0
  0
LINE
  5
FBC
  8
1
 10
29.258403297352569
 20
29.776791003573511
 30
0.0
 11
45.758403297352572
 21
29.776791003573479
 31
0.0
  0
CIRCLE
  5
FBD
  8
0
 10
40.258403297352572
 20
29.776791003573489
 30
0.0
 40
1.6209999999999991
  0
CIRCLE
  5
FBF
  8
3
 10
40.258403297352572
 20
29.776791003573489
 30
0.0
 40
2.0
  0
ARC
  5
1F18
  8
0
 10
11.91275089441632
 20
9.3135041801299394
 30
0.0
 40
1.25
 50
185.4302630750885
 51
354.56973692491073
  0
ARC
  5
1F19
  8
0
 10
14.61275089441628
 20
13.06350418012992
 30
0.0
 40
0.2
 50
180.0
 51
270.0
  0
LINE
  5
1F1A
  8
0
 10
14.412750894416289
 20
13.16350418012993
 30
0.0
 11
14.41275089441627
 21
13.06350418012992
 31
0.0
  0
ARC
  5
1F1B
  8
0
 10
14.21275089441629
 20
13.16350418012993
 30
0.0
 40
0.2
 50
0.0
 51
90.0
  0
ARC
  5
1F1C
  8
0
 10
9.6127508944163225
 20
13.16350418012992
 30
0.0
 40
0.2
 50
90.0
 51
180.0
  0
ARC
  5
1F1D
  8
0
 10
9.2127508944163292
 20
13.06350418012992
 30
0.0
 40
0.2
 50
270.0
 51
0.0
  0
LINE
  5
1F1E
  8
0
 10
9.4127508944163196
 20
13.16350418012992
 30
0.0
 11
9.4127508944163338
 21
13.06350418012992
 31
0.0
  0
ARC
  5
1F1F
  8
0
 10
11.91275089441633
 20
23.095410468211401
 30
0.0
 40
10.0
 50
256.70292825279159
 51
283.2970717472092
  0
LINE
  5
1F20
  8
0
 10
15.61275089441631
 20
12.86350418012991
 30
0.0
 11
14.61275089441636
 21
12.86350418012991
 31
0.0
  0
ARC
  5
1F21
  8
0
 10
11.9127508944163
 20
11.363504180129921
 30
0.0
 40
2.5
 50
235.51304436426409
 51
304.48695563573591
  0
ARC
  5
1F22
  8
0
 10
8.3294623808589918
 20
15.989628284638639
 30
0.0
 40
8.3487206285518791
 50
306.78075546590259
 51
334.87757771521581
  0
ARC
  5
1F23
  8
0
 10
15.612750894416299
 20
12.563504180129909
 30
0.0
 40
0.3
 50
336.76379688519739
 51
90.0
  0
LINE
  5
1F24
  8
0
 10
8.2127508944163026
 20
12.86350418012991
 30
0.0
 11
9.2127508944162457
 21
12.86350418012991
 31
0.0
  0
ARC
  5
1F25
  8
0
 10
15.496039407973621
 20
15.989628284638639
 30
0.0
 40
8.3487206285518791
 50
205.12242228478419
 51
233.2192445340971
  0
ARC
  5
1F26
  8
0
 10
8.2127508944163061
 20
12.563504180129909
 30
0.0
 40
0.3
 50
90.0
 51
203.23620311480261
  0
TEXT
  5
1FA6
  8
0
 62
     3
 10
0.0
 20
0.0
 30
0.0
 40
5.0
  1
L5-TST4
  7
STANDARD1
  0
ENDSEC
  0
EOF
