  0
SECTION
  2
HEADER
  9
$ACADVER
  1
AC1009
  9
$INSBASE
 10
0.0
 20
0.0
 30
0.0
  9
$EXTMIN
 10
0.0
 20
-2.960436562073669
 30
0.0
  9
$EXTMAX
 10
110.5
 20
110.5
 30
0.0
  9
$LIMMIN
 10
0.0
 20
0.0
  9
$LIMMAX
 10
187.5
 20
135.0
  9
$ORTHOMODE
 70
     1
  9
$REGENMODE
 70
     1
  9
$FILLMODE
 70
     1
  9
$QTEXTMODE
 70
     0
  9
$MIRRTEXT
 70
     0
  9
$DRAGMODE
 70
     2
  9
$LTSCALE
 40
5.0
  9
$OSMODE
 70
  3071
  9
$ATTMODE
 70
     1
  9
$TEXTSIZE
 40
1.6000000000000489
  9
$TRACEWID
 40
0.05
  9
$TEXTSTYLE
  7
STANDARD
  9
$CLAYER
  8
0
  9
$CELTYPE
  6
BYLAYER
  9
$CECOLOR
 62
   256
  9
$DIMSCALE
 40
0.5
  9
$DIMASZ
 40
3.0
  9
$DIMEXO
 40
2.0
  9
$DIMDLI
 40
0.38
  9
$DIMRND
 40
0.0
  9
$DIMDLE
 40
0.0
  9
$DIMEXE
 40
2.0
  9
$DIMTP
 40
0.0
  9
$DIMTM
 40
0.0
  9
$DIMTXT
 40
3.0
  9
$DIMCEN
 40
0.0
  9
$DIMTSZ
 40
0.0
  9
$DIMTOL
 70
     0
  9
$DIMLIM
 70
     0
  9
$DIMTIH
 70
     0
  9
$DIMTOH
 70
     0
  9
$DIMSE1
 70
     0
  9
$DIMSE2
 70
     0
  9
$DIMTAD
 70
     1
  9
$DIMZIN
 70
     0
  9
$DIMBLK
  1

  9
$DIMASO
 70
     0
  9
$DIMSHO
 70
     0
  9
$DIMPOST
  1

  9
$DIMAPOST
  1

  9
$DIMALT
 70
     0
  9
$DIMALTD
 70
     2
  9
$DIMALTF
 40
25.399999999999999
  9
$DIMLFAC
 40
1.0
  9
$DIMTOFL
 70
     1
  9
$DIMTVP
 40
1.6000000000000001
  9
$DIMTIX
 70
     1
  9
$DIMSOXD
 70
     0
  9
$DIMSAH
 70
     0
  9
$DIMBLK1
  1

  9
$DIMBLK2
  1

  9
$DIMSTYLE
  2
STANDARD
  9
$DIMCLRD
 70
     0
  9
$DIMCLRE
 70
     0
  9
$DIMCLRT
 70
     0
  9
$DIMTFAC
 40
1.0
  9
$DIMGAP
 40
0.09
  9
$LUNITS
 70
     2
  9
$LUPREC
 70
     4
  9
$SKETCHINC
 40
0.1
  9
$FILLETRAD
 40
2.5
  9
$AUNITS
 70
     0
  9
$AUPREC
 70
     4
  9
$MENU
  1
E:\r13\win\SUPPORT\ACAD
  9
$ELEVATION
 40
0.0
  9
$PELEVATION
 40
0.0
  9
$THICKNESS
 40
0.0
  9
$LIMCHECK
 70
     0
  9
$BLIPMODE
 70
     0
  9
$CHAMFERA
 40
0.0
  9
$CHAMFERB
 40
0.0
  9
$SKPOLY
 70
     0
  9
$TDCREATE
 40
2449839.7885648152
  9
$TDUPDATE
 40
2456597.5788958329
  9
$TDINDWG
 40
0.0044013889
  9
$TDUSRTIMER
 40
0.0044013889
  9
$USRTIMER
 70
     1
  9
$ANGBASE
 50
0.0
  9
$ANGDIR
 70
     0
  9
$PDMODE
 70
     0
  9
$PDSIZE
 40
0.0
  9
$PLINEWID
 40
0.0
  9
$COORDS
 70
     1
  9
$SPLFRAME
 70
     0
  9
$SPLINETYPE
 70
     6
  9
$SPLINESEGS
 70
     8
  9
$ATTDIA
 70
     0
  9
$ATTREQ
 70
     1
  9
$HANDLING
 70
     1
  9
$HANDSEED
  5
9D4
  9
$SURFTAB1
 70
     6
  9
$SURFTAB2
 70
     6
  9
$SURFTYPE
 70
     6
  9
$SURFU
 70
     6
  9
$SURFV
 70
     6
  9
$UCSNAME
  2

  9
$UCSORG
 10
0.0
 20
0.0
 30
0.0
  9
$UCSXDIR
 10
1.0
 20
0.0
 30
0.0
  9
$UCSYDIR
 10
0.0
 20
1.0
 30
0.0
  9
$PUCSNAME
  2

  9
$PUCSORG
 10
0.0
 20
0.0
 30
0.0
  9
$PUCSXDIR
 10
1.0
 20
0.0
 30
0.0
  9
$PUCSYDIR
 10
0.0
 20
1.0
 30
0.0
  9
$USERI1
 70
     0
  9
$USERI2
 70
     1
  9
$USERI3
 70
     1
  9
$USERI4
 70
     0
  9
$USERI5
 70
     0
  9
$USERR1
 40
0.0
  9
$USERR2
 40
0.0
  9
$USERR3
 40
0.0
  9
$USERR4
 40
0.0
  9
$USERR5
 40
0.0
  9
$WORLDVIEW
 70
     1
  9
$SHADEDGE
 70
     3
  9
$SHADEDIF
 70
    70
  9
$TILEMODE
 70
     1
  9
$MAXACTVP
 70
    16
  9
$PLIMCHECK
 70
     0
  9
$PEXTMIN
 10
1.0000000000000000E+020
 20
1.0000000000000000E+020
 30
1.0000000000000000E+020
  9
$PEXTMAX
 10
-1.0000000000000000E+020
 20
-1.0000000000000000E+020
 30
-1.0000000000000000E+020
  9
$PLIMMIN
 10
0.0
 20
0.0
  9
$PLIMMAX
 10
12.0
 20
9.0
  9
$UNITMODE
 70
     0
  9
$VISRETAIN
 70
     0
  9
$PLINEGEN
 70
     0
  9
$PSLTSCALE
 70
     0
  0
ENDSEC
  0
SECTION
  2
TABLES
  0
TABLE
  2
VPORT
 70
     1
  0
VPORT
  2
*ACTIVE
 70
     0
 10
0.0
 20
0.0
 11
1.0
 21
1.0
 12
93.74713919532617
 22
80.848703909439024
 13
0.0
 23
0.0
 14
5.0
 24
5.0
 15
5.0
 25
5.0
 16
0.0
 26
0.0
 36
1.0
 17
0.0
 27
0.0
 37
0.0
 40
169.22413112104309
 41
1.9089595375722539
 42
50.0
 43
0.0
 44
0.0
 50
0.0
 51
0.0
 71
     0
 72
   500
 73
     1
 74
     0
 75
     0
 76
     0
 77
     0
 78
     2
  0
ENDTAB
  0
TABLE
  2
LTYPE
 70
     4
  0
LTYPE
  2
CONTINUOUS
 70
     0
  3
Solid Line
 72
    65
 73
     0
 40
0.0
  0
LTYPE
  2
CENTER
 70
     0
  3
____ _ ____ _ ____ _ ____ _ ____ _ ____ _ ____
 72
    65
 73
     4
 40
2.0
 49
1.25
 49
-0.25
 49
0.25
 49
-0.25
  0
LTYPE
  2
HIDDEN
 70
     0
  3
_ _ _ _ _ _ _ _ _ _ _ _ _ _ _ _ _ _ _ _ _ _ _
 72
    65
 73
     2
 40
0.375
 49
0.25
 49
-0.125
  0
LTYPE
  2
PHANTOM2
 70
     0
  3
___ _ _ ___ _ _ ___ _ _ ___ _ _
 72
    65
 73
     6
 40
1.25
 49
0.625
 49
-0.125
 49
0.125
 49
-0.125
 49
0.125
 49
-0.125
  0
ENDTAB
  0
TABLE
  2
LAYER
 70
     3
  0
LAYER
  2
0
 70
     0
 62
     7
  6
CONTINUOUS
  0
LAYER
  2
1
 70
     0
 62
     1
  6
CENTER
  0
LAYER
  2
2
 70
     0
 62
     2
  6
HIDDEN
  0
ENDTAB
  0
TABLE
  2
STYLE
 70
     2
  0
STYLE
  2
STANDARD
 70
     0
 40
0.0
 41
1.0
 50
0.0
 71
     0
 42
1.6000000000000489
  3
TXT
  4
BIGFONT
  0
STYLE
  2
STANDARD1
 70
     0
 40
0.0
 41
1.0
 50
0.0
 71
     0
 42
3.0
  3
txt
  4

  0
ENDTAB
  0
TABLE
  2
VIEW
 70
     1
  0
VIEW
  2
ALL
 70
     0
 40
135.0
 10
110.4957983193277
 20
67.5
 41
0.0
 11
0.0
 21
0.0
 31
1.0
 12
0.0
 22
0.0
 32
0.0
 42
0.0
 43
0.0
 44
0.0
 50
0.0
 71
     0
  0
ENDTAB
  0
TABLE
  2
UCS
 70
     0
  0
ENDTAB
  0
TABLE
  2
APPID
 70
     3
  0
APPID
  2
ACAD
 70
     0
  0
APPID
  2
ACAD_MLEADERVER
 70
     0
  0
APPID
  2
ACAD_NAV_VCDISPLAY
 70
     0
  0
ENDTAB
  0
TABLE
  2
DIMSTYLE
 70
     1
  0
DIMSTYLE
  2
STANDARD
 70
     0
  3

  4

  5

  6

  7

 40
1.0
 41
0.18
 42
0.0625
 43
0.38
 44
0.18
 45
0.0
 46
0.0
 47
0.0
 48
0.0
140
0.18
141
0.09
142
0.0
143
25.399999999999999
144
1.0
145
0.0
146
1.0
147
0.09
 71
     0
 72
     0
 73
     1
 74
     1
 75
     0
 76
     0
 77
     0
 78
     0
170
     0
171
     2
172
     0
173
     0
174
     0
175
     0
176
     0
177
     0
178
     0
  0
ENDTAB
  0
ENDSEC
  0
SECTION
  2
BLOCKS
  0
BLOCK
  8
0
  2
$MODEL_SPACE
 70
     0
 10
0.0
 20
0.0
 30
0.0
  3
$MODEL_SPACE
  1

  0
ENDBLK
  5
4F7
  8
0
  0
BLOCK
 67
     1
  8
0
  2
$PAPER_SPACE
 70
     0
 10
0.0
 20
0.0
 30
0.0
  3
$PAPER_SPACE
  1

  0
ENDBLK
  5
4F5
 67
     1
  8
0
  0
ENDSEC
  0
SECTION
  2
ENTITIES
  0
LINE
  5
35
  8
1
 10
95.0
 20
79.5
 30
0.0
 11
95.0
 21
110.5
 31
0.0
  0
LINE
  5
36
  8
1
 10
110.5
 20
95.0
 30
0.0
 11
79.5
 21
95.0
 31
0.0
  0
CIRCLE
  5
37
  8
0
 10
95.0
 20
95.0
 30
0.0
 40
12.0
  0
ARC
  5
38
  8
0
 10
107.0
 20
95.0
 30
0.0
 40
1.0
 50
267.61198453673097
 51
92.38801546326907
  0
ARC
  5
39
  8
0
 10
106.51391568358849
 20
91.61920931863358
 30
0.0
 40
1.0
 50
251.2483481767309
 51
76.024379103269084
  0
ARC
  5
3A
  8
0
 10
105.0950423947976
 20
88.512310191814237
 30
0.0
 40
1.0
 50
234.884711816731
 51
59.66074274326909
  0
ARC
  5
3B
  8
0
 10
102.8583288090701
 20
85.931005109245135
 30
0.0
 40
1.0
 50
218.5210754567309
 51
43.297106383269053
  0
ARC
  5
3C
  8
0
 10
99.984980158793732
 20
84.084416057011282
 30
0.0
 40
1.0
 50
202.15743909673091
 51
26.933470023269059
  0
ARC
  5
3D
  8
0
 10
96.70777806304865
 20
83.122142697970759
 30
0.0
 40
1.0
 50
185.7938027367309
 51
10.569833663269071
  0
ARC
  5
3E
  8
0
 10
93.292221945243668
 20
83.122142696778468
 30
0.0
 40
1.0
 50
169.43016637673099
 51
354.20619730326911
  0
ARC
  5
3F
  8
0
 10
90.015019848826768
 20
84.084416053531086
 30
0.0
 40
1.0
 50
153.06653001673081
 51
337.84256094326912
  0
ARC
  5
40
  8
0
 10
87.141671197261203
 20
85.931005103758991
 30
0.0
 40
1.0
 50
136.70289365673091
 51
321.47892458326908
  0
ARC
  5
41
  8
0
 10
84.904957609731596
 20
88.512310184766562
 30
0.0
 40
1.0
 50
120.33925729673101
 51
305.11528822326898
  0
ARC
  5
42
  8
0
 10
83.486084318771702
 20
91.619209310595352
 30
0.0
 40
1.0
 50
103.975620936731
 51
288.7516518632691
  0
ARC
  5
43
  8
0
 10
83.0
 20
95.0
 30
0.0
 40
1.0
 50
87.61198457673099
 51
272.38801550326917
  0
ARC
  5
44
  8
0
 10
83.486084314051226
 20
98.380790673328164
 30
0.0
 40
1.0
 50
71.248348216731003
 51
256.02437914326907
  0
ARC
  5
45
  8
0
 10
84.904957600673015
 20
101.4876898011381
 30
0.0
 40
1.0
 50
54.884711856731023
 51
239.66074278326909
  0
ARC
  5
46
  8
0
 10
87.141671184598465
 20
104.06899488526869
 30
0.0
 40
1.0
 50
38.521075496731022
 51
223.29710642326921
  0
ARC
  5
47
  8
0
 10
90.015019833585725
 20
105.91558393950849
 30
0.0
 40
1.0
 50
22.157439136731039
 51
206.9334700632692
  0
ARC
  5
48
  8
0
 10
93.292221928659046
 20
106.87785730083699
 30
0.0
 40
1.0
 50
5.7938027767310469
 51
190.5698337032691
  0
ARC
  5
49
  8
0
 10
96.707778046464014
 20
106.87785730441369
 30
0.0
 40
1.0
 50
349.43016641673108
 51
174.20619734326911
  0
ARC
  5
4A
  8
0
 10
99.984980143552704
 20
105.915583949949
 30
0.0
 40
1.0
 50
333.06653005673121
 51
157.84256098326921
  0
ARC
  5
4B
  8
0
 10
102.85832879640741
 20
104.06899490172719
 30
0.0
 40
1.0
 50
316.70289369673111
 51
141.47892462326919
  0
ARC
  5
4C
  8
0
 10
105.09504238573911
 20
101.4876898222812
 30
0.0
 40
1.0
 50
300.33925733673112
 51
125.11528826326909
  0
ARC
  5
4D
  8
0
 10
106.513915678868
 20
98.380790697442905
 30
0.0
 40
1.0
 50
283.97562097673119
 51
108.75165190326921
  0
LINE
  5
4E
  8
0
 10
102.5
 20
33.300000000000239
 30
0.0
 11
87.500000000000014
 21
33.300000000000253
 31
0.0
  0
LINE
  5
4F
  8
0
 10
100.5
 20
33.0
 30
0.0
 11
89.500000000000014
 21
33.000000000000007
 31
0.0
  0
LINE
  5
50
  8
0
 10
100.5
 20
33.0
 30
0.0
 11
100.5
 21
33.300000000000239
 31
0.0
  0
LINE
  5
51
  8
0
 10
89.500000000000014
 20
33.000000000000007
 30
0.0
 11
89.500000000000014
 21
33.300000000000217
 31
0.0
  0
ARC
  5
52
  8
0
 10
94.999999999999986
 20
16.0
 30
0.0
 40
45.0
 50
74.533990046579433
 51
105.4660099534205
  0
LINE
  5
53
  8
0
 10
107.0
 20
59.370496884402883
 30
0.0
 11
107.0
 21
58.370496884402172
 31
0.0
  0
LINE
  5
54
  8
0
 10
107.0
 20
58.370496884402172
 30
0.0
 11
108.0
 21
57.370496884402137
 31
0.0
  0
LINE
  5
55
  8
0
 10
108.0
 20
57.370496884402137
 30
0.0
 11
108.0
 21
50.300000000000011
 31
0.0
  0
ARC
  5
56
  8
0
 10
107.0
 20
50.300000000000011
 30
0.0
 40
1.0
 50
267.6119845367329
 51
360.0
  0
LINE
  5
57
  8
0
 10
107.0
 20
49.300000000000921
 30
0.0
 11
107.0
 21
49.000000000000043
 31
0.0
  0
LINE
  5
58
  8
0
 10
106.0
 20
48.0
 30
0.0
 11
83.999999999999986
 21
48.0
 31
0.0
  0
LINE
  5
59
  8
0
 10
107.0
 20
59.370496884402883
 30
0.0
 11
83.0
 21
59.370496884402861
 31
0.0
  0
LINE
  5
5A
  8
0
 10
83.0
 20
58.370496884402847
 30
0.0
 11
107.0
 21
58.370496884402883
 31
0.0
  0
LINE
  5
5B
  8
1
 10
95.0
 20
30.500000000000011
 30
0.0
 11
95.0
 21
63.5
 31
0.0
  0
LINE
  5
5C
  8
0
 10
107.51391568358849
 20
57.370998505892679
 30
0.0
 11
107.51391568358849
 21
50.300000000000011
 31
0.0
  0
LINE
  5
5D
  8
0
 10
106.1924489186556
 20
58.370496884402883
 30
0.0
 11
106.1924489186556
 21
50.300000000000011
 31
0.0
  0
LINE
  5
5E
  8
0
 10
106.0950423947977
 20
57.376808415220673
 30
0.0
 11
106.0950423947977
 21
50.300000000000011
 31
0.0
  0
LINE
  5
5F
  8
0
 10
104.51981885704529
 20
58.370496884402883
 30
0.0
 11
104.51981885704539
 21
50.300000000000011
 31
0.0
  0
LINE
  5
60
  8
0
 10
103.8583288090701
 20
57.399636443386953
 30
0.0
 11
103.8583288090701
 21
50.300000000000011
 31
0.0
  0
LINE
  5
61
  8
0
 10
102.0759496885205
 20
58.370496884402883
 30
0.0
 11
102.0759496885205
 21
50.300000000000011
 31
0.0
  0
LINE
  5
62
  8
0
 10
100.9849801587937
 20
57.468717288750177
 30
0.0
 11
100.9849801587937
 21
50.300000000000011
 31
0.0
  0
LINE
  5
63
  8
0
 10
99.058829158777954
 20
58.370496884402883
 30
0.0
 11
99.058829158777954
 21
50.300000000000011
 31
0.0
  0
LINE
  5
64
  8
0
 10
97.707778063048664
 20
57.714037656307589
 30
0.0
 11
97.707778063048664
 21
50.300000000000011
 31
0.0
  0
LINE
  5
65
  8
0
 10
95.712886429522726
 20
58.370496884402883
 30
0.0
 11
95.712886429522754
 21
50.300000000000011
 31
0.0
  0
POLYLINE
  5
66
  8
0
 66
     1
 10
0.0
 20
0.0
 30
0.0
  0
VERTEX
  5
888
  8
0
 10
95.712886429522754
 20
50.299999999999102
 30
0.0
 42
0.0980351827432918
  0
VERTEX
  5
889
  8
0
 10
95.788695479297687
 20
49.917073918256307
 30
0.0
 42
0.0983012581209227
  0
VERTEX
  5
88A
  8
0
 10
96.004283442436744
 20
49.592893218812549
 30
0.0
 42
0.0986799003570547
  0
VERTEX
  5
88B
  8
0
 10
96.355280388913258
 20
49.357252402132758
 30
0.0
 42
0.1172832904250393
  0
VERTEX
  5
88C
  8
0
 10
96.70777806304865
 20
49.299999999999102
 30
0.0
 42
0.0989493199570589
  0
SEQEND
  5
88D
  8
0
  0
POLYLINE
  5
6D
  8
0
 66
     1
 10
0.0
 20
0.0
 30
0.0
  0
VERTEX
  5
88E
  8
0
 10
96.70777806304865
 20
49.299999999999102
 30
0.0
 42
0.0984914033572188
  0
VERTEX
  5
88F
  8
0
 10
97.09046149541372
 20
49.376120467487851
 30
0.0
 42
0.0984914033572335
  0
VERTEX
  5
890
  8
0
 10
97.414884844235203
 20
49.592893218812549
 30
0.0
 42
0.0984914033572166
  0
VERTEX
  5
891
  8
0
 10
97.631657595559915
 20
49.917316567634032
 30
0.0
 42
0.0984914033572152
  0
VERTEX
  5
892
  8
0
 10
97.707778063048664
 20
50.299999999999102
 30
0.0
 42
0.0984914033571611
  0
SEQEND
  5
893
  8
0
  0
POLYLINE
  5
74
  8
0
 66
     1
 10
0.0
 20
0.0
 30
0.0
  0
VERTEX
  5
894
  8
0
 10
99.058829158777954
 20
50.299999999999102
 30
0.0
 42
0.091834411140577
  0
VERTEX
  5
895
  8
0
 10
99.130361166649138
 20
49.913822653313382
 30
0.0
 42
0.0954802098555609
  0
VERTEX
  5
896
  8
0
 10
99.330092506279897
 20
49.59289321881257
 30
0.0
 42
0.1011331020228428
  0
VERTEX
  5
897
  8
0
 10
99.659245118649196
 20
49.356843801421832
 30
0.0
 42
0.1245320416321433
  0
VERTEX
  5
898
  8
0
 10
99.984980158793732
 20
49.300000000001802
 30
0.0
 42
0.105528622782662
  0
SEQEND
  5
899
  8
0
  0
POLYLINE
  5
7B
  8
0
 66
     1
 10
0.0
 20
0.0
 30
0.0
  0
VERTEX
  5
89A
  8
0
 10
99.984980158793746
 20
49.299999999999102
 30
0.0
 42
0.0984914033571287
  0
VERTEX
  5
89B
  8
0
 10
100.3676635911588
 20
49.376120467487787
 30
0.0
 42
0.0984914033571183
  0
VERTEX
  5
89C
  8
0
 10
100.6920869399803
 20
49.592893218812549
 30
0.0
 42
0.0984914033571227
  0
VERTEX
  5
89D
  8
0
 10
100.908859691305
 20
49.917316567633982
 30
0.0
 42
0.0984914033571287
  0
VERTEX
  5
89E
  8
0
 10
100.9849801587937
 20
50.299999999999102
 30
0.0
 42
0.0984914033571828
  0
SEQEND
  5
89F
  8
0
  0
POLYLINE
  5
82
  8
0
 66
     1
 10
0.0
 20
0.0
 30
0.0
  0
VERTEX
  5
8A0
  8
0
 10
102.0759496885205
 20
50.299999999999102
 30
0.0
 42
0.0785087970030422
  0
VERTEX
  5
8A1
  8
0
 10
102.1380119103049
 20
49.90717973340503
 30
0.0
 42
0.0878528306591884
  0
VERTEX
  5
8A2
  8
0
 10
102.3051032274707
 20
49.592893218812549
 30
0.0
 42
0.1053826532180528
  0
VERTEX
  5
8A3
  8
0
 10
102.5888910211121
 20
49.355360907115987
 30
0.0
 42
0.1430969697079451
  0
VERTEX
  5
8A4
  8
0
 10
102.8583288090701
 20
49.300000000003308
 30
0.0
 42
0.1223328440642727
  0
SEQEND
  5
8A5
  8
0
  0
POLYLINE
  5
89
  8
0
 66
     1
 10
0.0
 20
0.0
 30
0.0
  0
VERTEX
  5
8A6
  8
0
 10
102.8583288090701
 20
49.30000000000323
 30
0.0
 42
0.0984914033567754
  0
VERTEX
  5
8A7
  8
0
 10
103.2410122414354
 20
49.376120467491653
 30
0.0
 42
0.0984914033570083
  0
VERTEX
  5
8A8
  8
0
 10
103.5654355902567
 20
49.592893218815483
 30
0.0
 42
0.0984914033572867
  0
VERTEX
  5
8A9
  8
0
 10
103.78220834158149
 20
49.91731656763573
 30
0.0
 42
0.0984914033575375
  0
VERTEX
  5
8AA
  8
0
 10
103.8583288090701
 20
50.299999999999102
 30
0.0
 42
0.0984914033575409
  0
SEQEND
  5
8AB
  8
0
  0
POLYLINE
  5
90
  8
0
 66
     1
 10
0.0
 20
0.0
 30
0.0
  0
VERTEX
  5
8AC
  8
0
 10
104.51981885704539
 20
50.299999999999102
 30
0.0
 42
0.0585427929792423
  0
VERTEX
  5
8AD
  8
0
 10
104.5670034135559
 20
49.898389140318393
 30
0.0
 42
0.0721493168922391
  0
VERTEX
  5
8AE
  8
0
 10
104.6882979305549
 20
49.592893218812549
 30
0.0
 42
0.1065785072686789
  0
VERTEX
  5
8AF
  8
0
 10
104.9069489855579
 20
49.350699986360723
 30
0.0
 42
0.1823796334871444
  0
VERTEX
  5
8B0
  8
0
 10
105.0950423947976
 20
49.300000000000288
 30
0.0
 42
0.1572992510156107
  0
SEQEND
  5
8B1
  8
0
  0
POLYLINE
  5
97
  8
0
 66
     1
 10
0.0
 20
0.0
 30
0.0
  0
VERTEX
  5
8B2
  8
0
 10
105.0950423947976
 20
49.299999999999102
 30
0.0
 42
0.0984914033571502
  0
VERTEX
  5
8B3
  8
0
 10
105.4777258271627
 20
49.376120467487787
 30
0.0
 42
0.0984914033571892
  0
VERTEX
  5
8B4
  8
0
 10
105.8021491759842
 20
49.592893218812549
 30
0.0
 42
0.0984914033571641
  0
VERTEX
  5
8B5
  8
0
 10
106.0189219273089
 20
49.917316567633982
 30
0.0
 42
0.0984914033571828
  0
VERTEX
  5
8B6
  8
0
 10
106.0950423947977
 20
50.299999999999102
 30
0.0
 42
0.0984914033571611
  0
SEQEND
  5
8B7
  8
0
  0
POLYLINE
  5
9E
  8
0
 66
     1
 10
0.0
 20
0.0
 30
0.0
  0
VERTEX
  5
8B8
  8
0
 10
106.1924489186556
 20
50.299999999999102
 30
0.0
 42
0.0331063843232843
  0
VERTEX
  5
8B9
  8
0
 10
106.21962283651099
 20
49.890046830720742
 30
0.0
 42
0.0446936505014468
  0
VERTEX
  5
8BA
  8
0
 10
106.28660435417829
 20
49.59289321881257
 30
0.0
 42
0.0874613525713689
  0
VERTEX
  5
8BB
  8
0
 10
106.42167809708781
 20
49.336895511880471
 30
0.0
 42
0.2715410074110371
  0
VERTEX
  5
8BC
  8
0
 10
106.51391568358849
 20
49.300000000020951
 30
0.0
 42
0.2317201495427529
  0
SEQEND
  5
8BD
  8
0
  0
POLYLINE
  5
A5
  8
0
 66
     1
 10
0.0
 20
0.0
 30
0.0
  0
VERTEX
  5
8BE
  8
0
 10
106.51391568358849
 20
49.299999999994562
 30
0.0
 42
0.0984914033575468
  0
VERTEX
  5
8BF
  8
0
 10
106.89659911595341
 20
49.376120467483531
 30
0.0
 42
0.0984914033573049
  0
VERTEX
  5
8C0
  8
0
 10
107.2210224647751
 20
49.592893218809337
 30
0.0
 42
0.0984914033569793
  0
VERTEX
  5
8C1
  8
0
 10
107.4377952160997
 20
49.917316567631993
 30
0.0
 42
0.0984914033567708
  0
VERTEX
  5
8C2
  8
0
 10
107.51391568358849
 20
50.299999999999102
 30
0.0
 42
0.0984914033567562
  0
SEQEND
  5
8C3
  8
0
  0
LINE
  5
AC
  8
0
 10
106.9583333333333
 20
49.404180290121992
 30
0.0
 11
106.9583333333333
 21
49.300868432642382
 31
0.0
  0
POLYLINE
  5
AD
  8
0
 66
     1
 10
0.0
 20
0.0
 30
0.0
  0
VERTEX
  5
8C4
  8
0
 10
97.705380611721125
 20
57.711608460288659
 30
0.0
  0
VERTEX
  5
8C5
  8
0
 10
97.702808269552634
 20
58.07760366558918
 30
0.0
 42
0.0059938276073232
  0
VERTEX
  5
8C6
  8
0
 10
97.694426043249507
 20
58.367026058450193
 30
0.0
  0
VERTEX
  5
8C7
  8
0
 10
97.690810126692284
 20
58.370496884402847
 30
0.0
  0
SEQEND
  5
8C8
  8
0
  0
POLYLINE
  5
B3
  8
0
 66
     1
 10
0.0
 20
0.0
 30
0.0
  0
VERTEX
  5
8C9
  8
0
 10
95.712886429522754
 20
58.370496884402883
 30
0.0
 42
0.1105008805935672
  0
VERTEX
  5
8CA
  8
0
 10
95.797043885560285
 20
57.99434668706791
 30
0.0
 42
0.102681505899675
  0
VERTEX
  5
8CB
  8
0
 10
96.0459664935955
 20
57.663390103215789
 30
0.0
 42
0.09326528898541
  0
VERTEX
  5
8CC
  8
0
 10
96.442548404700332
 20
57.428196616802353
 30
0.0
 42
0.1047091053795621
  0
VERTEX
  5
8CD
  8
0
 10
96.850092901636046
 20
57.370496884402122
 30
0.0
 42
0.0875481733071282
  0
VERTEX
  5
8CE
  8
0
 10
97.291749018369956
 20
57.448426563158712
 30
0.0
 42
0.0932652889854085
  0
VERTEX
  5
8CF
  8
0
 10
97.654219309676563
 20
57.663390103215789
 30
0.0
 42
0.0180926587932167
  0
VERTEX
  5
8D0
  8
0
 10
97.707778063048664
 20
57.714037656307589
 30
0.0
 42
0.110500880593557
  0
SEQEND
  5
8D1
  8
0
  0
POLYLINE
  5
BD
  8
0
 66
     1
 10
0.0
 20
0.0
 30
0.0
  0
VERTEX
  5
8D2
  8
0
 10
100.98445880496379
 20
57.46853206350746
 30
0.0
 42
0.0085657891893307
  0
VERTEX
  5
8D3
  8
0
 10
100.97569113742949
 20
57.784208144104241
 30
0.0
 42
0.0157878733464657
  0
VERTEX
  5
8D4
  8
0
 10
100.9532109341181
 20
58.07760366558918
 30
0.0
 42
0.037033698541525
  0
VERTEX
  5
8D5
  8
0
 10
100.9030563301086
 20
58.350009463231231
 30
0.0
  0
VERTEX
  5
8D6
  8
0
 10
100.8765132410401
 20
58.370496884402847
 30
0.0
  0
SEQEND
  5
8D7
  8
0
  0
POLYLINE
  5
C4
  8
0
 66
     1
 10
0.0
 20
0.0
 30
0.0
  0
VERTEX
  5
8D8
  8
0
 10
99.058829158777954
 20
58.370496884402883
 30
0.0
 42
0.127485225445451
  0
VERTEX
  5
8D9
  8
0
 10
99.153829504057555
 20
58.003958905259623
 30
0.0
 42
0.1061566881826089
  0
VERTEX
  5
8DA
  8
0
 10
99.451764746649062
 20
57.663390103215789
 30
0.0
 42
0.0854774487967356
  0
VERTEX
  5
8DB
  8
0
 10
99.914617360660259
 20
57.42827171751523
 30
0.0
 42
0.0907941248513917
  0
VERTEX
  5
8DC
  8
0
 10
100.40039517202651
 20
57.370496884402122
 30
0.0
 42
0.0750072681776871
  0
VERTEX
  5
8DD
  8
0
 10
100.9296079547058
 20
57.450335674872058
 30
0.0
 42
0.0105253513654881
  0
VERTEX
  5
8DE
  8
0
 10
100.9849801587937
 20
57.468717288750177
 30
0.0
 42
0.10615668818263
  0
SEQEND
  5
8DF
  8
0
  0
POLYLINE
  5
CD
  8
0
 66
     1
 10
0.0
 20
0.0
 30
0.0
  0
VERTEX
  5
8E0
  8
0
 10
103.8582132669562
 20
57.399616796628152
 30
0.0
 42
0.026089963624248
  0
VERTEX
  5
8E1
  8
0
 10
103.83522564687961
 20
57.781622367909677
 30
0.0
 42
0.0383894869844943
  0
VERTEX
  5
8E2
  8
0
 10
103.7786054401834
 20
58.077603665589209
 30
0.0
 42
0.079068566770363
  0
VERTEX
  5
8E3
  8
0
 10
103.6659705830069
 20
58.327429728032172
 30
0.0
 42
0.2525275244934266
  0
VERTEX
  5
8E4
  8
0
 10
103.586136201779
 20
58.370496884402883
 30
0.0
 42
0.2525275244936523
  0
SEQEND
  5
8E5
  8
0
  0
POLYLINE
  5
D4
  8
0
 66
     1
 10
0.0
 20
0.0
 30
0.0
  0
VERTEX
  5
8E6
  8
0
 10
102.0759496885205
 20
58.370496884402883
 30
0.0
 42
0.1350558593684616
  0
VERTEX
  5
8E7
  8
0
 10
102.1755895925933
 20
58.008341313383482
 30
0.0
 42
0.106888083462467
  0
VERTEX
  5
8E8
  8
0
 10
102.49690749575259
 20
57.663390103215818
 30
0.0
 42
0.0820055680237245
  0
VERTEX
  5
8E9
  8
0
 10
102.9910745224005
 20
57.428179960963263
 30
0.0
 42
0.0854891159614051
  0
VERTEX
  5
8EA
  8
0
 10
103.5131895431593
 20
57.370496884402122
 30
0.0
 42
0.0421392438939827
  0
VERTEX
  5
8EB
  8
0
 10
103.8583288090701
 20
57.399636443386953
 30
0.0
 42
0.082005568023814
  0
SEQEND
  5
8EC
  8
0
  0
POLYLINE
  5
DC
  8
0
 66
     1
 10
0.0
 20
0.0
 30
0.0
  0
VERTEX
  5
8ED
  8
0
 10
106.09503251202
 20
57.376807628150658
 30
0.0
 42
0.0498044911246067
  0
VERTEX
  5
8EE
  8
0
 10
106.0539989937993
 20
57.775110277955719
 30
0.0
 42
0.0644285350064953
  0
VERTEX
  5
8EF
  8
0
 10
105.9500951282363
 20
58.077603665589209
 30
0.0
 42
0.103961162207828
  0
VERTEX
  5
8F0
  8
0
 10
105.7674228739313
 20
58.309735699298471
 30
0.0
 42
0.1760085217028262
  0
VERTEX
  5
8F1
  8
0
 10
105.600161471475
 20
58.370496884402883
 30
0.0
 42
0.1760085217029738
  0
SEQEND
  5
8F2
  8
0
  0
POLYLINE
  5
E3
  8
0
 66
     1
 10
0.0
 20
0.0
 30
0.0
  0
VERTEX
  5
8F3
  8
0
 10
104.51981885704529
 20
58.370496884402883
 30
0.0
 42
0.1334336925984327
  0
VERTEX
  5
8F4
  8
0
 10
104.61847451978331
 20
58.007398400281801
 30
0.0
 42
0.1067704138980678
  0
VERTEX
  5
8F5
  8
0
 10
104.9346953856441
 20
57.663390103215789
 30
0.0
 42
0.0827463308499826
  0
VERTEX
  5
8F6
  8
0
 10
105.42205265194229
 20
57.42820437693765
 30
0.0
 42
0.0865865503962472
  0
VERTEX
  5
8F7
  8
0
 10
105.9362959276975
 20
57.370496884402122
 30
0.0
 42
0.0198714298214009
  0
VERTEX
  5
8F8
  8
0
 10
106.0950423947977
 20
57.376808415220673
 30
0.0
 42
0.0827463308500182
  0
SEQEND
  5
8F9
  8
0
  0
POLYLINE
  5
EB
  8
0
 66
     1
 10
0.0
 20
0.0
 30
0.0
  0
VERTEX
  5
8FA
  8
0
 10
107.51391568358849
 20
57.370496884402122
 30
0.0
 42
0.0762503045336251
  0
VERTEX
  5
8FB
  8
0
 10
107.45349566697421
 20
57.764388609968648
 30
0.0
 42
0.0863388448285874
  0
VERTEX
  5
8FC
  8
0
 10
107.2917588181748
 20
58.07760366558918
 30
0.0
 42
0.1059026189035466
  0
VERTEX
  5
8FD
  8
0
 10
107.034255270291
 20
58.299322664809303
 30
0.0
 42
0.1256159529492872
  0
VERTEX
  5
8FE
  8
0
 10
106.75542470071871
 20
58.370496884402847
 30
0.0
 42
0.1256159529493481
  0
SEQEND
  5
8FF
  8
0
  0
POLYLINE
  5
F2
  8
0
 66
     1
 10
0.0
 20
0.0
 30
0.0
  0
VERTEX
  5
900
  8
0
 10
106.1924489186556
 20
58.370496884402883
 30
0.0
 42
0.1225631761367327
  0
VERTEX
  5
901
  8
0
 10
106.28436935313771
 20
58.001137859977462
 30
0.0
 42
0.1054222508271226
  0
VERTEX
  5
902
  8
0
 10
106.56763333965441
 20
57.663390103215818
 30
0.0
 42
0.0877466241882881
  0
VERTEX
  5
903
  8
0
 10
107.0107395735419
 20
57.428296331301908
 30
0.0
 42
0.0945135932985288
  0
VERTEX
  5
904
  8
0
 10
107.4734086572209
 20
57.370496884402122
 30
0.0
 42
0.0061915463284408
  0
VERTEX
  5
905
  8
0
 10
107.51391568358849
 20
57.370998505892679
 30
0.0
 42
0.0877466241882895
  0
SEQEND
  5
906
  8
0
  0
POLYLINE
  5
FA
  8
0
 66
     1
 10
0.0
 20
0.0
 30
0.0
  0
VERTEX
  5
907
  8
0
 10
106.9583333333333
 20
58.370496884402847
 30
0.0
 42
0.0095752943471882
  0
VERTEX
  5
908
  8
0
 10
106.9590380569431
 20
58.333701201117549
 30
0.0
 42
0.0999466728614516
  0
SEQEND
  5
909
  8
0
  0
POLYLINE
  5
FE
  8
0
 66
     1
 10
0.0
 20
0.0
 30
0.0
  0
VERTEX
  5
90A
  8
0
 10
107.5089878496193
 20
57.48419599900469
 30
0.0
 42
0.0293470086636583
  0
VERTEX
  5
90B
  8
0
 10
107.6293560011881
 20
57.427947280700693
 30
0.0
 42
0.1128234696581495
  0
VERTEX
  5
90C
  8
0
 10
108.0
 20
57.370496884403593
 30
0.0
 42
0.0949020222363458
  0
SEQEND
  5
90D
  8
0
  0
LINE
  5
103
  8
0
 10
103.0174497483512
 20
33.799695413509738
 30
0.0
 11
86.982550251648803
 21
33.799695413509752
 31
0.0
  0
LINE
  5
10D
  8
0
 10
103.0174497483512
 20
33.799695413509781
 30
0.0
 11
103.4290801809986
 21
45.587248741756248
 31
0.0
  0
ARC
  5
10E
  8
0
 10
106.0
 20
49.0
 30
0.0
 40
1.0
 50
270.0
 51
0.0000000000024286
  0
ARC
  5
10F
  8
0
 10
105.92755724854629
 20
45.499999999999993
 30
0.0
 40
2.5
 50
89.999999999999986
 51
177.99999999999989
  0
LINE
  5
110
  8
0
 10
103.0174497483512
 20
33.799695413509781
 30
0.0
 11
102.5
 21
33.300000000000239
 31
0.0
  0
ARC
  5
111
  8
0
 10
83.999999999999986
 20
49.000000000000007
 30
0.0
 40
1.0
 50
179.9999999999975
 51
270.0
  0
ARC
  5
112
  8
0
 10
84.072442751453636
 20
45.5
 30
0.0
 40
2.5
 50
2.0000000000000648
 51
89.999999999999986
  0
LINE
  5
113
  8
0
 10
86.98255025164876
 20
33.799695413509788
 30
0.0
 11
86.570919819001375
 21
45.587248741756262
 31
0.0
  0
LINE
  5
114
  8
0
 10
86.98255025164876
 20
33.799695413509788
 30
0.0
 11
87.500000000000014
 21
33.300000000000253
 31
0.0
  0
POLYLINE
  5
11C
  8
0
 66
     1
 10
0.0
 20
0.0
 30
0.0
  0
VERTEX
  5
90E
  8
0
 10
82.491012150380655
 20
57.48419599900469
 30
0.0
 42
-0.0293470086636583
  0
VERTEX
  5
90F
  8
0
 10
82.370643998811858
 20
57.427947280700693
 30
0.0
 42
-0.1128234696581495
  0
VERTEX
  5
910
  8
0
 10
82.0
 20
57.370496884403593
 30
0.0
 42
-0.0949020222363458
  0
SEQEND
  5
911
  8
0
  0
POLYLINE
  5
121
  8
0
 66
     1
 10
0.0
 20
0.0
 30
0.0
  0
VERTEX
  5
912
  8
0
 10
83.041666666666671
 20
58.370496884402847
 30
0.0
 42
-0.0095752943471882
  0
VERTEX
  5
913
  8
0
 10
83.040961943056871
 20
58.333701201117549
 30
0.0
 42
-0.0999466728614516
  0
SEQEND
  5
914
  8
0
  0
POLYLINE
  5
125
  8
0
 66
     1
 10
0.0
 20
0.0
 30
0.0
  0
VERTEX
  5
915
  8
0
 10
83.8075510813444
 20
58.370496884402883
 30
0.0
 42
-0.1225631761367327
  0
VERTEX
  5
916
  8
0
 10
83.715630646862294
 20
58.001137859977462
 30
0.0
 42
-0.1054222508271226
  0
VERTEX
  5
917
  8
0
 10
83.432366660345579
 20
57.663390103215818
 30
0.0
 42
-0.0877466241882881
  0
VERTEX
  5
918
  8
0
 10
82.989260426458074
 20
57.428296331301908
 30
0.0
 42
-0.0945135932985288
  0
VERTEX
  5
919
  8
0
 10
82.526591342779099
 20
57.370496884402122
 30
0.0
 42
-0.0061915463284408
  0
VERTEX
  5
91A
  8
0
 10
82.486084316411436
 20
57.370998505892679
 30
0.0
 42
-0.0877466241882895
  0
SEQEND
  5
91B
  8
0
  0
POLYLINE
  5
12D
  8
0
 66
     1
 10
0.0
 20
0.0
 30
0.0
  0
VERTEX
  5
91C
  8
0
 10
82.486084316411436
 20
57.370496884402122
 30
0.0
 42
-0.0762503045336251
  0
VERTEX
  5
91D
  8
0
 10
82.546504333025737
 20
57.764388609968648
 30
0.0
 42
-0.0863388448285874
  0
VERTEX
  5
91E
  8
0
 10
82.708241181825144
 20
58.07760366558918
 30
0.0
 42
-0.1059026189035466
  0
VERTEX
  5
91F
  8
0
 10
82.965744729708945
 20
58.299322664809303
 30
0.0
 42
-0.1256159529492872
  0
VERTEX
  5
920
  8
0
 10
83.244575299281223
 20
58.370496884402847
 30
0.0
 42
-0.1256159529493481
  0
SEQEND
  5
921
  8
0
  0
POLYLINE
  5
134
  8
0
 66
     1
 10
0.0
 20
0.0
 30
0.0
  0
VERTEX
  5
922
  8
0
 10
85.480181142954621
 20
58.370496884402883
 30
0.0
 42
-0.1334336925984327
  0
VERTEX
  5
923
  8
0
 10
85.381525480216666
 20
58.007398400281801
 30
0.0
 42
-0.1067704138980678
  0
VERTEX
  5
924
  8
0
 10
85.065304614355881
 20
57.663390103215789
 30
0.0
 42
-0.0827463308499826
  0
VERTEX
  5
925
  8
0
 10
84.577947348057705
 20
57.42820437693765
 30
0.0
 42
-0.0865865503962472
  0
VERTEX
  5
926
  8
0
 10
84.063704072302514
 20
57.370496884402122
 30
0.0
 42
-0.0198714298214009
  0
VERTEX
  5
927
  8
0
 10
83.904957605202284
 20
57.376808415220673
 30
0.0
 42
-0.0827463308500182
  0
SEQEND
  5
928
  8
0
  0
POLYLINE
  5
13C
  8
0
 66
     1
 10
0.0
 20
0.0
 30
0.0
  0
VERTEX
  5
929
  8
0
 10
83.904967487980016
 20
57.376807628150658
 30
0.0
 42
-0.0498044911246067
  0
VERTEX
  5
92A
  8
0
 10
83.946001006200632
 20
57.775110277955719
 30
0.0
 42
-0.0644285350064953
  0
VERTEX
  5
92B
  8
0
 10
84.049904871763687
 20
58.077603665589209
 30
0.0
 42
-0.103961162207828
  0
VERTEX
  5
92C
  8
0
 10
84.232577126068691
 20
58.309735699298471
 30
0.0
 42
-0.1760085217028262
  0
VERTEX
  5
92D
  8
0
 10
84.399838528525009
 20
58.370496884402883
 30
0.0
 42
-0.1760085217029738
  0
SEQEND
  5
92E
  8
0
  0
POLYLINE
  5
143
  8
0
 66
     1
 10
0.0
 20
0.0
 30
0.0
  0
VERTEX
  5
92F
  8
0
 10
87.924050311479476
 20
58.370496884402883
 30
0.0
 42
-0.1350558593684616
  0
VERTEX
  5
930
  8
0
 10
87.824410407406674
 20
58.008341313383482
 30
0.0
 42
-0.106888083462467
  0
VERTEX
  5
931
  8
0
 10
87.503092504247334
 20
57.663390103215818
 30
0.0
 42
-0.0820055680237245
  0
VERTEX
  5
932
  8
0
 10
87.008925477599519
 20
57.428179960963263
 30
0.0
 42
-0.0854891159614051
  0
VERTEX
  5
933
  8
0
 10
86.486810456840672
 20
57.370496884402122
 30
0.0
 42
-0.0421392438939827
  0
VERTEX
  5
934
  8
0
 10
86.141671190929884
 20
57.399636443386953
 30
0.0
 42
-0.082005568023814
  0
SEQEND
  5
935
  8
0
  0
POLYLINE
  5
14B
  8
0
 66
     1
 10
0.0
 20
0.0
 30
0.0
  0
VERTEX
  5
936
  8
0
 10
86.141786733043745
 20
57.399616796628152
 30
0.0
 42
-0.026089963624248
  0
VERTEX
  5
937
  8
0
 10
86.164774353120393
 20
57.781622367909677
 30
0.0
 42
-0.0383894869844943
  0
VERTEX
  5
938
  8
0
 10
86.221394559816574
 20
58.077603665589209
 30
0.0
 42
-0.079068566770363
  0
VERTEX
  5
939
  8
0
 10
86.334029416993104
 20
58.327429728032172
 30
0.0
 42
-0.2525275244934266
  0
VERTEX
  5
93A
  8
0
 10
86.413863798220987
 20
58.370496884402883
 30
0.0
 42
-0.2525275244936523
  0
SEQEND
  5
93B
  8
0
  0
POLYLINE
  5
152
  8
0
 66
     1
 10
0.0
 20
0.0
 30
0.0
  0
VERTEX
  5
93C
  8
0
 10
90.941170841222061
 20
58.370496884402883
 30
0.0
 42
-0.127485225445451
  0
VERTEX
  5
93D
  8
0
 10
90.846170495942459
 20
58.003958905259623
 30
0.0
 42
-0.1061566881826089
  0
VERTEX
  5
93E
  8
0
 10
90.548235253350924
 20
57.663390103215789
 30
0.0
 42
-0.0854774487967356
  0
VERTEX
  5
93F
  8
0
 10
90.085382639339741
 20
57.42827171751523
 30
0.0
 42
-0.0907941248513917
  0
VERTEX
  5
940
  8
0
 10
89.599604827973451
 20
57.370496884402122
 30
0.0
 42
-0.0750072681776871
  0
VERTEX
  5
941
  8
0
 10
89.070392045294227
 20
57.450335674872058
 30
0.0
 42
-0.0105253513654881
  0
VERTEX
  5
942
  8
0
 10
89.015019841206282
 20
57.468717288750177
 30
0.0
 42
-0.10615668818263
  0
SEQEND
  5
943
  8
0
  0
POLYLINE
  5
15B
  8
0
 66
     1
 10
0.0
 20
0.0
 30
0.0
  0
VERTEX
  5
944
  8
0
 10
89.015541195036207
 20
57.46853206350746
 30
0.0
 42
-0.0085657891893307
  0
VERTEX
  5
945
  8
0
 10
89.02430886257045
 20
57.784208144104241
 30
0.0
 42
-0.0157878733464657
  0
VERTEX
  5
946
  8
0
 10
89.04678906588191
 20
58.07760366558918
 30
0.0
 42
-0.037033698541525
  0
VERTEX
  5
947
  8
0
 10
89.096943669891346
 20
58.350009463231231
 30
0.0
  0
VERTEX
  5
948
  8
0
 10
89.123486758959871
 20
58.370496884402847
 30
0.0
  0
SEQEND
  5
949
  8
0
  0
POLYLINE
  5
162
  8
0
 66
     1
 10
0.0
 20
0.0
 30
0.0
  0
VERTEX
  5
94A
  8
0
 10
94.287113570477246
 20
58.370496884402883
 30
0.0
 42
-0.1105008805935672
  0
VERTEX
  5
94B
  8
0
 10
94.202956114439701
 20
57.99434668706791
 30
0.0
 42
-0.102681505899675
  0
VERTEX
  5
94C
  8
0
 10
93.954033506404485
 20
57.663390103215789
 30
0.0
 42
-0.09326528898541
  0
VERTEX
  5
94D
  8
0
 10
93.557451595299682
 20
57.428196616802353
 30
0.0
 42
-0.1047091053795621
  0
VERTEX
  5
94E
  8
0
 10
93.149907098363968
 20
57.370496884402122
 30
0.0
 42
-0.0875481733071282
  0
VERTEX
  5
94F
  8
0
 10
92.708250981630044
 20
57.448426563158712
 30
0.0
 42
-0.0932652889854085
  0
VERTEX
  5
950
  8
0
 10
92.345780690323437
 20
57.663390103215789
 30
0.0
 42
-0.0180926587932167
  0
VERTEX
  5
951
  8
0
 10
92.292221936951336
 20
57.714037656307589
 30
0.0
 42
-0.110500880593557
  0
SEQEND
  5
952
  8
0
  0
POLYLINE
  5
16C
  8
0
 66
     1
 10
0.0
 20
0.0
 30
0.0
  0
VERTEX
  5
953
  8
0
 10
92.294619388278875
 20
57.711608460288659
 30
0.0
  0
VERTEX
  5
954
  8
0
 10
92.297191730447381
 20
58.07760366558918
 30
0.0
 42
-0.0059938276073232
  0
VERTEX
  5
955
  8
0
 10
92.305573956750507
 20
58.367026058450193
 30
0.0
  0
VERTEX
  5
956
  8
0
 10
92.309189873307716
 20
58.370496884402847
 30
0.0
  0
SEQEND
  5
957
  8
0
  0
LINE
  5
172
  8
0
 10
83.041666666666671
 20
49.404180290121992
 30
0.0
 11
83.041666666666671
 21
49.300868432642382
 31
0.0
  0
POLYLINE
  5
173
  8
0
 66
     1
 10
0.0
 20
0.0
 30
0.0
  0
VERTEX
  5
958
  8
0
 10
83.486084316411436
 20
49.299999999994562
 30
0.0
 42
-0.0984914033575468
  0
VERTEX
  5
959
  8
0
 10
83.103400884046565
 20
49.376120467483531
 30
0.0
 42
-0.0984914033573049
  0
VERTEX
  5
95A
  8
0
 10
82.778977535224897
 20
49.592893218809337
 30
0.0
 42
-0.0984914033569793
  0
VERTEX
  5
95B
  8
0
 10
82.562204783900256
 20
49.917316567631993
 30
0.0
 42
-0.0984914033567708
  0
VERTEX
  5
95C
  8
0
 10
82.486084316411436
 20
50.299999999999102
 30
0.0
 42
-0.0984914033567562
  0
SEQEND
  5
95D
  8
0
  0
POLYLINE
  5
17A
  8
0
 66
     1
 10
0.0
 20
0.0
 30
0.0
  0
VERTEX
  5
95E
  8
0
 10
83.807551081344386
 20
50.299999999999102
 30
0.0
 42
-0.0331063843232843
  0
VERTEX
  5
95F
  8
0
 10
83.780377163488936
 20
49.890046830720742
 30
0.0
 42
-0.0446936505014468
  0
VERTEX
  5
960
  8
0
 10
83.713395645821635
 20
49.59289321881257
 30
0.0
 42
-0.0874613525713689
  0
VERTEX
  5
961
  8
0
 10
83.578321902912165
 20
49.336895511880471
 30
0.0
 42
-0.2715410074110371
  0
VERTEX
  5
962
  8
0
 10
83.486084316411464
 20
49.300000000020951
 30
0.0
 42
-0.2317201495427529
  0
SEQEND
  5
963
  8
0
  0
POLYLINE
  5
181
  8
0
 66
     1
 10
0.0
 20
0.0
 30
0.0
  0
VERTEX
  5
964
  8
0
 10
84.904957605202327
 20
49.299999999999102
 30
0.0
 42
-0.0984914033571502
  0
VERTEX
  5
965
  8
0
 10
84.522274172837285
 20
49.376120467487787
 30
0.0
 42
-0.0984914033571892
  0
VERTEX
  5
966
  8
0
 10
84.197850824015759
 20
49.592893218812549
 30
0.0
 42
-0.0984914033571641
  0
VERTEX
  5
967
  8
0
 10
83.981078072691034
 20
49.917316567633982
 30
0.0
 42
-0.0984914033571828
  0
VERTEX
  5
968
  8
0
 10
83.904957605202284
 20
50.299999999999102
 30
0.0
 42
-0.0984914033571611
  0
SEQEND
  5
969
  8
0
  0
POLYLINE
  5
188
  8
0
 66
     1
 10
0.0
 20
0.0
 30
0.0
  0
VERTEX
  5
96A
  8
0
 10
85.480181142954606
 20
50.299999999999102
 30
0.0
 42
-0.0585427929792423
  0
VERTEX
  5
96B
  8
0
 10
85.432996586444048
 20
49.898389140318393
 30
0.0
 42
-0.0721493168922391
  0
VERTEX
  5
96C
  8
0
 10
85.311702069445076
 20
49.592893218812549
 30
0.0
 42
-0.1065785072686789
  0
VERTEX
  5
96D
  8
0
 10
85.093051014442068
 20
49.350699986360723
 30
0.0
 42
-0.1823796334871444
  0
VERTEX
  5
96E
  8
0
 10
84.904957605202327
 20
49.300000000000288
 30
0.0
 42
-0.1572992510156107
  0
SEQEND
  5
96F
  8
0
  0
POLYLINE
  5
18F
  8
0
 66
     1
 10
0.0
 20
0.0
 30
0.0
  0
VERTEX
  5
970
  8
0
 10
87.141671190929856
 20
49.30000000000323
 30
0.0
 42
-0.0984914033567754
  0
VERTEX
  5
971
  8
0
 10
86.758987758564615
 20
49.376120467491653
 30
0.0
 42
-0.0984914033570083
  0
VERTEX
  5
972
  8
0
 10
86.434564409743317
 20
49.592893218815483
 30
0.0
 42
-0.0984914033572867
  0
VERTEX
  5
973
  8
0
 10
86.217791658418506
 20
49.91731656763573
 30
0.0
 42
-0.0984914033575375
  0
VERTEX
  5
974
  8
0
 10
86.141671190929841
 20
50.299999999999102
 30
0.0
 42
-0.0984914033575409
  0
SEQEND
  5
975
  8
0
  0
POLYLINE
  5
196
  8
0
 66
     1
 10
0.0
 20
0.0
 30
0.0
  0
VERTEX
  5
976
  8
0
 10
87.924050311479476
 20
50.299999999999102
 30
0.0
 42
-0.0785087970030422
  0
VERTEX
  5
977
  8
0
 10
87.861988089695075
 20
49.90717973340503
 30
0.0
 42
-0.0878528306591884
  0
VERTEX
  5
978
  8
0
 10
87.694896772529248
 20
49.592893218812549
 30
0.0
 42
-0.1053826532180528
  0
VERTEX
  5
979
  8
0
 10
87.411108978887881
 20
49.355360907115987
 30
0.0
 42
-0.1430969697079451
  0
VERTEX
  5
97A
  8
0
 10
87.141671190929856
 20
49.300000000003308
 30
0.0
 42
-0.1223328440642727
  0
SEQEND
  5
97B
  8
0
  0
POLYLINE
  5
19D
  8
0
 66
     1
 10
0.0
 20
0.0
 30
0.0
  0
VERTEX
  5
97C
  8
0
 10
90.015019841206254
 20
49.299999999999102
 30
0.0
 42
-0.0984914033571287
  0
VERTEX
  5
97D
  8
0
 10
89.632336408841127
 20
49.376120467487787
 30
0.0
 42
-0.0984914033571183
  0
VERTEX
  5
97E
  8
0
 10
89.307913060019715
 20
49.592893218812549
 30
0.0
 42
-0.0984914033571227
  0
VERTEX
  5
97F
  8
0
 10
89.09114030869496
 20
49.917316567633982
 30
0.0
 42
-0.0984914033571287
  0
VERTEX
  5
980
  8
0
 10
89.015019841206254
 20
50.299999999999102
 30
0.0
 42
-0.0984914033571828
  0
SEQEND
  5
981
  8
0
  0
POLYLINE
  5
1A4
  8
0
 66
     1
 10
0.0
 20
0.0
 30
0.0
  0
VERTEX
  5
982
  8
0
 10
90.941170841222032
 20
50.299999999999102
 30
0.0
 42
-0.091834411140577
  0
VERTEX
  5
983
  8
0
 10
90.869638833350848
 20
49.913822653313382
 30
0.0
 42
-0.0954802098555609
  0
VERTEX
  5
984
  8
0
 10
90.669907493720117
 20
49.59289321881257
 30
0.0
 42
-0.1011331020228428
  0
VERTEX
  5
985
  8
0
 10
90.340754881350819
 20
49.356843801421832
 30
0.0
 42
-0.1245320416321433
  0
VERTEX
  5
986
  8
0
 10
90.015019841206268
 20
49.300000000001802
 30
0.0
 42
-0.105528622782662
  0
SEQEND
  5
987
  8
0
  0
POLYLINE
  5
1AB
  8
0
 66
     1
 10
0.0
 20
0.0
 30
0.0
  0
VERTEX
  5
988
  8
0
 10
93.292221936951364
 20
49.299999999999102
 30
0.0
 42
-0.0984914033572188
  0
VERTEX
  5
989
  8
0
 10
92.909538504586294
 20
49.376120467487851
 30
0.0
 42
-0.0984914033572335
  0
VERTEX
  5
98A
  8
0
 10
92.585115155764797
 20
49.592893218812549
 30
0.0
 42
-0.0984914033572166
  0
VERTEX
  5
98B
  8
0
 10
92.368342404440085
 20
49.917316567634032
 30
0.0
 42
-0.0984914033572152
  0
VERTEX
  5
98C
  8
0
 10
92.292221936951336
 20
50.299999999999102
 30
0.0
 42
-0.0984914033571611
  0
SEQEND
  5
98D
  8
0
  0
POLYLINE
  5
1B2
  8
0
 66
     1
 10
0.0
 20
0.0
 30
0.0
  0
VERTEX
  5
98E
  8
0
 10
94.287113570477246
 20
50.299999999999102
 30
0.0
 42
-0.0980351827432918
  0
VERTEX
  5
98F
  8
0
 10
94.211304520702328
 20
49.917073918256307
 30
0.0
 42
-0.0983012581209227
  0
VERTEX
  5
990
  8
0
 10
93.99571655756327
 20
49.592893218812549
 30
0.0
 42
-0.0986799003570547
  0
VERTEX
  5
991
  8
0
 10
93.644719611086757
 20
49.357252402132758
 30
0.0
 42
-0.1172832904250393
  0
VERTEX
  5
992
  8
0
 10
93.292221936951364
 20
49.299999999999102
 30
0.0
 42
-0.0989493199570589
  0
SEQEND
  5
993
  8
0
  0
LINE
  5
1B9
  8
0
 10
94.28711357047726
 20
58.370496884402883
 30
0.0
 11
94.287113570477246
 21
50.300000000000011
 31
0.0
  0
LINE
  5
1BA
  8
0
 10
92.292221936951336
 20
57.714037656307589
 30
0.0
 11
92.292221936951336
 21
50.300000000000011
 31
0.0
  0
LINE
  5
1BB
  8
0
 10
90.941170841222061
 20
58.370496884402883
 30
0.0
 11
90.941170841222046
 21
50.300000000000011
 31
0.0
  0
LINE
  5
1BC
  8
0
 10
89.015019841206282
 20
57.468717288750177
 30
0.0
 11
89.015019841206254
 21
50.300000000000011
 31
0.0
  0
LINE
  5
1BD
  8
0
 10
87.924050311479476
 20
58.370496884402883
 30
0.0
 11
87.924050311479476
 21
50.300000000000011
 31
0.0
  0
LINE
  5
1BE
  8
0
 10
86.141671190929856
 20
57.399636443386953
 30
0.0
 11
86.141671190929841
 21
50.300000000000011
 31
0.0
  0
LINE
  5
1BF
  8
0
 10
85.480181142954621
 20
58.370496884402883
 30
0.0
 11
85.480181142954606
 21
50.300000000000011
 31
0.0
  0
LINE
  5
1C0
  8
0
 10
83.904957605202284
 20
57.376808415220673
 30
0.0
 11
83.904957605202284
 21
50.300000000000011
 31
0.0
  0
LINE
  5
1C1
  8
0
 10
83.8075510813444
 20
58.370496884402883
 30
0.0
 11
83.8075510813444
 21
50.300000000000011
 31
0.0
  0
LINE
  5
1C2
  8
0
 10
82.486084316411436
 20
57.370998505892679
 30
0.0
 11
82.486084316411436
 21
50.300000000000011
 31
0.0
  0
LINE
  5
1C3
  8
0
 10
83.0
 20
49.300000000000921
 30
0.0
 11
82.999999999999986
 21
49.000000000000043
 31
0.0
  0
ARC
  5
1C4
  8
0
 10
83.0
 20
50.300000000000011
 30
0.0
 40
1.0
 50
180.0
 51
272.3880154632671
  0
LINE
  5
1C5
  8
0
 10
82.0
 20
57.370496884402137
 30
0.0
 11
82.0
 21
50.300000000000011
 31
0.0
  0
LINE
  5
1C6
  8
0
 10
83.0
 20
58.370496884402172
 30
0.0
 11
82.0
 21
57.370496884402137
 31
0.0
  0
LINE
  5
1C7
  8
0
 10
83.0
 20
59.370496884402883
 30
0.0
 11
83.0
 21
58.370496884402172
 31
0.0
  0
LINE
  5
630
  8
2
 10
100.5
 20
52.999999999999972
 30
0.0
 11
100.5
 21
33.30000000000021
 31
0.0
  0
LINE
  5
632
  8
2
 10
89.500000000000014
 20
52.999999999999972
 30
0.0
 11
89.500000000000014
 21
33.30000000000021
 31
0.0
  0
LINE
  5
665
  8
2
 10
99.500000000000014
 20
53.999999999999972
 30
0.0
 11
90.5
 21
53.999999999999972
 31
0.0
  0
LINE
  5
6A3
  8
2
 10
90.5
 20
53.999999999999972
 30
0.0
 11
89.500000000000014
 21
52.999999999999972
 31
0.0
  0
LINE
  5
6DB
  8
2
 10
99.500000000000014
 20
53.999999999999972
 30
0.0
 11
100.5
 21
52.999999999999972
 31
0.0
  0
LINE
  5
756
  8
2
 10
95.000000000000085
 20
52.443375672974149
 30
0.0
 11
97.500000000000284
 21
50.999999999999972
 31
0.0
  0
LINE
  5
757
  8
2
 10
97.500000000000213
 20
34.200000000000017
 30
0.0
 11
97.500000000000213
 21
50.999999999999957
 31
0.0
  0
LINE
  5
758
  8
2
 10
98.000000000000185
 20
33.699999999999591
 30
0.0
 11
98.000000000000185
 21
48.999999999999879
 31
0.0
  0
LINE
  5
759
  8
2
 10
97.500000000000213
 20
34.200000000000017
 30
0.0
 11
98.500000000000213
 21
33.199999999999122
 31
0.0
  0
LINE
  5
75A
  8
2
 10
97.500000000000284
 20
49.866025403784271
 30
0.0
 11
98.000000000000256
 21
48.999999999999879
 31
0.0
  0
LINE
  5
75B
  8
2
 10
92.499999999999815
 20
34.200000000000017
 30
0.0
 11
97.500000000000213
 21
34.200000000000017
 31
0.0
  0
LINE
  5
75C
  8
2
 10
92.499999999999872
 20
49.866025403784271
 30
0.0
 11
91.999999999999901
 21
48.999999999999879
 31
0.0
  0
LINE
  5
75D
  8
2
 10
91.999999999999901
 20
48.999999999999879
 30
0.0
 11
98.00000000000027
 21
48.999999999999879
 31
0.0
  0
LINE
  5
75E
  8
2
 10
95.000000000000057
 20
52.443375672974149
 30
0.0
 11
92.499999999999872
 21
50.999999999999972
 31
0.0
  0
LINE
  5
75F
  8
2
 10
92.499999999999872
 20
50.999999999999972
 30
0.0
 11
97.500000000000284
 21
50.999999999999972
 31
0.0
  0
LINE
  5
760
  8
2
 10
92.499999999999815
 20
34.200000000000017
 30
0.0
 11
91.499999999999815
 21
33.199999999999122
 31
0.0
  0
LINE
  5
761
  8
2
 10
91.999999999999844
 20
33.699999999999591
 30
0.0
 11
91.999999999999844
 21
48.999999999999879
 31
0.0
  0
LINE
  5
762
  8
2
 10
92.499999999999815
 20
34.200000000000017
 30
0.0
 11
92.499999999999815
 21
50.999999999999957
 31
0.0
  0
TEXT
  5
837
  8
0
 62
     3
 10
0.0
 20
0.0
 30
0.0
 40
10.0
  1
LKF25A
  7
STANDARD1
  0
ENDSEC
  0
EOF
