  0
SECTION
  2
HEADER
  9
$ACADVER
  1
AC1009
  9
$INSBASE
 10
0.0
 20
0.0
 30
0.0
  9
$EXTMIN
 10
-0.0005
 20
-2.960436562073669
 30
0.0
  9
$EXTMAX
 10
108.0000000000009
 20
116.0000000000009
 30
0.0
  9
$LIMMIN
 10
0.0
 20
0.0
  9
$LIMMAX
 10
187.5
 20
135.0
  9
$ORTHOMODE
 70
     0
  9
$REGENMODE
 70
     1
  9
$FILLMODE
 70
     1
  9
$QTEXTMODE
 70
     0
  9
$MIRRTEXT
 70
     0
  9
$DRAGMODE
 70
     2
  9
$LTSCALE
 40
5.0
  9
$OSMODE
 70
  3071
  9
$ATTMODE
 70
     1
  9
$TEXTSIZE
 40
4.000000000000048
  9
$TRACEWID
 40
0.05
  9
$TEXTSTYLE
  7
STANDARD
  9
$CLAYER
  8
0
  9
$CELTYPE
  6
BYLAYER
  9
$CECOLOR
 62
   256
  9
$DIMSCALE
 40
0.5
  9
$DIMASZ
 40
3.0
  9
$DIMEXO
 40
2.0
  9
$DIMDLI
 40
0.38
  9
$DIMRND
 40
0.0
  9
$DIMDLE
 40
0.0
  9
$DIMEXE
 40
2.0
  9
$DIMTP
 40
0.0
  9
$DIMTM
 40
0.0
  9
$DIMTXT
 40
3.0
  9
$DIMCEN
 40
0.0
  9
$DIMTSZ
 40
0.0
  9
$DIMTOL
 70
     0
  9
$DIMLIM
 70
     0
  9
$DIMTIH
 70
     0
  9
$DIMTOH
 70
     0
  9
$DIMSE1
 70
     0
  9
$DIMSE2
 70
     0
  9
$DIMTAD
 70
     1
  9
$DIMZIN
 70
     0
  9
$DIMBLK
  1

  9
$DIMASO
 70
     1
  9
$DIMSHO
 70
     0
  9
$DIMPOST
  1

  9
$DIMAPOST
  1

  9
$DIMALT
 70
     0
  9
$DIMALTD
 70
     2
  9
$DIMALTF
 40
25.399999999999999
  9
$DIMLFAC
 40
1.0
  9
$DIMTOFL
 70
     1
  9
$DIMTVP
 40
1.6000000000000001
  9
$DIMTIX
 70
     1
  9
$DIMSOXD
 70
     0
  9
$DIMSAH
 70
     0
  9
$DIMBLK1
  1

  9
$DIMBLK2
  1

  9
$DIMSTYLE
  2
STANDARD
  9
$DIMCLRD
 70
     0
  9
$DIMCLRE
 70
     0
  9
$DIMCLRT
 70
     0
  9
$DIMTFAC
 40
1.0
  9
$DIMGAP
 40
0.09
  9
$LUNITS
 70
     2
  9
$LUPREC
 70
     4
  9
$SKETCHINC
 40
0.1
  9
$FILLETRAD
 40
0.0
  9
$AUNITS
 70
     0
  9
$AUPREC
 70
     4
  9
$MENU
  1
E:\r13\win\SUPPORT\ACAD
  9
$ELEVATION
 40
0.0
  9
$PELEVATION
 40
0.0
  9
$THICKNESS
 40
0.0
  9
$LIMCHECK
 70
     0
  9
$BLIPMODE
 70
     0
  9
$CHAMFERA
 40
0.0
  9
$CHAMFERB
 40
0.0
  9
$SKPOLY
 70
     0
  9
$TDCREATE
 40
2449839.7885879632
  9
$TDUPDATE
 40
2456597.5789105329
  9
$TDINDWG
 40
0.0015016782
  9
$TDUSRTIMER
 40
0.0015016782
  9
$USRTIMER
 70
     1
  9
$ANGBASE
 50
0.0
  9
$ANGDIR
 70
     0
  9
$PDMODE
 70
     0
  9
$PDSIZE
 40
0.0
  9
$PLINEWID
 40
0.0
  9
$COORDS
 70
     1
  9
$SPLFRAME
 70
     0
  9
$SPLINETYPE
 70
     6
  9
$SPLINESEGS
 70
     8
  9
$ATTDIA
 70
     0
  9
$ATTREQ
 70
     1
  9
$HANDLING
 70
     1
  9
$HANDSEED
  5
8D8
  9
$SURFTAB1
 70
     6
  9
$SURFTAB2
 70
     6
  9
$SURFTYPE
 70
     6
  9
$SURFU
 70
     6
  9
$SURFV
 70
     6
  9
$UCSNAME
  2

  9
$UCSORG
 10
0.0
 20
0.0
 30
0.0
  9
$UCSXDIR
 10
1.0
 20
0.0
 30
0.0
  9
$UCSYDIR
 10
0.0
 20
1.0
 30
0.0
  9
$PUCSNAME
  2

  9
$PUCSORG
 10
0.0
 20
0.0
 30
0.0
  9
$PUCSXDIR
 10
1.0
 20
0.0
 30
0.0
  9
$PUCSYDIR
 10
0.0
 20
1.0
 30
0.0
  9
$USERI1
 70
     0
  9
$USERI2
 70
     1
  9
$USERI3
 70
     1
  9
$USERI4
 70
     0
  9
$USERI5
 70
     0
  9
$USERR1
 40
0.0
  9
$USERR2
 40
0.0
  9
$USERR3
 40
0.0
  9
$USERR4
 40
0.0
  9
$USERR5
 40
0.0
  9
$WORLDVIEW
 70
     1
  9
$SHADEDGE
 70
     3
  9
$SHADEDIF
 70
    70
  9
$TILEMODE
 70
     1
  9
$MAXACTVP
 70
    16
  9
$PLIMCHECK
 70
     0
  9
$PEXTMIN
 10
1.0000000000000000E+020
 20
1.0000000000000000E+020
 30
1.0000000000000000E+020
  9
$PEXTMAX
 10
-1.0000000000000000E+020
 20
-1.0000000000000000E+020
 30
-1.0000000000000000E+020
  9
$PLIMMIN
 10
0.0
 20
0.0
  9
$PLIMMAX
 10
12.0
 20
9.0
  9
$UNITMODE
 70
     0
  9
$VISRETAIN
 70
     0
  9
$PLINEGEN
 70
     0
  9
$PSLTSCALE
 70
     0
  0
ENDSEC
  0
SECTION
  2
TABLES
  0
TABLE
  2
VPORT
 70
     1
  0
VPORT
  2
*ACTIVE
 70
     0
 10
0.0
 20
0.0
 11
1.0
 21
1.0
 12
93.746889187697406
 22
80.85254583294622
 13
0.0
 23
0.0
 14
5.0
 24
5.0
 15
5.0
 25
5.0
 16
0.0
 26
0.0
 36
1.0
 17
0.0
 27
0.0
 37
0.0
 40
169.21212501566299
 41
1.9089595375722539
 42
50.0
 43
0.0
 44
0.0
 50
0.0
 51
0.0
 71
     0
 72
   500
 73
     1
 74
     0
 75
     0
 76
     0
 77
     0
 78
     2
  0
ENDTAB
  0
TABLE
  2
LTYPE
 70
     4
  0
LTYPE
  2
CONTINUOUS
 70
     0
  3
Solid Line
 72
    65
 73
     0
 40
0.0
  0
LTYPE
  2
CENTER
 70
     0
  3
____ _ ____ _ ____ _ ____ _ ____ _ ____ _ ____
 72
    65
 73
     4
 40
2.0
 49
1.25
 49
-0.25
 49
0.25
 49
-0.25
  0
LTYPE
  2
HIDDEN
 70
     0
  3
_ _ _ _ _ _ _ _ _ _ _ _ _ _ _ _ _ _ _ _ _ _ _
 72
    65
 73
     2
 40
0.375
 49
0.25
 49
-0.125
  0
LTYPE
  2
PHANTOM2
 70
     0
  3
___ _ _ ___ _ _ ___ _ _ ___ _ _
 72
    65
 73
     6
 40
1.25
 49
0.625
 49
-0.125
 49
0.125
 49
-0.125
 49
0.125
 49
-0.125
  0
ENDTAB
  0
TABLE
  2
LAYER
 70
     4
  0
LAYER
  2
0
 70
     0
 62
     7
  6
CONTINUOUS
  0
LAYER
  2
1
 70
     0
 62
     1
  6
CENTER
  0
LAYER
  2
2
 70
     0
 62
     2
  6
HIDDEN
  0
LAYER
  2
ITTEN
 70
     0
 62
     1
  6
CENTER
  0
ENDTAB
  0
TABLE
  2
STYLE
 70
     2
  0
STYLE
  2
STANDARD
 70
     0
 40
0.0
 41
1.0
 50
0.0
 71
     0
 42
4.000000000000048
  3
TXT
  4
BIGFONT
  0
STYLE
  2
STANDARD1
 70
     0
 40
0.0
 41
1.0
 50
0.0
 71
     0
 42
3.0
  3
txt
  4

  0
ENDTAB
  0
TABLE
  2
VIEW
 70
     1
  0
VIEW
  2
ALL
 70
     0
 40
135.0
 10
110.4957983193277
 20
67.5
 41
0.0
 11
0.0
 21
0.0
 31
1.0
 12
0.0
 22
0.0
 32
0.0
 42
0.0
 43
0.0
 44
0.0
 50
0.0
 71
     0
  0
ENDTAB
  0
TABLE
  2
UCS
 70
     0
  0
ENDTAB
  0
TABLE
  2
APPID
 70
     3
  0
APPID
  2
ACAD
 70
     0
  0
APPID
  2
ACAD_MLEADERVER
 70
     0
  0
APPID
  2
ACAD_NAV_VCDISPLAY
 70
     0
  0
ENDTAB
  0
TABLE
  2
DIMSTYLE
 70
     1
  0
DIMSTYLE
  2
STANDARD
 70
     0
  3

  4

  5

  6

  7

 40
1.0
 41
0.18
 42
0.0625
 43
0.38
 44
0.18
 45
0.0
 46
0.0
 47
0.0
 48
0.0
140
0.18
141
0.09
142
0.0
143
25.399999999999999
144
1.0
145
0.0
146
1.0
147
0.09
 71
     0
 72
     0
 73
     1
 74
     1
 75
     0
 76
     0
 77
     0
 78
     0
170
     0
171
     2
172
     0
173
     0
174
     0
175
     0
176
     0
177
     0
178
     0
  0
ENDTAB
  0
ENDSEC
  0
SECTION
  2
BLOCKS
  0
BLOCK
  8
0
  2
$MODEL_SPACE
 70
     0
 10
0.0
 20
0.0
 30
0.0
  3
$MODEL_SPACE
  1

  0
ENDBLK
  5
5EC
  8
0
  0
BLOCK
 67
     1
  8
0
  2
$PAPER_SPACE
 70
     0
 10
0.0
 20
0.0
 30
0.0
  3
$PAPER_SPACE
  1

  0
ENDBLK
  5
5EA
 67
     1
  8
0
  0
BLOCK
  8
0
  2
BATU
 70
     0
 10
0.0
 20
0.0
 30
0.0
  3
BATU
  1

  0
LINE
  5
5F7
  8
ITTEN
 10
0.5
 20
0.0
 30
0.0
 11
-0.5
 21
0.0
 31
0.0
  0
LINE
  5
5F8
  8
ITTEN
 10
0.0
 20
0.5
 30
0.0
 11
0.0
 21
-0.5
 31
0.0
  0
ENDBLK
  5
5FA
  8
0
  0
ENDSEC
  0
SECTION
  2
ENTITIES
  0
LINE
  5
35
  8
1
 10
90.0
 20
79.999999999999105
 30
0.0
 11
90.0
 21
116.0000000000009
 31
0.0
  0
LINE
  5
36
  8
1
 10
108.0000000000009
 20
98.000000000000014
 30
0.0
 11
71.999999999999133
 21
98.000000000000014
 31
0.0
  0
LINE
  5
37
  8
0
 10
83.999999999999957
 20
28.000000000000021
 30
0.0
 11
95.999999999999972
 21
28.000000000000021
 31
0.0
  0
LINE
  5
38
  8
0
 10
95.999999999999972
 20
28.000000000000021
 30
0.0
 11
95.999999999999972
 21
28.300000000000249
 31
0.0
  0
ARC
  5
39
  8
0
 10
90.0
 20
10.000000000000011
 30
0.0
 40
50.0
 50
73.142043977502908
 51
106.85795602249711
  0
LINE
  5
3A
  8
0
 10
75.500000000000071
 20
57.851332269854332
 30
0.0
 11
104.5
 21
57.851332269854332
 31
0.0
  0
LINE
  5
3B
  8
0
 10
75.500000000000014
 20
56.851332269854318
 30
0.0
 11
104.5
 21
56.851332269854318
 31
0.0
  0
ARC
  5
3C
  8
0
 10
104.5
 20
47.800000000000438
 30
0.0
 40
1.0
 50
268.02389171428399
 51
360.0
  0
LINE
  5
3D
  8
0
 10
104.4999999999999
 20
57.851332269854332
 30
0.0
 11
104.5
 21
56.85133226985279
 31
0.0
  0
LINE
  5
3E
  8
0
 10
104.5
 20
56.85133226985279
 30
0.0
 11
104.5335885603905
 21
56.817743709462277
 31
0.0
  0
LINE
  5
3F
  8
0
 10
105.5
 20
55.851332269852819
 30
0.0
 11
105.5
 21
47.800000000000438
 31
0.0
  0
LINE
  5
40
  8
0
 10
104.5
 20
46.800000000000452
 30
0.0
 11
104.5
 21
46.0
 31
0.0
  0
LINE
  5
41
  8
0
 10
99.98207069387621
 20
42.104698490107531
 30
0.0
 11
99.526174622526966
 21
29.04954312026457
 31
0.0
  0
ARC
  5
42
  8
0
 10
103.5
 20
46.0
 30
0.0
 40
1.0
 50
270.00000000000011
 51
360.0
  0
ARC
  5
43
  8
0
 10
102.98024317493351
 20
42.000000000000007
 30
0.0
 40
3.0
 50
90.000000000000327
 51
178.00000000000011
  0
LINE
  5
44
  8
0
 10
99.526174622526966
 20
29.04954312026457
 30
0.0
 11
98.750000000000085
 21
28.300000000000249
 31
0.0
  0
LINE
  5
45
  8
0
 10
80.473825377473005
 20
29.04954312026458
 30
0.0
 11
81.249999999999915
 21
28.300000000000249
 31
0.0
  0
LINE
  5
46
  8
0
 10
80.017929306123804
 20
42.104698490107531
 30
0.0
 11
80.473825377473005
 21
29.04954312026458
 31
0.0
  0
ARC
  5
47
  8
0
 10
77.019756825066509
 20
42.000000000000007
 30
0.0
 40
3.0
 50
1.9999999999999629
 51
89.999999999999687
  0
ARC
  5
48
  8
0
 10
76.5
 20
46.000000000000007
 30
0.0
 40
1.0
 50
180.0
 51
269.99999999999989
  0
LINE
  5
49
  8
0
 10
83.999999999999957
 20
28.000000000000021
 30
0.0
 11
83.999999999999957
 21
28.300000000000249
 31
0.0
  0
LINE
  5
4A
  8
0
 10
103.5
 20
45.0
 30
0.0
 11
76.5
 21
45.000000000000021
 31
0.0
  0
CIRCLE
  5
4B
  8
0
 10
90.0
 20
98.000000000000014
 30
0.0
 40
14.5
  0
ARC
  5
4C
  8
0
 10
104.5
 20
98.000000000000014
 30
0.0
 40
1.0
 50
268.02389171428399
 51
91.976108285716094
  0
ARC
  5
4D
  8
0
 10
104.13645472647551
 20
94.773446456928497
 30
0.0
 40
1.0
 50
255.1667488542839
 51
79.118965425716084
  0
ARC
  5
4E
  8
0
 10
103.0640485839576
 20
91.708685781492505
 30
0.0
 40
1.0
 50
242.30960599428391
 51
66.261822565716074
  0
ARC
  5
4F
  8
0
 10
101.33655649443401
 20
88.959397871352436
 30
0.0
 40
1.0
 50
229.45246313428399
 51
53.404679705716099
  0
ARC
  5
50
  8
0
 10
99.040602124690395
 20
86.663443502410288
 30
0.0
 40
1.0
 50
216.59532027428381
 51
40.547536845716088
  0
ARC
  5
51
  8
0
 10
96.291314213947317
 20
84.935951413846297
 30
0.0
 40
1.0
 50
203.73817741428391
 51
27.690393985716081
  0
ARC
  5
52
  8
0
 10
93.226553538136955
 20
83.863545272398184
 30
0.0
 40
1.0
 50
190.8810345542839
 51
14.833251125716121
  0
ARC
  5
53
  8
0
 10
89.999999994938577
 20
83.499999999999986
 30
0.0
 40
1.0
 50
178.02389169428389
 51
1.976108265716102
  0
ARC
  5
54
  8
0
 10
86.773446451993976
 20
83.863545274650747
 30
0.0
 40
1.0
 50
165.16674883428391
 51
349.1189654057161
  0
ARC
  5
55
  8
0
 10
83.708685776932285
 20
84.935951418238517
 30
0.0
 40
1.0
 50
152.3096059742839
 51
336.26182254571597
  0
ARC
  5
56
  8
0
 10
80.959397867395211
 20
86.663443508721855
 30
0.0
 40
1.0
 50
139.45246311428389
 51
323.40467968571608
  0
ARC
  5
57
  8
0
 10
78.663443499254527
 20
88.959397879266845
 30
0.0
 40
1.0
 50
126.59532025428381
 51
310.54753682571612
  0
ARC
  5
58
  8
0
 10
76.935951411650194
 20
91.708685790612975
 30
0.0
 40
1.0
 50
113.73817739428389
 51
297.69039396571611
  0
ARC
  5
59
  8
0
 10
75.863545271271875
 20
94.773446466797637
 30
0.0
 40
1.0
 50
100.8810345342839
 51
284.83325110571599
  0
ARC
  5
5A
  8
0
 10
75.5
 20
98.000000000000014
 30
0.0
 40
1.0
 50
88.023891674283846
 51
271.97610824571598
  0
ARC
  5
5B
  8
0
 10
75.863545275777028
 20
101.2265535529406
 30
0.0
 40
1.0
 50
75.166748814283835
 51
259.11896538571608
  0
ARC
  5
5C
  8
0
 10
76.935951420434549
 20
104.29131422762801
 30
0.0
 40
1.0
 50
62.309605954283818
 51
246.26182252571601
  0
ARC
  5
5D
  8
0
 10
78.663443511877574
 20
107.040602136562
 30
0.0
 40
1.0
 50
49.452463094283807
 51
233.404679665716
  0
ARC
  5
5E
  8
0
 10
80.959397883224057
 20
109.33655650390131
 30
0.0
 40
1.0
 50
36.595320234283797
 51
220.54753680571591
  0
ARC
  5
5F
  8
0
 10
83.708685795173196
 20
111.06404859054589
 30
0.0
 40
1.0
 50
23.73817737428379
 51
207.69039394571601
  0
ARC
  5
60
  8
0
 10
86.773446471732186
 20
112.13645472985441
 30
0.0
 40
1.0
 50
10.881034514283771
 51
194.833251085716
  0
ARC
  5
61
  8
0
 10
90.000000015184426
 20
112.5
 30
0.0
 40
1.0
 50
358.02389165428377
 51
181.9761082257159
  0
ARC
  5
62
  8
0
 10
93.226553557875206
 20
112.1364547230967
 30
0.0
 40
1.0
 50
345.16674879428371
 51
169.11896536571581
  0
ARC
  5
63
  8
0
 10
96.291314232188199
 20
111.06404857736941
 30
0.0
 40
1.0
 50
332.30960593428381
 51
156.261822505716
  0
ARC
  5
64
  8
0
 10
99.040602140519269
 20
109.33655648496659
 30
0.0
 40
1.0
 50
319.4524630742838
 51
143.4046796457159
  0
ARC
  5
65
  8
0
 10
101.336556507057
 20
107.0406021128187
 30
0.0
 40
1.0
 50
306.59532021428367
 51
130.54753678571581
  0
ARC
  5
66
  8
0
 10
103.064048592742
 20
104.2913142002666
 30
0.0
 40
1.0
 50
293.73817735428372
 51
117.6903939257158
  0
ARC
  5
67
  8
0
 10
104.1364547309807
 20
101.22655352333319
 30
0.0
 40
1.0
 50
280.88103449428371
 51
104.8332510657159
  0
LINE
  5
68
  8
0
 10
105.13645472647551
 20
55.851540314224152
 30
0.0
 11
105.13645472647551
 21
47.800000000000438
 31
0.0
  0
LINE
  5
69
  8
0
 10
104.0640485839576
 20
55.853972197374688
 30
0.0
 11
104.0640485839576
 21
47.800000000000438
 31
0.0
  0
LINE
  5
6A
  8
0
 10
102.59935498652111
 20
56.851332269854318
 30
0.0
 11
102.59935498652111
 21
47.800000000000473
 31
0.0
  0
LINE
  5
6B
  8
0
 10
102.33655649443401
 20
55.863012779980899
 30
0.0
 11
102.33655649443401
 21
47.800000000000473
 31
0.0
  0
LINE
  5
6C
  8
0
 10
100.68647778001851
 20
56.851332269854318
 30
0.0
 11
100.68647778001851
 21
47.800000000000473
 31
0.0
  0
LINE
  5
6D
  8
0
 10
100.0406021246903
 20
55.886598184311552
 30
0.0
 11
100.0406021246903
 21
47.800000000000487
 31
0.0
  0
LINE
  5
6E
  8
0
 10
98.237735954543481
 20
56.851332269854318
 30
0.0
 11
98.237735954543481
 21
47.800000000000487
 31
0.0
  0
LINE
  5
6F
  8
0
 10
97.291314213947288
 20
55.942013065640779
 30
0.0
 11
97.291314213947288
 21
47.80000000000053
 31
0.0
  0
LINE
  5
70
  8
0
 10
95.375919650335163
 20
56.851332269854318
 30
0.0
 11
95.375919650335163
 21
47.80000000000053
 31
0.0
  0
LINE
  5
71
  8
0
 10
94.226553538136926
 20
56.08725759394305
 30
0.0
 11
94.226553538136926
 21
47.80000000000053
 31
0.0
  0
LINE
  5
72
  8
0
 10
92.244532286854195
 20
56.851332269854318
 30
0.0
 11
92.244532286854195
 21
47.80000000000053
 31
0.0
  0
LINE
  5
73
  8
0
 10
90.999999994938548
 20
56.851332269854318
 30
0.0
 11
90.999999994938548
 21
47.80000000000053
 31
0.0
  0
LINE
  5
74
  8
1
 10
90.0
 20
25.500000000000021
 30
0.0
 11
90.0
 21
62.500000000000007
 31
0.0
  0
ARC
  5
75
  8
0
 10
89.999999999999986
 20
47.80000000000053
 30
0.0
 40
1.0
 50
179.99423564404549
 51
360.0
  0
ARC
  5
76
  8
0
 10
90.0
 20
56.851332269854318
 30
0.0
 40
0.9999999949385625
 50
180.0000772747691
 51
0.0000000000008002
  0
POLYLINE
  5
77
  8
0
 66
     1
 10
0.0
 20
0.0
 30
0.0
  0
VERTEX
  5
653
  8
0
 10
92.244532286854195
 20
47.80000000000053
 30
0.0
 42
0.0968829132726677
  0
VERTEX
  5
654
  8
0
 10
92.319552800698247
 20
47.416463077088778
 30
0.0
 42
0.0978105251226464
  0
VERTEX
  5
655
  8
0
 10
92.532159652085596
 20
47.09289321881392
 30
0.0
 42
0.0991515993958034
  0
VERTEX
  5
656
  8
0
 10
92.879058170258389
 20
46.857187341703522
 30
0.0
 42
0.1185742898729348
  0
VERTEX
  5
657
  8
0
 10
93.226553538136926
 20
46.800000000003493
 30
0.0
 42
0.1001211748857188
  0
SEQEND
  5
658
  8
0
  0
POLYLINE
  5
7E
  8
0
 66
     1
 10
0.0
 20
0.0
 30
0.0
  0
VERTEX
  5
659
  8
0
 10
93.226553538136955
 20
46.800000000000452
 30
0.0
 42
0.098491403357143
  0
VERTEX
  5
65A
  8
0
 10
93.609236970502025
 20
46.876120467489137
 30
0.0
 42
0.09849140335715
  0
VERTEX
  5
65B
  8
0
 10
93.933660319323479
 20
47.09289321881392
 30
0.0
 42
0.0984914033571625
  0
VERTEX
  5
65C
  8
0
 10
94.150433070648234
 20
47.417316567635432
 30
0.0
 42
0.0984914033571359
  0
VERTEX
  5
65D
  8
0
 10
94.226553538136926
 20
47.80000000000053
 30
0.0
 42
0.0984914033571865
  0
SEQEND
  5
65E
  8
0
  0
POLYLINE
  5
85
  8
0
 66
     1
 10
0.0
 20
0.0
 30
0.0
  0
VERTEX
  5
65F
  8
0
 10
95.375919650335163
 20
47.80000000000053
 30
0.0
 42
0.0908538834176699
  0
VERTEX
  5
660
  8
0
 10
95.446767766673446
 20
47.413316993118663
 30
0.0
 42
0.0949929524798451
  0
VERTEX
  5
661
  8
0
 10
95.644032510555846
 20
47.09289321881392
 30
0.0
 42
0.1014994190925952
  0
VERTEX
  5
662
  8
0
 10
95.969776832549002
 20
46.856765084462772
 30
0.0
 42
0.1257499017973639
  0
VERTEX
  5
663
  8
0
 10
96.291314213947288
 20
46.799999999999422
 30
0.0
 42
0.1066336159217019
  0
SEQEND
  5
664
  8
0
  0
POLYLINE
  5
8C
  8
0
 66
     1
 10
0.0
 20
0.0
 30
0.0
  0
VERTEX
  5
665
  8
0
 10
96.291314213947317
 20
46.799999999999422
 30
0.0
 42
0.0984914033572873
  0
VERTEX
  5
666
  8
0
 10
96.673997646312387
 20
46.876120467488242
 30
0.0
 42
0.0984914033572162
  0
VERTEX
  5
667
  8
0
 10
96.998420995133884
 20
47.092893218813181
 30
0.0
 42
0.0984914033571274
  0
VERTEX
  5
668
  8
0
 10
97.215193746458581
 20
47.417316567634941
 30
0.0
 42
0.098491403357068
  0
VERTEX
  5
669
  8
0
 10
97.291314213947331
 20
47.80000000000053
 30
0.0
 42
0.0984914033570572
  0
SEQEND
  5
66A
  8
0
  0
POLYLINE
  5
93
  8
0
 66
     1
 10
0.0
 20
0.0
 30
0.0
  0
VERTEX
  5
66B
  8
0
 10
98.237735954543481
 20
47.80000000000053
 30
0.0
 42
0.0804359624902103
  0
VERTEX
  5
66C
  8
0
 10
98.301191010357314
 20
47.408107473321508
 30
0.0
 42
0.0890929912207549
  0
VERTEX
  5
66D
  8
0
 10
98.472890011394213
 20
47.092893218813913
 30
0.0
 42
0.1048843200885143
  0
VERTEX
  5
66E
  8
0
 10
98.763120280929385
 20
46.855637368220187
 30
0.0
 42
0.1401148188576861
  0
VERTEX
  5
66F
  8
0
 10
99.040602124690366
 20
46.800000000001212
 30
0.0
 42
0.1196412996191014
  0
SEQEND
  5
670
  8
0
  0
POLYLINE
  5
9A
  8
0
 66
     1
 10
0.0
 20
0.0
 30
0.0
  0
VERTEX
  5
671
  8
0
 10
99.040602124690395
 20
46.800000000000452
 30
0.0
 42
0.0984914033571658
  0
VERTEX
  5
672
  8
0
 10
99.423285557055465
 20
46.876120467489159
 30
0.0
 42
0.098491403357172
  0
VERTEX
  5
673
  8
0
 10
99.747708905876948
 20
47.092893218813913
 30
0.0
 42
0.0984914033571508
  0
VERTEX
  5
674
  8
0
 10
99.964481657201674
 20
47.417316567635403
 30
0.0
 42
0.0984914033571478
  0
VERTEX
  5
675
  8
0
 10
100.04060212469039
 20
47.80000000000053
 30
0.0
 42
0.0984914033571673
  0
SEQEND
  5
676
  8
0
  0
POLYLINE
  5
A1
  8
0
 66
     1
 10
0.0
 20
0.0
 30
0.0
  0
VERTEX
  5
677
  8
0
 10
100.68647778001851
 20
47.80000000000053
 30
0.0
 42
0.0658531053090809
  0
VERTEX
  5
678
  8
0
 10
100.7392021967661
 20
47.401417654219053
 30
0.0
 42
0.0785101941950526
  0
VERTEX
  5
679
  8
0
 10
100.8768814271657
 20
47.092893218813913
 30
0.0
 42
0.1071724308083107
  0
VERTEX
  5
67A
  8
0
 10
101.11912528524481
 20
46.852849673204538
 30
0.0
 42
0.1659312787622624
  0
VERTEX
  5
67B
  8
0
 10
101.33655649443401
 20
46.800000000003081
 30
0.0
 42
0.1427851824038871
  0
SEQEND
  5
67C
  8
0
  0
POLYLINE
  5
A8
  8
0
 66
     1
 10
0.0
 20
0.0
 30
0.0
  0
VERTEX
  5
67D
  8
0
 10
101.33655649443391
 20
46.799999999998619
 30
0.0
 42
0.0984914033573015
  0
VERTEX
  5
67E
  8
0
 10
101.71923992679891
 20
46.876120467487397
 30
0.0
 42
0.0984914033572282
  0
VERTEX
  5
67F
  8
0
 10
102.0436632756205
 20
47.092893218812613
 30
0.0
 42
0.0984914033571312
  0
VERTEX
  5
680
  8
0
 10
102.2604360269452
 20
47.417316567634607
 30
0.0
 42
0.0984914033570324
  0
VERTEX
  5
681
  8
0
 10
102.33655649443401
 20
47.80000000000053
 30
0.0
 42
0.0984914033569638
  0
SEQEND
  5
682
  8
0
  0
POLYLINE
  5
AF
  8
0
 66
     1
 10
0.0
 20
0.0
 30
0.0
  0
VERTEX
  5
683
  8
0
 10
102.59935498652111
 20
47.80000000000053
 30
0.0
 42
0.0475750324120536
  0
VERTEX
  5
684
  8
0
 10
102.6380414941799
 20
47.394336111920722
 30
0.0
 42
0.061288808575106
  0
VERTEX
  5
685
  8
0
 10
102.7354605900363
 20
47.092893218813913
 30
0.0
 42
0.1022957030418551
  0
VERTEX
  5
686
  8
0
 10
102.9187412211954
 20
46.84615586017037
 30
0.0
 42
0.2133843739655356
  0
VERTEX
  5
687
  8
0
 10
103.0640485839576
 20
46.799999999998249
 30
0.0
 42
0.1840432794395357
  0
SEQEND
  5
688
  8
0
  0
POLYLINE
  5
B6
  8
0
 66
     1
 10
0.0
 20
0.0
 30
0.0
  0
VERTEX
  5
689
  8
0
 10
103.0640485839576
 20
46.799999999998619
 30
0.0
 42
0.0984914033573521
  0
VERTEX
  5
68A
  8
0
 10
103.4467320163226
 20
46.876120467487453
 30
0.0
 42
0.0984914033572629
  0
VERTEX
  5
68B
  8
0
 10
103.7711553651441
 20
47.092893218812627
 30
0.0
 42
0.0984914033570555
  0
VERTEX
  5
68C
  8
0
 10
103.98792811646879
 20
47.417316567634487
 30
0.0
 42
0.0984914033570254
  0
VERTEX
  5
68D
  8
0
 10
104.0640485839576
 20
47.80000000000053
 30
0.0
 42
0.0984914033569783
  0
SEQEND
  5
68E
  8
0
  0
POLYLINE
  5
BD
  8
0
 66
     1
 10
0.0
 20
0.0
 30
0.0
  0
VERTEX
  5
68F
  8
0
 10
103.91695010551079
 20
47.277928171098331
 30
0.0
 42
0.0227956415992436
  0
VERTEX
  5
690
  8
0
 10
103.95543057998751
 20
47.092893218813913
 30
0.0
 42
0.0758865563899698
  0
VERTEX
  5
691
  8
0
 10
104.06678185771371
 20
46.831062038471089
 30
0.0
 42
0.3081470280333212
  0
VERTEX
  5
692
  8
0
 10
104.13645472647551
 20
46.800000000027268
 30
0.0
 42
0.2599291287141222
  0
SEQEND
  5
693
  8
0
  0
POLYLINE
  5
C3
  8
0
 66
     1
 10
0.0
 20
0.0
 30
0.0
  0
VERTEX
  5
694
  8
0
 10
104.13645472647551
 20
46.800000000000452
 30
0.0
 42
0.0984914033571455
  0
VERTEX
  5
695
  8
0
 10
104.51913815884051
 20
46.876120467489109
 30
0.0
 42
0.09849140335717
  0
VERTEX
  5
696
  8
0
 10
104.8435615076621
 20
47.092893218813913
 30
0.0
 42
0.0984914033571886
  0
VERTEX
  5
697
  8
0
 10
105.0603342589868
 20
47.41731656763546
 30
0.0
 42
0.0984914033571456
  0
VERTEX
  5
698
  8
0
 10
105.13645472647551
 20
47.80000000000053
 30
0.0
 42
0.0984914033571153
  0
SEQEND
  5
699
  8
0
  0
LINE
  5
CA
  8
0
 10
104.4655172413793
 20
46.85569186105284
 30
0.0
 11
104.4655172413793
 21
46.800594707159753
 31
0.0
  0
POLYLINE
  5
CB
  8
0
 66
     1
 10
0.0
 20
0.0
 30
0.0
  0
VERTEX
  5
69A
  8
0
 10
94.226553538136926
 20
56.08725759394305
 30
0.0
 42
0.0045160074274535
  0
VERTEX
  5
69B
  8
0
 10
94.223695499290329
 20
56.40368539048179
 30
0.0
 42
0.0063809221281483
  0
VERTEX
  5
69C
  8
0
 10
94.216792865760794
 20
56.62753997861283
 30
0.0
 42
0.0153316496286277
  0
VERTEX
  5
69D
  8
0
 10
94.200642574446817
 20
56.844657894035848
 30
0.0
  0
VERTEX
  5
69E
  8
0
 10
94.193228518132457
 20
56.851332269854318
 30
0.0
  0
SEQEND
  5
69F
  8
0
  0
POLYLINE
  5
D2
  8
0
 66
     1
 10
0.0
 20
0.0
 30
0.0
  0
VERTEX
  5
6A0
  8
0
 10
92.244532286854195
 20
56.851332269854318
 30
0.0
 42
0.1162183969376467
  0
VERTEX
  5
6A1
  8
0
 10
92.332407740315745
 20
56.478376924697059
 30
0.0
 42
0.1041536957394901
  0
VERTEX
  5
6A2
  8
0
 10
92.597334524600015
 20
56.144225488666692
 30
0.0
 42
0.0906651625891192
  0
VERTEX
  5
6A3
  8
0
 10
93.015651795730832
 20
55.909111689081513
 30
0.0
 42
0.0996684836664173
  0
VERTEX
  5
6A4
  8
0
 10
93.449074471801566
 20
55.85133226985279
 30
0.0
 42
0.0829920232428936
  0
VERTEX
  5
6A5
  8
0
 10
93.919621362900614
 20
55.92997722788256
 30
0.0
 42
0.0712857491024512
  0
VERTEX
  5
6A6
  8
0
 10
94.226553538136926
 20
56.08725759394305
 30
0.0
 42
0.1041536957395225
  0
SEQEND
  5
6A7
  8
0
  0
POLYLINE
  5
DB
  8
0
 66
     1
 10
0.0
 20
0.0
 30
0.0
  0
VERTEX
  5
6A8
  8
0
 10
97.291314213943423
 20
55.942013065640779
 30
0.0
 42
0.0130314394763074
  0
VERTEX
  5
6A9
  8
0
 10
97.281511930049405
 20
56.318050544214209
 30
0.0
 42
0.0182938244055227
  0
VERTEX
  5
6AA
  8
0
 10
97.257769606739714
 20
56.584998841203351
 30
0.0
 42
0.0424995726862985
  0
VERTEX
  5
6AB
  8
0
 10
97.205473404416352
 20
56.830070771476002
 30
0.0
  0
VERTEX
  5
6AC
  8
0
 10
97.176785761084034
 20
56.851332269854318
 30
0.0
  0
SEQEND
  5
6AD
  8
0
  0
POLYLINE
  5
E2
  8
0
 66
     1
 10
0.0
 20
0.0
 30
0.0
  0
VERTEX
  5
6AE
  8
0
 10
95.375919650335163
 20
56.851332269854318
 30
0.0
 42
0.1281045543104292
  0
VERTEX
  5
6AF
  8
0
 10
95.471303970095235
 20
56.485150952258103
 30
0.0
 42
0.1062342861250801
  0
VERTEX
  5
6B0
  8
0
 10
95.771114115431033
 20
56.144225488666692
 30
0.0
 42
0.0851922779721441
  0
VERTEX
  5
6B1
  8
0
 10
96.236484701357057
 20
55.909101873482157
 30
0.0
 42
0.0903419522798523
  0
VERTEX
  5
6B2
  8
0
 10
96.725197952840233
 20
55.85133226985279
 30
0.0
 42
0.0746020129197959
  0
VERTEX
  5
6B3
  8
0
 10
97.257707527392924
 20
55.931229507078577
 30
0.0
 42
0.0063203424125327
  0
VERTEX
  5
6B4
  8
0
 10
97.291314213943423
 20
55.942013065640779
 30
0.0
 42
0.1062342861250785
  0
SEQEND
  5
6B5
  8
0
  0
LINE
  5
EB
  8
0
 10
100.0406021246903
 20
55.886598184311552
 30
0.0
 11
99.753589557382014
 21
55.886598184311552
 31
0.0
  0
POLYLINE
  5
EC
  8
0
 66
     1
 10
0.0
 20
0.0
 30
0.0
  0
VERTEX
  5
6B6
  8
0
 10
100.04060212468789
 20
55.886598184311552
 30
0.0
 42
0.0256904949162937
  0
VERTEX
  5
6B7
  8
0
 10
100.0201850983957
 20
56.283701297546962
 30
0.0
 42
0.0353182427001171
  0
VERTEX
  5
6B8
  8
0
 10
99.970268760317822
 20
56.568768198240669
 30
0.0
 42
0.0744233457726154
  0
VERTEX
  5
6B9
  8
0
 10
99.869438252649942
 20
56.812313490202783
 30
0.0
  0
VERTEX
  5
6BA
  8
0
 10
99.800468998168114
 20
56.851332269854318
 30
0.0
  0
SEQEND
  5
6BB
  8
0
  0
POLYLINE
  5
F3
  8
0
 66
     1
 10
0.0
 20
0.0
 30
0.0
  0
VERTEX
  5
6BC
  8
0
 10
98.237735954543496
 20
56.851332269854318
 30
0.0
 42
0.1342069546584747
  0
VERTEX
  5
6BD
  8
0
 10
98.336861458570723
 20
56.488683014466929
 30
0.0
 42
0.1068290960032723
  0
VERTEX
  5
6BE
  8
0
 10
98.655505946312331
 20
56.144225488666692
 30
0.0
 42
0.0823929588197975
  0
VERTEX
  5
6BF
  8
0
 10
99.146102351565048
 20
55.909028418752612
 30
0.0
 42
0.086060870950883
  0
VERTEX
  5
6C0
  8
0
 10
99.664091926393155
 20
55.85133226985279
 30
0.0
 42
0.0467303456198709
  0
VERTEX
  5
6C1
  8
0
 10
100.04060212468789
 20
55.886598184311552
 30
0.0
 42
0.0823929588197923
  0
SEQEND
  5
6C2
  8
0
  0
POLYLINE
  5
FB
  8
0
 66
     1
 10
0.0
 20
0.0
 30
0.0
  0
VERTEX
  5
6C3
  8
0
 10
102.33655649443401
 20
55.863012779980899
 30
0.0
 42
0.0419406407655138
  0
VERTEX
  5
6C4
  8
0
 10
102.3027156125829
 20
56.265740951704807
 30
0.0
 42
0.0551170599435799
  0
VERTEX
  5
6C5
  8
0
 10
102.2182742924614
 20
56.561860193249238
 30
0.0
 42
0.0979824455483398
  0
VERTEX
  5
6C6
  8
0
 10
102.0633098843838
 20
56.796717048184952
 30
0.0
 42
0.2006817272649302
  0
VERTEX
  5
6C7
  8
0
 10
101.93271579627179
 20
56.851332269854318
 30
0.0
 42
0.200681727264902
  0
SEQEND
  5
6C8
  8
0
  0
POLYLINE
  5
102
  8
0
 66
     1
 10
0.0
 20
0.0
 30
0.0
  0
VERTEX
  5
6C9
  8
0
 10
100.68647778001851
 20
56.851332269854318
 30
0.0
 42
0.1346405605245187
  0
VERTEX
  5
6CA
  8
0
 10
100.7858662139129
 20
56.488935114123379
 30
0.0
 42
0.1068599333292359
  0
VERTEX
  5
6CB
  8
0
 10
101.10587456660819
 20
56.144225488666692
 30
0.0
 42
0.0821950123913299
  0
VERTEX
  5
6CC
  8
0
 10
101.59829286324459
 20
55.909021821259792
 30
0.0
 42
0.0857681347870495
  0
VERTEX
  5
6CD
  8
0
 10
102.11838797680871
 20
55.85133226985279
 30
0.0
 42
0.0267503119269882
  0
VERTEX
  5
6CE
  8
0
 10
102.3365564944358
 20
55.863012779980927
 30
0.0
 42
0.0821950123913346
  0
SEQEND
  5
6CF
  8
0
  0
POLYLINE
  5
10A
  8
0
 66
     1
 10
0.0
 20
0.0
 30
0.0
  0
VERTEX
  5
6D0
  8
0
 10
104.0640485839576
 20
55.853972197374688
 30
0.0
 42
0.0608780259299906
  0
VERTEX
  5
6D1
  8
0
 10
104.0152123976297
 20
56.25358430808329
 30
0.0
 42
0.0742583653177564
  0
VERTEX
  5
6D2
  8
0
 10
103.88906181888289
 20
56.559212267909757
 30
0.0
 42
0.1069321304211782
  0
VERTEX
  5
6D3
  8
0
 10
103.67688891477761
 20
56.785709448775961
 30
0.0
 42
0.1524103727338133
  0
VERTEX
  5
6D4
  8
0
 10
103.46660639740379
 20
56.851332269854318
 30
0.0
 42
0.1524103727338402
  0
SEQEND
  5
6D5
  8
0
  0
POLYLINE
  5
111
  8
0
 66
     1
 10
0.0
 20
0.0
 30
0.0
  0
VERTEX
  5
6D6
  8
0
 10
102.59935498652111
 20
56.851332269854318
 30
0.0
 42
0.1294150043900399
  0
VERTEX
  5
6D7
  8
0
 10
102.6955491532952
 20
56.485906777250719
 30
0.0
 42
0.1063878268247828
  0
VERTEX
  5
6D8
  8
0
 10
102.9993482617942
 20
56.144225488666692
 30
0.0
 42
0.0845893821593998
  0
VERTEX
  5
6D9
  8
0
 10
103.4700718529661
 20
55.909089371158309
 30
0.0
 42
0.089396299433977
  0
VERTEX
  5
6DA
  8
0
 10
103.96501745181671
 20
55.85133226985279
 30
0.0
 42
0.0133264087352263
  0
VERTEX
  5
6DB
  8
0
 10
104.0640485839789
 20
55.853972197374688
 30
0.0
 42
0.0845893821593723
  0
SEQEND
  5
6DC
  8
0
  0
POLYLINE
  5
119
  8
0
 66
     1
 10
0.0
 20
0.0
 30
0.0
  0
VERTEX
  5
6DD
  8
0
 10
105.13645472647551
 20
55.851540314224209
 30
0.0
 42
0.0812358697487148
  0
VERTEX
  5
6DE
  8
0
 10
105.07243716638639
 20
56.242962793875179
 30
0.0
 42
0.0895938651851353
  0
VERTEX
  5
6DF
  8
0
 10
104.8988510763712
 20
56.558499985826032
 30
0.0
 42
0.1046638384568605
  0
VERTEX
  5
6E0
  8
0
 10
104.6267089265735
 20
56.77882993031092
 30
0.0
 42
0.1185525382639227
  0
VERTEX
  5
6E1
  8
0
 10
104.3252251218199
 20
56.851332269854318
 30
0.0
 42
0.1185525382639388
  0
SEQEND
  5
6E2
  8
0
  0
POLYLINE
  5
120
  8
0
 66
     1
 10
0.0
 20
0.0
 30
0.0
  0
VERTEX
  5
6E3
  8
0
 10
103.8804479233952
 20
56.851332269854318
 30
0.0
 42
0.1184271030403601
  0
VERTEX
  5
6E4
  8
0
 10
103.96974110725149
 20
56.479623232854543
 30
0.0
 42
0.1046377281661617
  0
VERTEX
  5
6E5
  8
0
 10
104.24098035429429
 20
56.144225488666692
 30
0.0
 42
0.0896515297676739
  0
VERTEX
  5
6E6
  8
0
 10
104.6678447892524
 20
55.909126048313837
 30
0.0
 42
0.0978247762437878
  0
VERTEX
  5
6E7
  8
0
 10
105.11138263864621
 20
55.85133226985279
 30
0.0
 42
0.0041488525033875
  0
VERTEX
  5
6E8
  8
0
 10
105.1364547265577
 20
55.851540314224152
 30
0.0
 42
0.0896515297677062
  0
SEQEND
  5
6E9
  8
0
  0
LINE
  5
128
  8
0
 10
105.0513479472291
 20
56.2999843226237
 30
0.0
 11
105.5
 21
55.851332269852819
 31
0.0
  0
POLYLINE
  5
129
  8
0
 66
     1
 10
0.0
 20
0.0
 30
0.0
  0
VERTEX
  5
6EA
  8
0
 10
104.4655172413793
 20
56.851332269854318
 30
0.0
 42
0.0038857773401865
  0
VERTEX
  5
6EB
  8
0
 10
104.46563410074501
 20
56.836295690173657
 30
0.0
 42
0.0997077034706563
  0
SEQEND
  5
6EC
  8
0
  0
POLYLINE
  5
12D
  8
0
 66
     1
 10
0.0
 20
0.0
 30
0.0
  0
VERTEX
  5
6ED
  8
0
 10
105.1351775828992
 20
55.907546411616771
 30
0.0
 42
0.1124892053403678
  0
VERTEX
  5
6EE
  8
0
 10
105.5
 20
55.851332269852819
 30
0.0
 42
0.095502953822842
  0
SEQEND
  5
6EF
  8
0
  0
LINE
  5
131
  8
0
 10
77.019758173765666
 20
45.000000000000007
 30
0.0
 11
76.5
 21
45.000000000000007
 31
0.0
  0
LINE
  5
132
  8
0
 10
81.249999999999915
 20
28.300000000000249
 30
0.0
 11
98.750000000000085
 21
28.300000000000249
 31
0.0
  0
LINE
  5
133
  8
0
 10
99.526174622526966
 20
29.04954312026457
 30
0.0
 11
80.473825377473005
 21
29.04954312026458
 31
0.0
  0
LINE
  5
134
  8
2
 10
83.999999999999957
 20
49.500000000000007
 30
0.0
 11
96.000000000000028
 21
49.500000000000007
 31
0.0
  0
LINE
  5
135
  8
2
 10
85.811999999999898
 20
29.500000000000071
 30
0.0
 11
85.811999999999898
 21
47.000000000000007
 31
0.0
  0
LINE
  5
136
  8
2
 10
85.0
 20
28.68800000000012
 30
0.0
 11
85.0
 21
45.000000000000007
 31
0.0
  0
LINE
  5
137
  8
2
 10
95.0
 20
45.000000000000007
 30
0.0
 11
85.0
 21
45.000000000000007
 31
0.0
  0
LINE
  5
138
  8
2
 10
94.188000000000116
 20
47.000000000000007
 30
0.0
 11
85.811999999999898
 21
47.000000000000007
 31
0.0
  0
LINE
  5
139
  8
2
 10
85.000000000000057
 20
45.000000000000007
 30
0.0
 11
85.811999999999898
 21
46.406425255745667
 31
0.0
  0
LINE
  5
13A
  8
2
 10
84.311999999999841
 20
27.999999999999961
 30
0.0
 11
85.811999999999898
 21
29.500000000000011
 31
0.0
  0
LINE
  5
13B
  8
2
 10
85.811999999999898
 20
29.500000000000011
 30
0.0
 11
94.188000000000088
 21
29.500000000000011
 31
0.0
  0
LINE
  5
13C
  8
2
 10
90.0
 20
49.500000000000007
 30
0.0
 11
85.811999999999898
 21
47.000000000000007
 31
0.0
  0
LINE
  5
13D
  8
2
 10
83.999999999999957
 20
49.500000000000007
 30
0.0
 11
83.999999999999957
 21
28.300000000000249
 31
0.0
  0
POLYLINE
  5
13E
  8
0
 66
     1
 10
0.0
 20
0.0
 30
0.0
  0
VERTEX
  5
6F0
  8
0
 10
74.864822417100811
 20
55.907546411616771
 30
0.0
 42
-0.1124892053403678
  0
VERTEX
  5
6F1
  8
0
 10
74.5
 20
55.851332269852819
 30
0.0
 42
-0.095502953822842
  0
SEQEND
  5
6F2
  8
0
  0
POLYLINE
  5
142
  8
0
 66
     1
 10
0.0
 20
0.0
 30
0.0
  0
VERTEX
  5
6F3
  8
0
 10
75.534482758620697
 20
56.851332269854318
 30
0.0
 42
-0.0038857773401865
  0
VERTEX
  5
6F4
  8
0
 10
75.534365899254993
 20
56.836295690173657
 30
0.0
 42
-0.0997077034706563
  0
SEQEND
  5
6F5
  8
0
  0
LINE
  5
146
  8
0
 10
74.948652052770882
 20
56.2999843226237
 30
0.0
 11
74.5
 21
55.851332269852819
 31
0.0
  0
POLYLINE
  5
147
  8
0
 66
     1
 10
0.0
 20
0.0
 30
0.0
  0
VERTEX
  5
6F6
  8
0
 10
76.119552076604776
 20
56.851332269854318
 30
0.0
 42
-0.1184271030403601
  0
VERTEX
  5
6F7
  8
0
 10
76.030258892748435
 20
56.479623232854543
 30
0.0
 42
-0.1046377281661617
  0
VERTEX
  5
6F8
  8
0
 10
75.759019645705678
 20
56.144225488666692
 30
0.0
 42
-0.0896515297676739
  0
VERTEX
  5
6F9
  8
0
 10
75.332155210747544
 20
55.909126048313837
 30
0.0
 42
-0.0978247762437878
  0
VERTEX
  5
6FA
  8
0
 10
74.888617361353724
 20
55.85133226985279
 30
0.0
 42
-0.0041488525033875
  0
VERTEX
  5
6FB
  8
0
 10
74.863545273442298
 20
55.851540314224152
 30
0.0
 42
-0.0896515297677062
  0
SEQEND
  5
6FC
  8
0
  0
POLYLINE
  5
14F
  8
0
 66
     1
 10
0.0
 20
0.0
 30
0.0
  0
VERTEX
  5
6FD
  8
0
 10
74.863545273524466
 20
55.851540314224209
 30
0.0
 42
-0.0812358697487148
  0
VERTEX
  5
6FE
  8
0
 10
74.927562833613621
 20
56.242962793875179
 30
0.0
 42
-0.0895938651851353
  0
VERTEX
  5
6FF
  8
0
 10
75.101148923628813
 20
56.558499985826032
 30
0.0
 42
-0.1046638384568605
  0
VERTEX
  5
700
  8
0
 10
75.373291073426458
 20
56.77882993031092
 30
0.0
 42
-0.1185525382639227
  0
VERTEX
  5
701
  8
0
 10
75.674774878180074
 20
56.851332269854318
 30
0.0
 42
-0.1185525382639388
  0
SEQEND
  5
702
  8
0
  0
POLYLINE
  5
156
  8
0
 66
     1
 10
0.0
 20
0.0
 30
0.0
  0
VERTEX
  5
703
  8
0
 10
77.400645013478908
 20
56.851332269854318
 30
0.0
 42
-0.1294150043900399
  0
VERTEX
  5
704
  8
0
 10
77.304450846704782
 20
56.485906777250719
 30
0.0
 42
-0.1063878268247828
  0
VERTEX
  5
705
  8
0
 10
77.000651738205761
 20
56.144225488666692
 30
0.0
 42
-0.0845893821593998
  0
VERTEX
  5
706
  8
0
 10
76.529928147033871
 20
55.909089371158309
 30
0.0
 42
-0.089396299433977
  0
VERTEX
  5
707
  8
0
 10
76.034982548183251
 20
55.85133226985279
 30
0.0
 42
-0.0133264087352263
  0
VERTEX
  5
708
  8
0
 10
75.935951416021055
 20
55.853972197374688
 30
0.0
 42
-0.0845893821593723
  0
SEQEND
  5
709
  8
0
  0
POLYLINE
  5
15E
  8
0
 66
     1
 10
0.0
 20
0.0
 30
0.0
  0
VERTEX
  5
70A
  8
0
 10
75.935951416042386
 20
55.853972197374688
 30
0.0
 42
-0.0608780259299906
  0
VERTEX
  5
70B
  8
0
 10
75.984787602370275
 20
56.25358430808329
 30
0.0
 42
-0.0742583653177564
  0
VERTEX
  5
70C
  8
0
 10
76.110938181117064
 20
56.559212267909757
 30
0.0
 42
-0.1069321304211782
  0
VERTEX
  5
70D
  8
0
 10
76.323111085222394
 20
56.785709448775961
 30
0.0
 42
-0.1524103727338133
  0
VERTEX
  5
70E
  8
0
 10
76.533393602596135
 20
56.851332269854318
 30
0.0
 42
-0.1524103727338402
  0
SEQEND
  5
70F
  8
0
  0
POLYLINE
  5
165
  8
0
 66
     1
 10
0.0
 20
0.0
 30
0.0
  0
VERTEX
  5
710
  8
0
 10
79.313522219981479
 20
56.851332269854318
 30
0.0
 42
-0.1346405605245187
  0
VERTEX
  5
711
  8
0
 10
79.214133786087046
 20
56.488935114123379
 30
0.0
 42
-0.1068599333292359
  0
VERTEX
  5
712
  8
0
 10
78.894125433391793
 20
56.144225488666692
 30
0.0
 42
-0.0821950123913299
  0
VERTEX
  5
713
  8
0
 10
78.401707136755363
 20
55.909021821259792
 30
0.0
 42
-0.0857681347870495
  0
VERTEX
  5
714
  8
0
 10
77.881612023191281
 20
55.85133226985279
 30
0.0
 42
-0.0267503119269882
  0
VERTEX
  5
715
  8
0
 10
77.663443505564203
 20
55.863012779980927
 30
0.0
 42
-0.0821950123913346
  0
SEQEND
  5
716
  8
0
  0
POLYLINE
  5
16D
  8
0
 66
     1
 10
0.0
 20
0.0
 30
0.0
  0
VERTEX
  5
717
  8
0
 10
77.663443505566022
 20
55.863012779980899
 30
0.0
 42
-0.0419406407655138
  0
VERTEX
  5
718
  8
0
 10
77.697284387417085
 20
56.265740951704807
 30
0.0
 42
-0.0551170599435799
  0
VERTEX
  5
719
  8
0
 10
77.781725707538584
 20
56.561860193249238
 30
0.0
 42
-0.0979824455483398
  0
VERTEX
  5
71A
  8
0
 10
77.936690115616173
 20
56.796717048184952
 30
0.0
 42
-0.2006817272649302
  0
VERTEX
  5
71B
  8
0
 10
78.067284203728121
 20
56.851332269854318
 30
0.0
 42
-0.200681727264902
  0
SEQEND
  5
71C
  8
0
  0
POLYLINE
  5
174
  8
0
 66
     1
 10
0.0
 20
0.0
 30
0.0
  0
VERTEX
  5
71D
  8
0
 10
81.762264045456504
 20
56.851332269854318
 30
0.0
 42
-0.1342069546584747
  0
VERTEX
  5
71E
  8
0
 10
81.663138541429277
 20
56.488683014466929
 30
0.0
 42
-0.1068290960032723
  0
VERTEX
  5
71F
  8
0
 10
81.344494053687669
 20
56.144225488666692
 30
0.0
 42
-0.0823929588197975
  0
VERTEX
  5
720
  8
0
 10
80.853897648434966
 20
55.909028418752612
 30
0.0
 42
-0.086060870950883
  0
VERTEX
  5
721
  8
0
 10
80.335908073606845
 20
55.85133226985279
 30
0.0
 42
-0.0467303456198709
  0
VERTEX
  5
722
  8
0
 10
79.95939787531205
 20
55.886598184311552
 30
0.0
 42
-0.0823929588197923
  0
SEQEND
  5
723
  8
0
  0
POLYLINE
  5
17C
  8
0
 66
     1
 10
0.0
 20
0.0
 30
0.0
  0
VERTEX
  5
724
  8
0
 10
79.95939787531205
 20
55.886598184311552
 30
0.0
 42
-0.0256904949162937
  0
VERTEX
  5
725
  8
0
 10
79.979814901604271
 20
56.283701297546962
 30
0.0
 42
-0.0353182427001171
  0
VERTEX
  5
726
  8
0
 10
80.029731239682164
 20
56.568768198240669
 30
0.0
 42
-0.0744233457726154
  0
VERTEX
  5
727
  8
0
 10
80.130561747350072
 20
56.812313490202783
 30
0.0
  0
VERTEX
  5
728
  8
0
 10
80.1995310018319
 20
56.851332269854318
 30
0.0
  0
SEQEND
  5
729
  8
0
  0
LINE
  5
183
  8
0
 10
79.959397875309634
 20
55.886598184311552
 30
0.0
 11
80.246410442617986
 21
55.886598184311552
 31
0.0
  0
POLYLINE
  5
184
  8
0
 66
     1
 10
0.0
 20
0.0
 30
0.0
  0
VERTEX
  5
72A
  8
0
 10
84.624080349664837
 20
56.851332269854318
 30
0.0
 42
-0.1281045543104292
  0
VERTEX
  5
72B
  8
0
 10
84.528696029904751
 20
56.485150952258103
 30
0.0
 42
-0.1062342861250801
  0
VERTEX
  5
72C
  8
0
 10
84.228885884568967
 20
56.144225488666692
 30
0.0
 42
-0.0851922779721441
  0
VERTEX
  5
72D
  8
0
 10
83.763515298642943
 20
55.909101873482157
 30
0.0
 42
-0.0903419522798523
  0
VERTEX
  5
72E
  8
0
 10
83.274802047159767
 20
55.85133226985279
 30
0.0
 42
-0.0746020129197959
  0
VERTEX
  5
72F
  8
0
 10
82.742292472607062
 20
55.931229507078577
 30
0.0
 42
-0.0063203424125327
  0
VERTEX
  5
730
  8
0
 10
82.708685786056563
 20
55.942013065640779
 30
0.0
 42
-0.1062342861250785
  0
SEQEND
  5
731
  8
0
  0
POLYLINE
  5
18D
  8
0
 66
     1
 10
0.0
 20
0.0
 30
0.0
  0
VERTEX
  5
732
  8
0
 10
82.708685786056563
 20
55.942013065640779
 30
0.0
 42
-0.0130314394763074
  0
VERTEX
  5
733
  8
0
 10
82.71848806995061
 20
56.318050544214209
 30
0.0
 42
-0.0182938244055227
  0
VERTEX
  5
734
  8
0
 10
82.742230393260286
 20
56.584998841203351
 30
0.0
 42
-0.0424995726862985
  0
VERTEX
  5
735
  8
0
 10
82.794526595583633
 20
56.830070771476002
 30
0.0
  0
VERTEX
  5
736
  8
0
 10
82.823214238915966
 20
56.851332269854318
 30
0.0
  0
SEQEND
  5
737
  8
0
  0
POLYLINE
  5
194
  8
0
 66
     1
 10
0.0
 20
0.0
 30
0.0
  0
VERTEX
  5
738
  8
0
 10
87.755467713145805
 20
56.851332269854318
 30
0.0
 42
-0.1162183969376467
  0
VERTEX
  5
739
  8
0
 10
87.667592259684255
 20
56.478376924697059
 30
0.0
 42
-0.1041536957394901
  0
VERTEX
  5
73A
  8
0
 10
87.402665475399971
 20
56.144225488666692
 30
0.0
 42
-0.0906651625891192
  0
VERTEX
  5
73B
  8
0
 10
86.984348204269153
 20
55.909111689081513
 30
0.0
 42
-0.0996684836664173
  0
VERTEX
  5
73C
  8
0
 10
86.550925528198434
 20
55.85133226985279
 30
0.0
 42
-0.0829920232428936
  0
VERTEX
  5
73D
  8
0
 10
86.080378637099386
 20
55.92997722788256
 30
0.0
 42
-0.0712857491024512
  0
VERTEX
  5
73E
  8
0
 10
85.773446461863074
 20
56.08725759394305
 30
0.0
 42
-0.1041536957395225
  0
SEQEND
  5
73F
  8
0
  0
POLYLINE
  5
19D
  8
0
 66
     1
 10
0.0
 20
0.0
 30
0.0
  0
VERTEX
  5
740
  8
0
 10
85.773446461863074
 20
56.08725759394305
 30
0.0
 42
-0.0045160074274535
  0
VERTEX
  5
741
  8
0
 10
85.776304500709685
 20
56.40368539048179
 30
0.0
 42
-0.0063809221281483
  0
VERTEX
  5
742
  8
0
 10
85.783207134239206
 20
56.62753997861283
 30
0.0
 42
-0.0153316496286277
  0
VERTEX
  5
743
  8
0
 10
85.799357425553197
 20
56.844657894035848
 30
0.0
  0
VERTEX
  5
744
  8
0
 10
85.806771481867543
 20
56.851332269854318
 30
0.0
  0
SEQEND
  5
745
  8
0
  0
LINE
  5
1A4
  8
0
 10
75.534482758620697
 20
46.85569186105284
 30
0.0
 11
75.534482758620697
 21
46.800594707159753
 31
0.0
  0
POLYLINE
  5
1A5
  8
0
 66
     1
 10
0.0
 20
0.0
 30
0.0
  0
VERTEX
  5
746
  8
0
 10
75.863545273524466
 20
46.800000000000452
 30
0.0
 42
-0.0984914033571455
  0
VERTEX
  5
747
  8
0
 10
75.480861841159424
 20
46.876120467489109
 30
0.0
 42
-0.09849140335717
  0
VERTEX
  5
748
  8
0
 10
75.156438492337912
 20
47.092893218813913
 30
0.0
 42
-0.0984914033571886
  0
VERTEX
  5
749
  8
0
 10
74.939665741013158
 20
47.41731656763546
 30
0.0
 42
-0.0984914033571456
  0
VERTEX
  5
74A
  8
0
 10
74.863545273524466
 20
47.80000000000053
 30
0.0
 42
-0.0984914033571153
  0
SEQEND
  5
74B
  8
0
  0
POLYLINE
  5
1AC
  8
0
 66
     1
 10
0.0
 20
0.0
 30
0.0
  0
VERTEX
  5
74C
  8
0
 10
76.083049894489193
 20
47.277928171098331
 30
0.0
 42
-0.0227956415992436
  0
VERTEX
  5
74D
  8
0
 10
76.044569420012465
 20
47.092893218813913
 30
0.0
 42
-0.0758865563899698
  0
VERTEX
  5
74E
  8
0
 10
75.933218142286293
 20
46.831062038471089
 30
0.0
 42
-0.3081470280333212
  0
VERTEX
  5
74F
  8
0
 10
75.863545273524466
 20
46.800000000027268
 30
0.0
 42
-0.2599291287141222
  0
SEQEND
  5
750
  8
0
  0
POLYLINE
  5
1B2
  8
0
 66
     1
 10
0.0
 20
0.0
 30
0.0
  0
VERTEX
  5
751
  8
0
 10
76.935951416042371
 20
46.799999999998619
 30
0.0
 42
-0.0984914033573521
  0
VERTEX
  5
752
  8
0
 10
76.553267983677415
 20
46.876120467487453
 30
0.0
 42
-0.0984914033572629
  0
VERTEX
  5
753
  8
0
 10
76.228844634855847
 20
47.092893218812627
 30
0.0
 42
-0.0984914033570555
  0
VERTEX
  5
754
  8
0
 10
76.012071883531178
 20
47.417316567634487
 30
0.0
 42
-0.0984914033570254
  0
VERTEX
  5
755
  8
0
 10
75.935951416042386
 20
47.80000000000053
 30
0.0
 42
-0.0984914033569783
  0
SEQEND
  5
756
  8
0
  0
POLYLINE
  5
1B9
  8
0
 66
     1
 10
0.0
 20
0.0
 30
0.0
  0
VERTEX
  5
757
  8
0
 10
77.400645013478908
 20
47.80000000000053
 30
0.0
 42
-0.0475750324120536
  0
VERTEX
  5
758
  8
0
 10
77.361958505820098
 20
47.394336111920722
 30
0.0
 42
-0.061288808575106
  0
VERTEX
  5
759
  8
0
 10
77.264539409963703
 20
47.092893218813913
 30
0.0
 42
-0.1022957030418551
  0
VERTEX
  5
75A
  8
0
 10
77.081258778804596
 20
46.84615586017037
 30
0.0
 42
-0.2133843739655356
  0
VERTEX
  5
75B
  8
0
 10
76.935951416042371
 20
46.799999999998249
 30
0.0
 42
-0.1840432794395357
  0
SEQEND
  5
75C
  8
0
  0
POLYLINE
  5
1C0
  8
0
 66
     1
 10
0.0
 20
0.0
 30
0.0
  0
VERTEX
  5
75D
  8
0
 10
78.66344350556605
 20
46.799999999998619
 30
0.0
 42
-0.0984914033573015
  0
VERTEX
  5
75E
  8
0
 10
78.280760073201066
 20
46.876120467487397
 30
0.0
 42
-0.0984914033572282
  0
VERTEX
  5
75F
  8
0
 10
77.956336724379469
 20
47.092893218812613
 30
0.0
 42
-0.0984914033571312
  0
VERTEX
  5
760
  8
0
 10
77.7395639730548
 20
47.417316567634607
 30
0.0
 42
-0.0984914033570324
  0
VERTEX
  5
761
  8
0
 10
77.663443505566022
 20
47.80000000000053
 30
0.0
 42
-0.0984914033569638
  0
SEQEND
  5
762
  8
0
  0
POLYLINE
  5
1C7
  8
0
 66
     1
 10
0.0
 20
0.0
 30
0.0
  0
VERTEX
  5
763
  8
0
 10
79.313522219981479
 20
47.80000000000053
 30
0.0
 42
-0.0658531053090809
  0
VERTEX
  5
764
  8
0
 10
79.260797803233913
 20
47.401417654219053
 30
0.0
 42
-0.0785101941950526
  0
VERTEX
  5
765
  8
0
 10
79.123118572834215
 20
47.092893218813913
 30
0.0
 42
-0.1071724308083107
  0
VERTEX
  5
766
  8
0
 10
78.880874714755208
 20
46.852849673204538
 30
0.0
 42
-0.1659312787622624
  0
VERTEX
  5
767
  8
0
 10
78.663443505566022
 20
46.800000000003081
 30
0.0
 42
-0.1427851824038871
  0
SEQEND
  5
768
  8
0
  0
POLYLINE
  5
1CE
  8
0
 66
     1
 10
0.0
 20
0.0
 30
0.0
  0
VERTEX
  5
769
  8
0
 10
80.959397875309605
 20
46.800000000000452
 30
0.0
 42
-0.0984914033571658
  0
VERTEX
  5
76A
  8
0
 10
80.576714442944535
 20
46.876120467489159
 30
0.0
 42
-0.098491403357172
  0
VERTEX
  5
76B
  8
0
 10
80.252291094123066
 20
47.092893218813913
 30
0.0
 42
-0.0984914033571508
  0
VERTEX
  5
76C
  8
0
 10
80.035518342798326
 20
47.417316567635403
 30
0.0
 42
-0.0984914033571478
  0
VERTEX
  5
76D
  8
0
 10
79.959397875309605
 20
47.80000000000053
 30
0.0
 42
-0.0984914033571673
  0
SEQEND
  5
76E
  8
0
  0
POLYLINE
  5
1D5
  8
0
 66
     1
 10
0.0
 20
0.0
 30
0.0
  0
VERTEX
  5
76F
  8
0
 10
81.762264045456533
 20
47.80000000000053
 30
0.0
 42
-0.0804359624902103
  0
VERTEX
  5
770
  8
0
 10
81.698808989642686
 20
47.408107473321508
 30
0.0
 42
-0.0890929912207549
  0
VERTEX
  5
771
  8
0
 10
81.527109988605787
 20
47.092893218813913
 30
0.0
 42
-0.1048843200885143
  0
VERTEX
  5
772
  8
0
 10
81.236879719070629
 20
46.855637368220187
 30
0.0
 42
-0.1401148188576861
  0
VERTEX
  5
773
  8
0
 10
80.959397875309634
 20
46.800000000001212
 30
0.0
 42
-0.1196412996191014
  0
SEQEND
  5
774
  8
0
  0
POLYLINE
  5
1DC
  8
0
 66
     1
 10
0.0
 20
0.0
 30
0.0
  0
VERTEX
  5
775
  8
0
 10
83.708685786052683
 20
46.799999999999422
 30
0.0
 42
-0.0984914033572873
  0
VERTEX
  5
776
  8
0
 10
83.326002353687613
 20
46.876120467488242
 30
0.0
 42
-0.0984914033572162
  0
VERTEX
  5
777
  8
0
 10
83.00157900486613
 20
47.092893218813181
 30
0.0
 42
-0.0984914033571274
  0
VERTEX
  5
778
  8
0
 10
82.784806253541433
 20
47.417316567634941
 30
0.0
 42
-0.098491403357068
  0
VERTEX
  5
779
  8
0
 10
82.708685786052683
 20
47.80000000000053
 30
0.0
 42
-0.0984914033570572
  0
SEQEND
  5
77A
  8
0
  0
POLYLINE
  5
1E3
  8
0
 66
     1
 10
0.0
 20
0.0
 30
0.0
  0
VERTEX
  5
77B
  8
0
 10
84.624080349664837
 20
47.80000000000053
 30
0.0
 42
-0.0908538834176699
  0
VERTEX
  5
77C
  8
0
 10
84.553232233326554
 20
47.413316993118663
 30
0.0
 42
-0.0949929524798451
  0
VERTEX
  5
77D
  8
0
 10
84.35596748944414
 20
47.09289321881392
 30
0.0
 42
-0.1014994190925952
  0
VERTEX
  5
77E
  8
0
 10
84.030223167450984
 20
46.856765084462772
 30
0.0
 42
-0.1257499017973639
  0
VERTEX
  5
77F
  8
0
 10
83.708685786052712
 20
46.799999999999422
 30
0.0
 42
-0.1066336159217019
  0
SEQEND
  5
780
  8
0
  0
POLYLINE
  5
1EA
  8
0
 66
     1
 10
0.0
 20
0.0
 30
0.0
  0
VERTEX
  5
781
  8
0
 10
86.773446461863045
 20
46.800000000000452
 30
0.0
 42
-0.098491403357143
  0
VERTEX
  5
782
  8
0
 10
86.390763029497975
 20
46.876120467489137
 30
0.0
 42
-0.09849140335715
  0
VERTEX
  5
783
  8
0
 10
86.066339680676535
 20
47.09289321881392
 30
0.0
 42
-0.0984914033571625
  0
VERTEX
  5
784
  8
0
 10
85.849566929351766
 20
47.417316567635432
 30
0.0
 42
-0.0984914033571359
  0
VERTEX
  5
785
  8
0
 10
85.773446461863074
 20
47.80000000000053
 30
0.0
 42
-0.0984914033571865
  0
SEQEND
  5
786
  8
0
  0
POLYLINE
  5
1F1
  8
0
 66
     1
 10
0.0
 20
0.0
 30
0.0
  0
VERTEX
  5
787
  8
0
 10
87.755467713145805
 20
47.80000000000053
 30
0.0
 42
-0.0968829132726677
  0
VERTEX
  5
788
  8
0
 10
87.680447199301767
 20
47.416463077088778
 30
0.0
 42
-0.0978105251226464
  0
VERTEX
  5
789
  8
0
 10
87.467840347914404
 20
47.09289321881392
 30
0.0
 42
-0.0991515993958034
  0
VERTEX
  5
78A
  8
0
 10
87.120941829741597
 20
46.857187341703522
 30
0.0
 42
-0.1185742898729348
  0
VERTEX
  5
78B
  8
0
 10
86.773446461863074
 20
46.800000000003493
 30
0.0
 42
-0.1001211748857188
  0
SEQEND
  5
78C
  8
0
  0
LINE
  5
1F8
  8
0
 10
89.000000005061437
 20
56.851332269854318
 30
0.0
 11
89.000000005061437
 21
47.80000000000053
 31
0.0
  0
LINE
  5
1F9
  8
0
 10
87.755467713145805
 20
56.851332269854318
 30
0.0
 11
87.755467713145805
 21
47.80000000000053
 31
0.0
  0
LINE
  5
1FA
  8
0
 10
85.773446461863074
 20
56.08725759394305
 30
0.0
 11
85.773446461863074
 21
47.80000000000053
 31
0.0
  0
LINE
  5
1FB
  8
0
 10
84.624080349664837
 20
56.851332269854318
 30
0.0
 11
84.624080349664837
 21
47.80000000000053
 31
0.0
  0
LINE
  5
1FC
  8
0
 10
82.708685786052726
 20
55.942013065640779
 30
0.0
 11
82.708685786052726
 21
47.80000000000053
 31
0.0
  0
LINE
  5
1FD
  8
0
 10
81.762264045456533
 20
56.851332269854318
 30
0.0
 11
81.762264045456533
 21
47.800000000000487
 31
0.0
  0
LINE
  5
1FE
  8
0
 10
79.959397875309634
 20
55.886598184311552
 30
0.0
 11
79.959397875309634
 21
47.800000000000487
 31
0.0
  0
LINE
  5
1FF
  8
0
 10
79.313522219981479
 20
56.851332269854318
 30
0.0
 11
79.313522219981479
 21
47.800000000000473
 31
0.0
  0
LINE
  5
200
  8
0
 10
77.663443505566022
 20
55.863012779980899
 30
0.0
 11
77.663443505566022
 21
47.800000000000473
 31
0.0
  0
LINE
  5
201
  8
0
 10
77.400645013478908
 20
56.851332269854318
 30
0.0
 11
77.400645013478908
 21
47.800000000000473
 31
0.0
  0
LINE
  5
202
  8
0
 10
75.935951416042386
 20
55.853972197374688
 30
0.0
 11
75.935951416042386
 21
47.800000000000438
 31
0.0
  0
LINE
  5
203
  8
0
 10
74.863545273524466
 20
55.851540314224152
 30
0.0
 11
74.863545273524466
 21
47.800000000000438
 31
0.0
  0
LINE
  5
204
  8
0
 10
74.5
 20
55.851332269852819
 30
0.0
 11
74.5
 21
47.800000000000438
 31
0.0
  0
LINE
  5
205
  8
0
 10
75.5
 20
56.85133226985279
 30
0.0
 11
75.466411439609487
 21
56.817743709462277
 31
0.0
  0
ARC
  5
206
  8
0
 10
75.5
 20
47.800000000000438
 30
0.0
 40
1.0
 50
180.0
 51
271.97610828571601
  0
LINE
  5
207
  8
0
 10
75.500000000000057
 20
57.851332269854332
 30
0.0
 11
75.5
 21
56.85133226985279
 31
0.0
  0
LINE
  5
208
  8
0
 10
75.5
 20
46.800000000000452
 30
0.0
 11
75.5
 21
46.0
 31
0.0
  0
LINE
  5
209
  8
2
 10
96.000000000000028
 20
49.500000000000007
 30
0.0
 11
96.000000000000028
 21
28.300000000000249
 31
0.0
  0
LINE
  5
20A
  8
2
 10
94.999999999999943
 20
45.000000000000007
 30
0.0
 11
94.188000000000088
 21
46.406425255745667
 31
0.0
  0
LINE
  5
20B
  8
2
 10
95.0
 20
28.68800000000012
 30
0.0
 11
95.0
 21
45.000000000000007
 31
0.0
  0
LINE
  5
20C
  8
2
 10
94.188000000000088
 20
29.500000000000071
 30
0.0
 11
94.188000000000088
 21
47.000000000000007
 31
0.0
  0
LINE
  5
20D
  8
2
 10
95.688000000000144
 20
27.999999999999961
 30
0.0
 11
94.188000000000088
 21
29.500000000000011
 31
0.0
  0
LINE
  5
20E
  8
2
 10
90.0
 20
49.500000000000007
 30
0.0
 11
94.188000000000088
 21
47.000000000000007
 31
0.0
  0
INSERT
  5
5FB
  8
0
  2
BATU
 10
0.0
 20
0.0
 30
0.0
 41
0.001
 42
0.001
 43
0.001
  0
TEXT
  5
849
  8
0
 62
     3
 10
0.0
 20
0.0
 30
0.0
 40
10.0
  1
LKF30
  7
STANDARD1
  0
ENDSEC
  0
EOF
